  0
SECTION
  2
HEADER
  9
$ACADVER
  1
AC1024
  9
$ACADMAINTVER
 70
     6
  9
$DWGCODEPAGE
  3
UNDEFINED
  9
$INSBASE
 10
0.0
 20
0.0
 30
0.0
  9
$EXTMIN
 10
1.000000000000000E+20
 20
1.000000000000000E+20
 30
1.000000000000000E+20
  9
$EXTMAX
 10
-1.000000000000000E+20
 20
-1.000000000000000E+20
 30
-1.000000000000000E+20
  9
$LIMMIN
 10
0.0
 20
0.0
  9
$LIMMAX
 10
12.0
 20
9.0
  9
$ORTHOMODE
 70
     0
  9
$REGENMODE
 70
     1
  9
$FILLMODE
 70
     1
  9
$QTEXTMODE
 70
     0
  9
$MIRRTEXT
 70
     1
  9
$LTSCALE
 40
1.0
  9
$ATTMODE
 70
     1
  9
$TEXTSIZE
 40
0.2
  9
$TRACEWID
 40
0.05
  9
$TEXTSTYLE
  7
Standard
  9
$CLAYER
  8
0
  9
$CELTYPE
  6
ByLayer
  9
$CECOLOR
 62
   256
  9
$CELTSCALE
 40
1.0
  9
$DISPSILH
 70
     0
  9
$DIMSCALE
 40
1.0
  9
$DIMASZ
 40
0.18
  9
$DIMEXO
 40
0.0625
  9
$DIMDLI
 40
0.38
  9
$DIMRND
 40
0.0
  9
$DIMDLE
 40
0.0
  9
$DIMEXE
 40
0.18
  9
$DIMTP
 40
0.0
  9
$DIMTM
 40
0.0
  9
$DIMTXT
 40
0.18
  9
$DIMCEN
 40
0.09
  9
$DIMTSZ
 40
0.0
  9
$DIMTOL
 70
     0
  9
$DIMLIM
 70
     0
  9
$DIMTIH
 70
     1
  9
$DIMTOH
 70
     1
  9
$DIMSE1
 70
     0
  9
$DIMSE2
 70
     0
  9
$DIMTAD
 70
     0
  9
$DIMZIN
 70
     0
  9
$DIMBLK
  1

  9
$DIMASO
 70
     1
  9
$DIMSHO
 70
     1
  9
$DIMPOST
  1

  9
$DIMAPOST
  1

  9
$DIMALT
 70
     0
  9
$DIMALTD
 70
     2
  9
$DIMALTF
 40
25.4
  9
$DIMLFAC
 40
1.0
  9
$DIMTOFL
 70
     0
  9
$DIMTVP
 40
0.0
  9
$DIMTIX
 70
     0
  9
$DIMSOXD
 70
     0
  9
$DIMSAH
 70
     0
  9
$DIMBLK1
  1

  9
$DIMBLK2
  1

  9
$DIMSTYLE
  2
Standard
  9
$DIMCLRD
 70
     0
  9
$DIMCLRE
 70
     0
  9
$DIMCLRT
 70
     0
  9
$DIMTFAC
 40
1.0
  9
$DIMGAP
 40
0.09
  9
$DIMJUST
 70
     0
  9
$DIMSD1
 70
     0
  9
$DIMSD2
 70
     0
  9
$DIMTOLJ
 70
     1
  9
$DIMTZIN
 70
     0
  9
$DIMALTZ
 70
     0
  9
$DIMALTTZ
 70
     0
  9
$DIMUPT
 70
     0
  9
$DIMDEC
 70
     4
  9
$DIMTDEC
 70
     4
  9
$DIMALTU
 70
     2
  9
$DIMALTTD
 70
     2
  9
$DIMTXSTY
  7
Standard
  9
$DIMAUNIT
 70
     0
  9
$DIMADEC
 70
     0
  9
$DIMALTRND
 40
0.0
  9
$DIMAZIN
 70
     0
  9
$DIMDSEP
 70
    46
  9
$DIMATFIT
 70
     3
  9
$DIMFRAC
 70
     0
  9
$DIMLDRBLK
  1

  9
$DIMLUNIT
 70
     2
  9
$DIMLWD
 70
    -2
  9
$DIMLWE
 70
    -2
  9
$DIMTMOVE
 70
     0
  9
$DIMFXL
 40
1.0
  9
$DIMFXLON
 70
     0
  9
$DIMJOGANG
 40
0.7853981633974483
  9
$DIMTFILL
 70
     0
  9
$DIMTFILLCLR
 70
     0
  9
$DIMARCSYM
 70
     0
  9
$DIMLTYPE
  6

  9
$DIMLTEX1
  6

  9
$DIMLTEX2
  6

  9
$DIMTXTDIRECTION
 70
     0
  9
$LUNITS
 70
     2
  9
$LUPREC
 70
     4
  9
$SKETCHINC
 40
0.1
  9
$FILLETRAD
 40
0.5
  9
$AUNITS
 70
     0
  9
$AUPREC
 70
     0
  9
$MENU
  1
.
  9
$ELEVATION
 40
0.0
  9
$PELEVATION
 40
0.0
  9
$THICKNESS
 40
0.0
  9
$LIMCHECK
 70
     0
  9
$CHAMFERA
 40
0.5
  9
$CHAMFERB
 40
0.5
  9
$CHAMFERC
 40
1.0
  9
$CHAMFERD
 40
0.0
  9
$SKPOLY
 70
     0
  9
$TDCREATE
 40
2457917.586631933
  9
$TDUCREATE
 40
2457917.211631944
  9
$TDUPDATE
 40
2457917.586631933
  9
$TDUUPDATE
 40
2457917.211631944
  9
$TDINDWG
 40
0.0000000116
  9
$TDUSRTIMER
 40
0.0000000116
  9
$USRTIMER
 70
     1
  9
$ANGBASE
 50
0.0
  9
$ANGDIR
 70
     0
  9
$PDMODE
 70
     0
  9
$PDSIZE
 40
0.0
  9
$PLINEWID
 40
0.0
  9
$SPLFRAME
 70
     0
  9
$SPLINETYPE
 70
     6
  9
$SPLINESEGS
 70
     8
  9
$HANDSEED
  5
F0
  9
$SURFTAB1
 70
     6
  9
$SURFTAB2
 70
     6
  9
$SURFTYPE
 70
     6
  9
$SURFU
 70
     6
  9
$SURFV
 70
     6
  9
$UCSBASE
  2

  9
$UCSNAME
  2

  9
$UCSORG
 10
0.0
 20
0.0
 30
0.0
  9
$UCSXDIR
 10
1.0
 20
0.0
 30
0.0
  9
$UCSYDIR
 10
0.0
 20
1.0
 30
0.0
  9
$UCSORTHOREF
  2

  9
$UCSORTHOVIEW
 70
     0
  9
$UCSORGTOP
 10
0.0
 20
0.0
 30
0.0
  9
$UCSORGBOTTOM
 10
0.0
 20
0.0
 30
0.0
  9
$UCSORGLEFT
 10
0.0
 20
0.0
 30
0.0
  9
$UCSORGRIGHT
 10
0.0
 20
0.0
 30
0.0
  9
$UCSORGFRONT
 10
0.0
 20
0.0
 30
0.0
  9
$UCSORGBACK
 10
0.0
 20
0.0
 30
0.0
  9
$PUCSBASE
  2

  9
$PUCSNAME
  2

  9
$PUCSORG
 10
0.0
 20
0.0
 30
0.0
  9
$PUCSXDIR
 10
1.0
 20
0.0
 30
0.0
  9
$PUCSYDIR
 10
0.0
 20
1.0
 30
0.0
  9
$PUCSORTHOREF
  2

  9
$PUCSORTHOVIEW
 70
     0
  9
$PUCSORGTOP
 10
0.0
 20
0.0
 30
0.0
  9
$PUCSORGBOTTOM
 10
0.0
 20
0.0
 30
0.0
  9
$PUCSORGLEFT
 10
0.0
 20
0.0
 30
0.0
  9
$PUCSORGRIGHT
 10
0.0
 20
0.0
 30
0.0
  9
$PUCSORGFRONT
 10
0.0
 20
0.0
 30
0.0
  9
$PUCSORGBACK
 10
0.0
 20
0.0
 30
0.0
  9
$USERI1
 70
     0
  9
$USERI2
 70
     0
  9
$USERI3
 70
     0
  9
$USERI4
 70
     0
  9
$USERI5
 70
     0
  9
$USERR1
 40
0.0
  9
$USERR2
 40
0.0
  9
$USERR3
 40
0.0
  9
$USERR4
 40
0.0
  9
$USERR5
 40
0.0
  9
$WORLDVIEW
 70
     1
  9
$SHADEDGE
 70
     3
  9
$SHADEDIF
 70
    70
  9
$TILEMODE
 70
     1
  9
$MAXACTVP
 70
    64
  9
$PINSBASE
 10
0.0
 20
0.0
 30
0.0
  9
$PLIMCHECK
 70
     0
  9
$PEXTMIN
 10
1.000000000000000E+20
 20
1.000000000000000E+20
 30
1.000000000000000E+20
  9
$PEXTMAX
 10
-1.000000000000000E+20
 20
-1.000000000000000E+20
 30
-1.000000000000000E+20
  9
$PLIMMIN
 10
0.0
 20
0.0
  9
$PLIMMAX
 10
12.0
 20
9.0
  9
$UNITMODE
 70
     0
  9
$VISRETAIN
 70
     1
  9
$PLINEGEN
 70
     0
  9
$PSLTSCALE
 70
     1
  9
$TREEDEPTH
 70
  3020
  9
$CMLSTYLE
  2
Standard
  9
$CMLJUST
 70
     0
  9
$CMLSCALE
 40
1.0
  9
$PROXYGRAPHICS
 70
     1
  9
$MEASUREMENT
 70
     0
  9
$CELWEIGHT
370
    -1
  9
$ENDCAPS
280
     0
  9
$JOINSTYLE
280
     0
  9
$LWDISPLAY
290
     1
  9
$INSUNITS
 70
     1
  9
$HYPERLINKBASE
  1

  9
$STYLESHEET
  1

  9
$XEDIT
290
     1
  9
$CEPSNTYPE
380
     0
  9
$PSTYLEMODE
290
     1
  9
$FINGERPRINTGUID
  2
{50A60B71-C1E9-9169-6674-3F1C36E9660D}
  9
$VERSIONGUID
  2
{FAEB1C32-E019-11D5-929B-00C0DF256EC4}
  9
$EXTNAMES
290
     1
  9
$PSVPSCALE
 40
0.0
  9
$OLESTARTUP
290
     0
  9
$SORTENTS
280
   127
  9
$INDEXCTL
280
     0
  9
$HIDETEXT
280
     1
  9
$XCLIPFRAME
280
     2
  9
$HALOGAP
280
     0
  9
$OBSCOLOR
 70
   257
  9
$OBSLTYPE
280
     0
  9
$INTERSECTIONDISPLAY
280
     0
  9
$INTERSECTIONCOLOR
 70
   257
  9
$DIMASSOC
280
     2
  9
$PROJECTNAME
  1

  9
$CAMERADISPLAY
290
     0
  9
$LENSLENGTH
 40
50.0
  9
$CAMERAHEIGHT
 40
0.0
  9
$STEPSPERSEC
 40
2.0
  9
$STEPSIZE
 40
6.0
  9
$3DDWFPREC
 40
2.0
  9
$PSOLWIDTH
 40
0.25
  9
$PSOLHEIGHT
 40
4.0
  9
$LOFTANG1
 40
1.570796326794897
  9
$LOFTANG2
 40
1.570796326794897
  9
$LOFTMAG1
 40
0.0
  9
$LOFTMAG2
 40
0.0
  9
$LOFTPARAM
 70
     7
  9
$LOFTNORMALS
280
     1
  9
$LATITUDE
 40
37.795
  9
$LONGITUDE
 40
-122.394
  9
$NORTHDIRECTION
 40
0.0
  9
$TIMEZONE
 70
 -8000
  9
$LIGHTGLYPHDISPLAY
280
     1
  9
$TILEMODELIGHTSYNCH
280
     1
  9
$CMATERIAL
347
3C
  9
$SOLIDHIST
280
     1
  9
$SHOWHIST
280
     1
  9
$DWFFRAME
280
     2
  9
$DGNFRAME
280
     2
  9
$REALWORLDSCALE
290
     1
  9
$INTERFERECOLOR
 62
   256
  9
$CSHADOW
280
     0
  9
$SHADOWPLANELOCATION
 40
0.0
  0
ENDSEC
  0
SECTION
  2
CLASSES
  0
CLASS
  1
ACDBDICTIONARYWDFLT
  2
AcDbDictionaryWithDefault
  3
ObjectDBX Classes
 90
        0
 91
        4
280
     0
281
     0
  0
CLASS
  1
VISUALSTYLE
  2
AcDbVisualStyle
  3
ObjectDBX Classes
 90
     4095
 91
        4
280
     0
281
     0
  0
CLASS
  1
MATERIAL
  2
AcDbMaterial
  3
ObjectDBX Classes
 90
     1153
 91
        4
280
     0
281
     0
  0
CLASS
  1
SUN
  2
AcDbSun
  3
SCENEOE
 90
     1024
 91
        4
280
     0
281
     0
  0
ENDSEC
  0
SECTION
  2
TABLES
  0
TABLE
  2
VPORT
  5
8
330
0
100
AcDbSymbolTable
 70
     1
  0
VPORT
  5
29
330
8
100
AcDbSymbolTableRecord
100
AcDbViewportTableRecord
  2
*Active
 70
     0
 10
0.0
 20
0.0
 11
1.0
 21
1.0
 12
0.0
 22
0.0
 13
0.0
 23
0.0
 14
0.5
 24
0.5
 15
0.5
 25
0.5
 16
0.0
 26
0.0
 36
1.0
 17
63.499999984125
 27
-89.00059456108309
 37
0.0
 40
178.0011891221662
 41
0.7134783795241226
 42
50.0
 43
0.0
 44
0.0
 50
0.0
 51
0.0
 71
     0
 72
   100
 73
     1
 74
     3
 75
     0
 76
     0
 77
     0
 78
     0
281
     0
 65
     1
110
0.0
120
0.0
130
0.0
111
1.0
121
0.0
131
0.0
112
0.0
122
1.0
132
0.0
 79
     0
146
0.0
 60
     3
 61
     5
292
     1
282
     1
141
0.0
142
0.0
 63
   250
361
3F
  0
ENDTAB
  0
TABLE
  2
LTYPE
  5
5
330
0
100
AcDbSymbolTable
 70
     1
  0
LTYPE
  5
14
330
5
100
AcDbSymbolTableRecord
100
AcDbLinetypeTableRecord
  2
ByBlock
 70
     0
  3

 72
    65
 73
     0
 40
0.0
  0
LTYPE
  5
15
330
5
100
AcDbSymbolTableRecord
100
AcDbLinetypeTableRecord
  2
ByLayer
 70
     0
  3

 72
    65
 73
     0
 40
0.0
  0
LTYPE
  5
16
330
5
100
AcDbSymbolTableRecord
100
AcDbLinetypeTableRecord
  2
Continuous
 70
     0
  3
Solid line
 72
    65
 73
     0
 40
0.0
  0
ENDTAB
  0
TABLE
  2
LAYER
  5
2
330
0
100
AcDbSymbolTable
 70
     2
  0
LAYER
  5
10
330
2
100
AcDbSymbolTableRecord
100
AcDbLayerTableRecord
  2
0
 70
     0
 62
     7
  6
Continuous
370
    -3
390
F
347
3E
  0
LAYER
  5
40
330
2
100
AcDbSymbolTableRecord
100
AcDbLayerTableRecord
  2
_U+30EC_U+30A4_U+30E4_U+30FC 1
 70
     0
 62
     7
  6
Continuous
370
    -3
390
F
347
3E
  0
ENDTAB
  0
TABLE
  2
STYLE
  5
3
330
0
100
AcDbSymbolTable
 70
     1
  0
STYLE
  5
11
330
3
100
AcDbSymbolTableRecord
100
AcDbTextStyleTableRecord
  2
Standard
 70
     0
 40
0.0
 41
1.0
 50
0.0
 71
     0
 42
0.2
  3
txt
  4

  0
ENDTAB
  0
TABLE
  2
VIEW
  5
6
330
0
100
AcDbSymbolTable
 70
     0
  0
ENDTAB
  0
TABLE
  2
UCS
  5
7
330
0
100
AcDbSymbolTable
 70
     0
  0
ENDTAB
  0
TABLE
  2
APPID
  5
9
330
0
100
AcDbSymbolTable
 70
     1
  0
APPID
  5
12
330
9
100
AcDbSymbolTableRecord
100
AcDbRegAppTableRecord
  2
ACAD
 70
     0
  0
ENDTAB
  0
TABLE
  2
DIMSTYLE
  5
A
330
0
100
AcDbSymbolTable
 70
     1
100
AcDbDimStyleTable
  0
DIMSTYLE
105
27
330
A
100
AcDbSymbolTableRecord
100
AcDbDimStyleTableRecord
  2
Standard
 70
     0
178
     0
340
11
  0
ENDTAB
  0
TABLE
  2
BLOCK_RECORD
  5
1
330
0
100
AcDbSymbolTable
 70
     8
  0
BLOCK_RECORD
  5
1F
330
1
100
AcDbSymbolTableRecord
100
AcDbBlockTableRecord
  2
*Model_Space
340
22
 70
     0
280
     1
281
     0
  0
BLOCK_RECORD
  5
1B
330
1
100
AcDbSymbolTableRecord
100
AcDbBlockTableRecord
  2
*Paper_Space
340
1E
 70
     0
280
     1
281
     0
  0
BLOCK_RECORD
  5
23
330
1
100
AcDbSymbolTableRecord
100
AcDbBlockTableRecord
  2
*Paper_Space0
340
26
 70
     0
280
     1
281
     0
  0
BLOCK_RECORD
  5
41
330
1
100
AcDbSymbolTableRecord
100
AcDbBlockTableRecord
  2
block 2
340
0
102
{BLKREFS
331
42
102
}
 70
     0
280
     1
281
     0
  0
BLOCK_RECORD
  5
45
330
1
100
AcDbSymbolTableRecord
100
AcDbBlockTableRecord
  2
block 3
340
0
102
{BLKREFS
331
46
102
}
 70
     0
280
     1
281
     0
  0
BLOCK_RECORD
  5
55
330
1
100
AcDbSymbolTableRecord
100
AcDbBlockTableRecord
  2
block 4
340
0
102
{BLKREFS
331
56
102
}
 70
     0
280
     1
281
     0
  0
BLOCK_RECORD
  5
99
330
1
100
AcDbSymbolTableRecord
100
AcDbBlockTableRecord
  2
block 5
340
0
102
{BLKREFS
331
9A
102
}
 70
     0
280
     1
281
     0
  0
BLOCK_RECORD
  5
AB
330
1
100
AcDbSymbolTableRecord
100
AcDbBlockTableRecord
  2
block 6
340
0
102
{BLKREFS
331
AC
102
}
 70
     0
280
     1
281
     0
  0
BLOCK_RECORD
  5
BF
330
1
100
AcDbSymbolTableRecord
100
AcDbBlockTableRecord
  2
block 7
340
0
102
{BLKREFS
331
C0
102
}
 70
     0
280
     1
281
     0
  0
BLOCK_RECORD
  5
DB
330
1
100
AcDbSymbolTableRecord
100
AcDbBlockTableRecord
  2
block 8
340
0
102
{BLKREFS
331
DC
102
}
 70
     0
280
     1
281
     0
  0
ENDTAB
  0
ENDSEC
  0
SECTION
  2
BLOCKS
  0
BLOCK
  5
20
330
1F
100
AcDbEntity
  8
0
100
AcDbBlockBegin
  2
*Model_Space
 70
     0
 10
0.0
 20
0.0
 30
0.0
  3
*Model_Space
  1

  0
ENDBLK
  5
21
330
1F
100
AcDbEntity
  8
0
100
AcDbBlockEnd
  0
BLOCK
  5
1C
330
1B
100
AcDbEntity
 67
     1
  8
0
100
AcDbBlockBegin
  2
*Paper_Space
 70
     0
 10
0.0
 20
0.0
 30
0.0
  3
*Paper_Space
  1

  0
ENDBLK
  5
1D
330
1B
100
AcDbEntity
 67
     1
  8
0
100
AcDbBlockEnd
  0
BLOCK
  5
24
330
23
100
AcDbEntity
  8
0
100
AcDbBlockBegin
  2
*Paper_Space0
 70
     0
 10
0.0
 20
0.0
 30
0.0
  3
*Paper_Space0
  1

  0
ENDBLK
  5
25
330
23
100
AcDbEntity
  8
0
100
AcDbBlockEnd
  0
BLOCK
  5
43
330
41
100
AcDbEntity
  8
0
100
AcDbBlockBegin
  2
block 2
 70
     0
 10
0.0
 20
0.0
 30
0.0
  3
block 2
  1

  0
INSERT
  5
46
330
41
100
AcDbEntity
  8
_U+30EC_U+30A4_U+30E4_U+30FC 1
100
AcDbBlockReference
  2
block 3
 10
0.0
 20
0.0
 30
0.0
  0
INSERT
  5
56
330
41
100
AcDbEntity
  8
_U+30EC_U+30A4_U+30E4_U+30FC 1
100
AcDbBlockReference
  2
block 4
 10
0.0
 20
0.0
 30
0.0
  0
ENDBLK
  5
44
330
41
100
AcDbEntity
  8
0
100
AcDbBlockEnd
  0
BLOCK
  5
47
330
45
100
AcDbEntity
  8
0
100
AcDbBlockBegin
  2
block 3
 70
     0
 10
0.0
 20
0.0
 30
0.0
  3
block 3
  1

  0
SPLINE
  5
49
330
45
100
AcDbEntity
  8
_U+30EC_U+30A4_U+30E4_U+30FC 1
370
     0
100
AcDbSpline
210
0.0
220
0.0
230
1.0
 70
    11
 71
     3
 72
    44
 73
    40
 74
     0
 42
0.0000000001
 43
0.0000000001
 12
1.0
 22
0.0
 32
0.0
 13
1.0
 23
0.0
 33
0.0
 40
0.0
 40
0.0
 40
0.0
 40
0.0
 40
1.0
 40
1.0
 40
1.0
 40
2.0
 40
2.0
 40
2.0
 40
3.0
 40
3.0
 40
3.0
 40
4.0
 40
4.0
 40
4.0
 40
5.0
 40
5.0
 40
5.0
 40
6.0
 40
6.0
 40
6.0
 40
7.0
 40
7.0
 40
7.0
 40
8.0
 40
8.0
 40
8.0
 40
9.0
 40
9.0
 40
9.0
 40
10.0
 40
10.0
 40
10.0
 40
11.0
 40
11.0
 40
11.0
 40
12.0
 40
12.0
 40
12.0
 40
13.0
 40
13.0
 40
13.0
 40
13.0
 10
57.45868054119089
 20
-97.9499213079778
 30
0.0
 10
57.2698893085992
 20
-98.10874020984782
 30
0.0
 10
57.18961858379288
 20
-98.18280976278069
 30
0.0
 10
57.14758841887283
 20
-98.3264702445156
 30
0.0
 10
57.14758841887283
 20
-98.3264702445156
 30
0.0
 10
57.82076007669065
 20
-98.3264702445156
 30
0.0
 10
57.82076007669065
 20
-98.3264702445156
 30
0.0
 10
57.82076007669065
 20
-98.3264702445156
 30
0.0
 10
57.82076007669065
 20
-98.5317979354365
 30
0.0
 10
57.82076007669065
 20
-98.5317979354365
 30
0.0
 10
57.82076007669065
 20
-98.5317979354365
 30
0.0
 10
56.93158093194766
 20
-98.5317979354365
 30
0.0
 10
56.93158093194766
 20
-98.5317979354365
 30
0.0
 10
56.95879718628114
 20
-98.17419702406757
 30
0.0
 10
57.01564126178776
 20
-98.0959933565524
 30
0.0
 10
57.34878199521142
 20
-97.79764808752977
 30
0.0
 10
57.57030163491298
 20
-97.59886607803084
 30
0.0
 10
57.62680120087108
 20
-97.53099769697143
 30
0.0
 10
57.62680120087108
 20
-97.39353838710996
 30
0.0
 10
57.62680120087108
 20
-97.27502710241735
 30
0.0
 10
57.56478948213658
 20
-97.14411347397787
 30
0.0
 10
57.39460176516524
 20
-97.14411347397787
 30
0.0
 10
57.1692925204299
 20
-97.14411347397787
 30
0.0
 10
57.16205781991088
 20
-97.37459036194107
 30
0.0
 10
57.1582682148771
 20
-97.49103458934252
 30
0.0
 10
57.1582682148771
 20
-97.49103458934252
 30
0.0
 10
56.96430933905754
 20
-97.49103458934252
 30
0.0
 10
56.96430933905754
 20
-97.49103458934252
 30
0.0
 10
56.97188854912508
 20
-97.3639105659368
 30
0.0
 10
56.98084579738673
 20
-97.25194496266619
 30
0.0
 10
57.05043672618879
 20
-97.13343367797358
 30
0.0
 10
57.14552136158168
 20
-96.97254771881242
 30
0.0
 10
57.30675183029137
 20
-96.93878578305697
 30
0.0
 10
57.40734861846067
 20
-96.93878578305697
 30
0.0
 10
57.64712726423405
 20
-96.93878578305697
 30
0.0
 10
57.82627222946704
 20
-97.12275388196932
 30
0.0
 10
57.82627222946704
 20
-97.3956054444011
 30
0.0
 10
57.82627222946704
 20
-97.62435978462169
 30
0.0
 10
57.72567544129775
 20
-97.72357853459688
 30
0.0
 10
57.45868054119089
 20
-97.9499213079778
 30
0.0
  0
HATCH
  5
4A
330
45
100
AcDbEntity
  8
_U+30EC_U+30A4_U+30E4_U+30FC 1
 62
   179
420
  2234388
100
AcDbHatch
 10
0.0
 20
0.0
 30
0.0
210
0.0
220
0.0
230
1.0
  2
SOLID
 70
     1
 71
     0
 91
        1
 92
        1
 93
        1
 72
     4
 94
        3
 73
     0
 74
     1
 95
       44
 96
       40
 40
0.0
 40
0.0
 40
0.0
 40
0.0
 40
1.0
 40
1.0
 40
1.0
 40
2.0
 40
2.0
 40
2.0
 40
3.0
 40
3.0
 40
3.0
 40
4.0
 40
4.0
 40
4.0
 40
5.0
 40
5.0
 40
5.0
 40
6.0
 40
6.0
 40
6.0
 40
7.0
 40
7.0
 40
7.0
 40
8.0
 40
8.0
 40
8.0
 40
9.0
 40
9.0
 40
9.0
 40
10.0
 40
10.0
 40
10.0
 40
11.0
 40
11.0
 40
11.0
 40
12.0
 40
12.0
 40
12.0
 40
13.0
 40
13.0
 40
13.0
 40
13.0
 10
57.45868054119089
 20
-97.9499213079778
 10
57.2698893085992
 20
-98.10874020984782
 10
57.18961858379288
 20
-98.18280976278069
 10
57.14758841887283
 20
-98.3264702445156
 10
57.14758841887283
 20
-98.3264702445156
 10
57.82076007669065
 20
-98.3264702445156
 10
57.82076007669065
 20
-98.3264702445156
 10
57.82076007669065
 20
-98.3264702445156
 10
57.82076007669065
 20
-98.5317979354365
 10
57.82076007669065
 20
-98.5317979354365
 10
57.82076007669065
 20
-98.5317979354365
 10
56.93158093194766
 20
-98.5317979354365
 10
56.93158093194766
 20
-98.5317979354365
 10
56.95879718628114
 20
-98.17419702406757
 10
57.01564126178776
 20
-98.0959933565524
 10
57.34878199521142
 20
-97.79764808752977
 10
57.57030163491298
 20
-97.59886607803084
 10
57.62680120087108
 20
-97.53099769697143
 10
57.62680120087108
 20
-97.39353838710996
 10
57.62680120087108
 20
-97.27502710241735
 10
57.56478948213658
 20
-97.14411347397787
 10
57.39460176516524
 20
-97.14411347397787
 10
57.1692925204299
 20
-97.14411347397787
 10
57.16205781991088
 20
-97.37459036194107
 10
57.1582682148771
 20
-97.49103458934252
 10
57.1582682148771
 20
-97.49103458934252
 10
56.96430933905754
 20
-97.49103458934252
 10
56.96430933905754
 20
-97.49103458934252
 10
56.97188854912508
 20
-97.3639105659368
 10
56.98084579738673
 20
-97.25194496266619
 10
57.05043672618879
 20
-97.13343367797358
 10
57.14552136158168
 20
-96.97254771881242
 10
57.30675183029137
 20
-96.93878578305697
 10
57.40734861846067
 20
-96.93878578305697
 10
57.64712726423405
 20
-96.93878578305697
 10
57.82627222946704
 20
-97.12275388196932
 10
57.82627222946704
 20
-97.3956054444011
 10
57.82627222946704
 20
-97.62435978462169
 10
57.72567544129775
 20
-97.72357853459688
 10
57.45868054119089
 20
-97.9499213079778
 97
        0
 97
        0
 75
     2
 76
     1
 98
        0
  0
POLYLINE
  5
4B
330
45
100
AcDbEntity
  8
_U+30EC_U+30A4_U+30E4_U+30FC 1
370
     0
100
AcDb2dPolyline
 66
     1
 10
0.0
 20
0.0
 30
0.0
  0
VERTEX
  5
4C
330
4B
100
AcDbEntity
  8
_U+30EC_U+30A4_U+30E4_U+30FC 1
370
     0
100
AcDbVertex
100
AcDb2dVertex
 10
58.01471895251021
 20
-98.5317979354365
 30
0.0
  0
VERTEX
  5
4D
330
4B
100
AcDbEntity
  8
_U+30EC_U+30A4_U+30E4_U+30FC 1
370
     0
100
AcDbVertex
100
AcDb2dVertex
 10
58.01471895251021
 20
-98.27996145546474
 30
0.0
  0
VERTEX
  5
4E
330
4B
100
AcDbEntity
  8
_U+30EC_U+30A4_U+30E4_U+30FC 1
370
     0
100
AcDbVertex
100
AcDb2dVertex
 10
58.232448987178
 20
-98.27996145546474
 30
0.0
  0
VERTEX
  5
4F
330
4B
100
AcDbEntity
  8
_U+30EC_U+30A4_U+30E4_U+30FC 1
370
     0
100
AcDbVertex
100
AcDb2dVertex
 10
58.232448987178
 20
-98.5317979354365
 30
0.0
  0
VERTEX
  5
50
330
4B
100
AcDbEntity
  8
_U+30EC_U+30A4_U+30E4_U+30FC 1
370
     0
100
AcDbVertex
100
AcDb2dVertex
 10
58.01471895251021
 20
-98.5317979354365
 30
0.0
  0
SEQEND
  5
51
330
4B
100
AcDbEntity
  8
_U+30EC_U+30A4_U+30E4_U+30FC 1
370
     0
  0
HATCH
  5
52
330
45
100
AcDbEntity
  8
_U+30EC_U+30A4_U+30E4_U+30FC 1
 62
   179
420
  2234388
100
AcDbHatch
 10
0.0
 20
0.0
 30
0.0
210
0.0
220
0.0
230
1.0
  2
SOLID
 70
     1
 71
     0
 91
        1
 92
        1
 93
        4
 72
     1
 10
58.01471895251021
 20
-98.5317979354365
 11
58.01471895251021
 21
-98.27996145546474
 72
     1
 10
58.01471895251021
 20
-98.27996145546474
 11
58.232448987178
 21
-98.27996145546474
 72
     1
 10
58.232448987178
 20
-98.27996145546474
 11
58.232448987178
 21
-98.5317979354365
 72
     1
 10
58.232448987178
 20
-98.5317979354365
 11
58.01471895251021
 21
-98.5317979354365
 97
        0
 75
     2
 76
     1
 98
        0
  0
SPLINE
  5
53
330
45
100
AcDbEntity
  8
_U+30EC_U+30A4_U+30E4_U+30FC 1
370
     0
100
AcDbSpline
210
0.0
220
0.0
230
1.0
 70
    11
 71
     3
 72
    53
 73
    49
 74
     0
 42
0.0000000001
 43
0.0000000001
 12
1.0
 22
0.0
 32
0.0
 13
1.0
 23
0.0
 33
0.0
 40
0.0
 40
0.0
 40
0.0
 40
0.0
 40
1.0
 40
1.0
 40
1.0
 40
2.0
 40
2.0
 40
2.0
 40
3.0
 40
3.0
 40
3.0
 40
4.0
 40
4.0
 40
4.0
 40
5.0
 40
5.0
 40
5.0
 40
6.0
 40
6.0
 40
6.0
 40
7.0
 40
7.0
 40
7.0
 40
8.0
 40
8.0
 40
8.0
 40
9.0
 40
9.0
 40
9.0
 40
10.0
 40
10.0
 40
10.0
 40
11.0
 40
11.0
 40
11.0
 40
12.0
 40
12.0
 40
12.0
 40
13.0
 40
13.0
 40
13.0
 40
14.0
 40
14.0
 40
14.0
 40
15.0
 40
15.0
 40
15.0
 40
16.0
 40
16.0
 40
16.0
 40
16.0
 10
58.85256617452297
 20
-98.58244083906968
 30
0.0
 10
58.78469779346355
 20
-98.58244083906968
 30
0.0
 10
58.6971923681382
 20
-98.56555987119195
 30
0.0
 10
58.60899792371581
 20
-98.50217011426335
 30
0.0
 10
58.45913627010744
 20
-98.39227156828387
 30
0.0
 10
58.44087726403561
 20
-98.26101343029586
 30
0.0
 10
58.42434080570641
 20
-98.15318194160754
 30
0.0
 10
58.42434080570641
 20
-98.15318194160754
 30
0.0
 10
58.61657713378336
 20
-98.15318194160754
 30
0.0
 10
58.61657713378336
 20
-98.15318194160754
 30
0.0
 10
58.66411945147981
 20
-98.35196395110646
 30
0.0
 10
58.77401799745927
 20
-98.3815917722796
 30
0.0
 10
58.8542887222656
 20
-98.3815917722796
 30
0.0
 10
58.97521157379786
 20
-98.3815917722796
 30
0.0
 10
59.10715873088294
 20
-98.28202851275589
 30
0.0
 10
59.10715873088294
 20
-98.04948456750152
 30
0.0
 10
59.10715873088294
 20
-97.79351397294747
 30
0.0
 10
58.95144041494964
 20
-97.72357853459688
 30
0.0
 10
58.84705402174657
 20
-97.72357853459688
 30
0.0
 10
58.81949325786457
 20
-97.72357853459688
 30
0.0
 10
58.6971923681382
 20
-97.72357853459688
 30
0.0
 10
58.62002222926861
 20
-97.85276961529375
 30
0.0
 10
58.62002222926861
 20
-97.85276961529375
 30
0.0
 10
58.46809351836909
 20
-97.83382159012488
 30
0.0
 10
58.46809351836909
 20
-97.83382159012488
 30
0.0
 10
58.46809351836909
 20
-97.83382159012488
 30
0.0
 10
58.57247991157216
 20
-96.987361629399
 30
0.0
 10
58.57247991157216
 20
-96.987361629399
 30
0.0
 10
58.57247991157216
 20
-96.987361629399
 30
0.0
 10
59.2459960789385
 20
-96.987361629399
 30
0.0
 10
59.2459960789385
 20
-96.987361629399
 30
0.0
 10
59.2459960789385
 20
-96.987361629399
 30
0.0
 10
59.2459960789385
 20
-97.18200952431562
 30
0.0
 10
59.2459960789385
 20
-97.18200952431562
 30
0.0
 10
59.2459960789385
 20
-97.18200952431562
 30
0.0
 10
58.71338431691888
 20
-97.18200952431562
 30
0.0
 10
58.71338431691888
 20
-97.18200952431562
 30
0.0
 10
58.71338431691888
 20
-97.18200952431562
 30
0.0
 10
58.65688475096078
 20
-97.6050672499043
 30
0.0
 10
58.65688475096078
 20
-97.6050672499043
 30
0.0
 10
58.70993922143363
 20
-97.57130531414884
 30
0.0
 10
58.7812526979783
 20
-97.53099769697143
 30
0.0
 10
58.88357203389022
 20
-97.53099769697143
 30
0.0
 10
59.10336912584916
 20
-97.53099769697143
 30
0.0
 10
59.30835230722153
 20
-97.71737736272344
 30
0.0
 10
59.30835230722153
 20
-98.03053654233265
 30
0.0
 10
59.30835230722153
 20
-98.34782983652416
 30
0.0
 10
59.11439343140196
 20
-98.58244083906968
 30
0.0
 10
58.85256617452297
 20
-98.58244083906968
 30
0.0
  0
HATCH
  5
54
330
45
100
AcDbEntity
  8
_U+30EC_U+30A4_U+30E4_U+30FC 1
 62
   179
420
  2234388
100
AcDbHatch
 10
0.0
 20
0.0
 30
0.0
210
0.0
220
0.0
230
1.0
  2
SOLID
 70
     1
 71
     0
 91
        1
 92
        1
 93
        1
 72
     4
 94
        3
 73
     0
 74
     1
 95
       53
 96
       49
 40
0.0
 40
0.0
 40
0.0
 40
0.0
 40
1.0
 40
1.0
 40
1.0
 40
2.0
 40
2.0
 40
2.0
 40
3.0
 40
3.0
 40
3.0
 40
4.0
 40
4.0
 40
4.0
 40
5.0
 40
5.0
 40
5.0
 40
6.0
 40
6.0
 40
6.0
 40
7.0
 40
7.0
 40
7.0
 40
8.0
 40
8.0
 40
8.0
 40
9.0
 40
9.0
 40
9.0
 40
10.0
 40
10.0
 40
10.0
 40
11.0
 40
11.0
 40
11.0
 40
12.0
 40
12.0
 40
12.0
 40
13.0
 40
13.0
 40
13.0
 40
14.0
 40
14.0
 40
14.0
 40
15.0
 40
15.0
 40
15.0
 40
16.0
 40
16.0
 40
16.0
 40
16.0
 10
58.85256617452297
 20
-98.58244083906968
 10
58.78469779346355
 20
-98.58244083906968
 10
58.6971923681382
 20
-98.56555987119195
 10
58.60899792371581
 20
-98.50217011426335
 10
58.45913627010744
 20
-98.39227156828387
 10
58.44087726403561
 20
-98.26101343029586
 10
58.42434080570641
 20
-98.15318194160754
 10
58.42434080570641
 20
-98.15318194160754
 10
58.61657713378336
 20
-98.15318194160754
 10
58.61657713378336
 20
-98.15318194160754
 10
58.66411945147981
 20
-98.35196395110646
 10
58.77401799745927
 20
-98.3815917722796
 10
58.8542887222656
 20
-98.3815917722796
 10
58.97521157379786
 20
-98.3815917722796
 10
59.10715873088294
 20
-98.28202851275589
 10
59.10715873088294
 20
-98.04948456750152
 10
59.10715873088294
 20
-97.79351397294747
 10
58.95144041494964
 20
-97.72357853459688
 10
58.84705402174657
 20
-97.72357853459688
 10
58.81949325786457
 20
-97.72357853459688
 10
58.6971923681382
 20
-97.72357853459688
 10
58.62002222926861
 20
-97.85276961529375
 10
58.62002222926861
 20
-97.85276961529375
 10
58.46809351836909
 20
-97.83382159012488
 10
58.46809351836909
 20
-97.83382159012488
 10
58.46809351836909
 20
-97.83382159012488
 10
58.57247991157216
 20
-96.987361629399
 10
58.57247991157216
 20
-96.987361629399
 10
58.57247991157216
 20
-96.987361629399
 10
59.2459960789385
 20
-96.987361629399
 10
59.2459960789385
 20
-96.987361629399
 10
59.2459960789385
 20
-96.987361629399
 10
59.2459960789385
 20
-97.18200952431562
 10
59.2459960789385
 20
-97.18200952431562
 10
59.2459960789385
 20
-97.18200952431562
 10
58.71338431691888
 20
-97.18200952431562
 10
58.71338431691888
 20
-97.18200952431562
 10
58.71338431691888
 20
-97.18200952431562
 10
58.65688475096078
 20
-97.6050672499043
 10
58.65688475096078
 20
-97.6050672499043
 10
58.70993922143363
 20
-97.57130531414884
 10
58.7812526979783
 20
-97.53099769697143
 10
58.88357203389022
 20
-97.53099769697143
 10
59.10336912584916
 20
-97.53099769697143
 10
59.30835230722153
 20
-97.71737736272344
 10
59.30835230722153
 20
-98.03053654233265
 10
59.30835230722153
 20
-98.34782983652416
 10
59.11439343140196
 20
-98.58244083906968
 10
58.85256617452297
 20
-98.58244083906968
 97
        0
 97
        0
 75
     2
 76
     1
 98
        0
  0
ENDBLK
  5
48
330
45
100
AcDbEntity
  8
0
100
AcDbBlockEnd
  0
BLOCK
  5
57
330
55
100
AcDbEntity
  8
0
100
AcDbBlockBegin
  2
block 4
 70
     0
 10
0.0
 20
0.0
 30
0.0
  3
block 4
  1

  0
POLYLINE
  5
59
330
55
100
AcDbEntity
  8
_U+30EC_U+30A4_U+30E4_U+30FC 1
 62
   179
420
  2234388
370
    25
100
AcDb2dPolyline
 66
     1
 10
0.0
 20
0.0
 30
0.0
  0
VERTEX
  5
5A
330
59
100
AcDbEntity
  8
_U+30EC_U+30A4_U+30E4_U+30FC 1
 62
   179
420
  2234388
370
    25
100
AcDbVertex
100
AcDb2dVertex
 10
44.95503551976816
 20
-83.85601859014726
 30
0.0
  0
VERTEX
  5
5B
330
59
100
AcDbEntity
  8
_U+30EC_U+30A4_U+30E4_U+30FC 1
 62
   179
420
  2234388
370
    25
100
AcDbVertex
100
AcDb2dVertex
 10
76.95515414782156
 20
-83.85601859014726
 30
0.0
  0
SEQEND
  5
5C
330
59
100
AcDbEntity
  8
_U+30EC_U+30A4_U+30E4_U+30FC 1
 62
   179
420
  2234388
370
    25
  0
POLYLINE
  5
5D
330
55
100
AcDbEntity
  8
_U+30EC_U+30A4_U+30E4_U+30FC 1
 62
   179
420
  2234388
370
    25
100
AcDb2dPolyline
 66
     1
 10
0.0
 20
0.0
 30
0.0
  0
VERTEX
  5
5E
330
5D
100
AcDbEntity
  8
_U+30EC_U+30A4_U+30E4_U+30FC 1
 62
   179
420
  2234388
370
    25
100
AcDbVertex
100
AcDb2dVertex
 10
44.95503551976816
 20
-84.85579081211948
 30
0.0
  0
VERTEX
  5
5F
330
5D
100
AcDbEntity
  8
_U+30EC_U+30A4_U+30E4_U+30FC 1
 62
   179
420
  2234388
370
    25
100
AcDbVertex
100
AcDb2dVertex
 10
56.95501826917865
 20
-84.85579081211948
 30
0.0
  0
SEQEND
  5
60
330
5D
100
AcDbEntity
  8
_U+30EC_U+30A4_U+30E4_U+30FC 1
 62
   179
420
  2234388
370
    25
  0
POLYLINE
  5
61
330
55
100
AcDbEntity
  8
_U+30EC_U+30A4_U+30E4_U+30FC 1
 62
   179
420
  2234388
370
    25
100
AcDb2dPolyline
 66
     1
 10
0.0
 20
0.0
 30
0.0
  0
VERTEX
  5
62
330
61
100
AcDbEntity
  8
_U+30EC_U+30A4_U+30E4_U+30FC 1
 62
   179
420
  2234388
370
    25
100
AcDbVertex
100
AcDb2dVertex
 10
57.95479046589456
 20
-84.85579081211948
 30
0.0
  0
VERTEX
  5
63
330
61
100
AcDbEntity
  8
_U+30EC_U+30A4_U+30E4_U+30FC 1
 62
   179
420
  2234388
370
    25
100
AcDbVertex
100
AcDb2dVertex
 10
76.95515414782156
 20
-84.85579081211948
 30
0.0
  0
SEQEND
  5
64
330
61
100
AcDbEntity
  8
_U+30EC_U+30A4_U+30E4_U+30FC 1
 62
   179
420
  2234388
370
    25
  0
POLYLINE
  5
65
330
55
100
AcDbEntity
  8
_U+30EC_U+30A4_U+30E4_U+30FC 1
 62
   179
420
  2234388
370
    25
100
AcDb2dPolyline
 66
     1
 10
0.0
 20
0.0
 30
0.0
  0
VERTEX
  5
66
330
65
100
AcDbEntity
  8
_U+30EC_U+30A4_U+30E4_U+30FC 1
 62
   179
420
  2234388
370
    25
100
AcDbVertex
100
AcDb2dVertex
 10
44.95503551976816
 20
-83.85601859014726
 30
0.0
  0
VERTEX
  5
67
330
65
100
AcDbEntity
  8
_U+30EC_U+30A4_U+30E4_U+30FC 1
 62
   179
420
  2234388
370
    25
100
AcDbVertex
100
AcDb2dVertex
 10
44.95503551976816
 20
-84.85579081211948
 30
0.0
  0
SEQEND
  5
68
330
65
100
AcDbEntity
  8
_U+30EC_U+30A4_U+30E4_U+30FC 1
 62
   179
420
  2234388
370
    25
  0
POLYLINE
  5
69
330
55
100
AcDbEntity
  8
_U+30EC_U+30A4_U+30E4_U+30FC 1
 62
   179
420
  2234388
370
    25
100
AcDb2dPolyline
 66
     1
 10
0.0
 20
0.0
 30
0.0
  0
VERTEX
  5
6A
330
69
100
AcDbEntity
  8
_U+30EC_U+30A4_U+30E4_U+30FC 1
 62
   179
420
  2234388
370
    25
100
AcDbVertex
100
AcDb2dVertex
 10
76.95515414782156
 20
-83.85601859014726
 30
0.0
  0
VERTEX
  5
6B
330
69
100
AcDbEntity
  8
_U+30EC_U+30A4_U+30E4_U+30FC 1
 62
   179
420
  2234388
370
    25
100
AcDbVertex
100
AcDb2dVertex
 10
76.95515414782156
 20
-84.85579081211948
 30
0.0
  0
SEQEND
  5
6C
330
69
100
AcDbEntity
  8
_U+30EC_U+30A4_U+30E4_U+30FC 1
 62
   179
420
  2234388
370
    25
  0
POLYLINE
  5
6D
330
55
100
AcDbEntity
  8
_U+30EC_U+30A4_U+30E4_U+30FC 1
 62
   179
420
  2234388
370
    25
100
AcDb2dPolyline
 66
     1
 10
0.0
 20
0.0
 30
0.0
  0
VERTEX
  5
6E
330
6D
100
AcDbEntity
  8
_U+30EC_U+30A4_U+30E4_U+30FC 1
 62
   179
420
  2234388
370
    25
100
AcDbVertex
100
AcDb2dVertex
 10
57.95479046589456
 20
-94.65571053189146
 30
0.0
  0
VERTEX
  5
6F
330
6D
100
AcDbEntity
  8
_U+30EC_U+30A4_U+30E4_U+30FC 1
 62
   179
420
  2234388
370
    25
100
AcDbVertex
100
AcDb2dVertex
 10
59.45476626096033
 20
-94.65571053189146
 30
0.0
  0
SEQEND
  5
70
330
6D
100
AcDbEntity
  8
_U+30EC_U+30A4_U+30E4_U+30FC 1
 62
   179
420
  2234388
370
    25
  0
POLYLINE
  5
71
330
55
100
AcDbEntity
  8
_U+30EC_U+30A4_U+30E4_U+30FC 1
 62
   179
420
  2234388
370
    25
100
AcDb2dPolyline
 66
     1
 10
0.0
 20
0.0
 30
0.0
  0
VERTEX
  5
72
330
71
100
AcDbEntity
  8
_U+30EC_U+30A4_U+30E4_U+30FC 1
 62
   179
420
  2234388
370
    25
100
AcDbVertex
100
AcDb2dVertex
 10
56.95501826917865
 20
-95.65583553164176
 30
0.0
  0
VERTEX
  5
73
330
71
100
AcDbEntity
  8
_U+30EC_U+30A4_U+30E4_U+30FC 1
 62
   179
420
  2234388
370
    25
100
AcDbVertex
100
AcDb2dVertex
 10
59.45476626096033
 20
-95.65583553164176
 30
0.0
  0
SEQEND
  5
74
330
71
100
AcDbEntity
  8
_U+30EC_U+30A4_U+30E4_U+30FC 1
 62
   179
420
  2234388
370
    25
  0
POLYLINE
  5
75
330
55
100
AcDbEntity
  8
_U+30EC_U+30A4_U+30E4_U+30FC 1
 62
   179
420
  2234388
370
    25
100
AcDb2dPolyline
 66
     1
 10
0.0
 20
0.0
 30
0.0
  0
VERTEX
  5
76
330
75
100
AcDbEntity
  8
_U+30EC_U+30A4_U+30E4_U+30FC 1
 62
   179
420
  2234388
370
    25
100
AcDbVertex
100
AcDb2dVertex
 10
56.95501826917865
 20
-84.85579081211948
 30
0.0
  0
VERTEX
  5
77
330
75
100
AcDbEntity
  8
_U+30EC_U+30A4_U+30E4_U+30FC 1
 62
   179
420
  2234388
370
    25
100
AcDbVertex
100
AcDb2dVertex
 10
56.95501826917865
 20
-95.65583553164176
 30
0.0
  0
SEQEND
  5
78
330
75
100
AcDbEntity
  8
_U+30EC_U+30A4_U+30E4_U+30FC 1
 62
   179
420
  2234388
370
    25
  0
POLYLINE
  5
79
330
55
100
AcDbEntity
  8
_U+30EC_U+30A4_U+30E4_U+30FC 1
 62
   179
420
  2234388
370
    25
100
AcDb2dPolyline
 66
     1
 10
0.0
 20
0.0
 30
0.0
  0
VERTEX
  5
7A
330
79
100
AcDbEntity
  8
_U+30EC_U+30A4_U+30E4_U+30FC 1
 62
   179
420
  2234388
370
    25
100
AcDbVertex
100
AcDb2dVertex
 10
59.45476626096033
 20
-94.65571053189146
 30
0.0
  0
VERTEX
  5
7B
330
79
100
AcDbEntity
  8
_U+30EC_U+30A4_U+30E4_U+30FC 1
 62
   179
420
  2234388
370
    25
100
AcDbVertex
100
AcDb2dVertex
 10
59.45476626096033
 20
-95.65583553164176
 30
0.0
  0
SEQEND
  5
7C
330
79
100
AcDbEntity
  8
_U+30EC_U+30A4_U+30E4_U+30FC 1
 62
   179
420
  2234388
370
    25
  0
POLYLINE
  5
7D
330
55
100
AcDbEntity
  8
_U+30EC_U+30A4_U+30E4_U+30FC 1
 62
   179
420
  2234388
370
    25
100
AcDb2dPolyline
 66
     1
 10
0.0
 20
0.0
 30
0.0
  0
VERTEX
  5
7E
330
7D
100
AcDbEntity
  8
_U+30EC_U+30A4_U+30E4_U+30FC 1
 62
   179
420
  2234388
370
    25
100
AcDbVertex
100
AcDb2dVertex
 10
57.95479046589456
 20
-84.85579081211948
 30
0.0
  0
VERTEX
  5
7F
330
7D
100
AcDbEntity
  8
_U+30EC_U+30A4_U+30E4_U+30FC 1
 62
   179
420
  2234388
370
    25
100
AcDbVertex
100
AcDb2dVertex
 10
57.95479046589456
 20
-94.65571053189146
 30
0.0
  0
SEQEND
  5
80
330
7D
100
AcDbEntity
  8
_U+30EC_U+30A4_U+30E4_U+30FC 1
 62
   179
420
  2234388
370
    25
  0
SPLINE
  5
81
330
55
100
AcDbEntity
  8
_U+30EC_U+30A4_U+30E4_U+30FC 1
 62
   179
420
  2234388
370
     9
100
AcDbSpline
210
0.0
220
0.0
230
1.0
 70
    11
 71
     3
 72
    17
 73
    13
 74
     0
 42
0.0000000001
 43
0.0000000001
 12
1.0
 22
0.0
 32
0.0
 13
1.0
 23
0.0
 33
0.0
 40
0.0
 40
0.0
 40
0.0
 40
0.0
 40
1.0
 40
1.0
 40
1.0
 40
2.0
 40
2.0
 40
2.0
 40
3.0
 40
3.0
 40
3.0
 40
4.0
 40
4.0
 40
4.0
 40
4.0
 10
81.05481987656371
 20
-83.85601859014726
 30
0.0
 10
81.05481987656371
 20
-83.80056192349426
 30
0.0
 10
81.01005237770583
 20
-83.75579442350538
 30
0.0
 10
80.95491321244587
 20
-83.75579442350538
 30
0.0
 10
80.8998093249628
 20
-83.75579442350538
 30
0.0
 10
80.85500654832803
 20
-83.80056192349426
 30
0.0
 10
80.85500654832803
 20
-83.85601859014726
 30
0.0
 10
80.85500654832803
 20
-83.91115775680002
 30
0.0
 10
80.8998093249628
 20
-83.95596053456642
 30
0.0
 10
80.95491321244587
 20
-83.95596053456642
 30
0.0
 10
81.01005237770583
 20
-83.95596053456642
 30
0.0
 10
81.05481987656371
 20
-83.91115775680002
 30
0.0
 10
81.05481987656371
 20
-83.85601859014726
 30
0.0
  0
SPLINE
  5
82
330
55
100
AcDbEntity
  8
_U+30EC_U+30A4_U+30E4_U+30FC 1
 62
   179
420
  2234388
370
     9
100
AcDbSpline
210
0.0
220
0.0
230
1.0
 70
    11
 71
     3
 72
    17
 73
    13
 74
     0
 42
0.0000000001
 43
0.0000000001
 12
1.0
 22
0.0
 32
0.0
 13
1.0
 23
0.0
 33
0.0
 40
0.0
 40
0.0
 40
0.0
 40
0.0
 40
1.0
 40
1.0
 40
1.0
 40
2.0
 40
2.0
 40
2.0
 40
3.0
 40
3.0
 40
3.0
 40
4.0
 40
4.0
 40
4.0
 40
4.0
 10
81.05481987656371
 20
-84.85579081211948
 30
0.0
 10
81.05481987656371
 20
-84.80068692324424
 30
0.0
 10
81.01005237770583
 20
-84.75588414547785
 30
0.0
 10
80.95491321244587
 20
-84.75588414547785
 30
0.0
 10
80.8998093249628
 20
-84.75588414547785
 30
0.0
 10
80.85500654832803
 20
-84.80068692324424
 30
0.0
 10
80.85500654832803
 20
-84.85579081211948
 30
0.0
 10
80.85500654832803
 20
-84.91092997877224
 30
0.0
 10
80.8998093249628
 20
-84.95569747876112
 30
0.0
 10
80.95491321244587
 20
-84.95569747876112
 30
0.0
 10
81.01005237770583
 20
-84.95569747876112
 30
0.0
 10
81.05481987656371
 20
-84.91092997877224
 30
0.0
 10
81.05481987656371
 20
-84.85579081211948
 30
0.0
  0
SPLINE
  5
83
330
55
100
AcDbEntity
  8
_U+30EC_U+30A4_U+30E4_U+30FC 1
 62
   179
420
  2234388
370
     9
100
AcDbSpline
210
0.0
220
0.0
230
1.0
 70
    11
 71
     3
 72
    17
 73
    13
 74
     0
 42
0.0000000001
 43
0.0000000001
 12
1.0
 22
0.0
 32
0.0
 13
1.0
 23
0.0
 33
0.0
 40
0.0
 40
0.0
 40
0.0
 40
0.0
 40
1.0
 40
1.0
 40
1.0
 40
2.0
 40
2.0
 40
2.0
 40
3.0
 40
3.0
 40
3.0
 40
4.0
 40
4.0
 40
4.0
 40
4.0
 10
77.0550608119394
 20
-79.8555891467027
 30
0.0
 10
77.0550608119394
 20
-79.80048525782777
 30
0.0
 10
77.01029331308152
 20
-79.75568248006105
 30
0.0
 10
76.95515414782156
 20
-79.75568248006105
 30
0.0
 10
76.90005026033849
 20
-79.75568248006105
 30
0.0
 10
76.85524748370374
 20
-79.80048525782777
 30
0.0
 10
76.85524748370374
 20
-79.8555891467027
 30
0.0
 10
76.85524748370374
 20
-79.9110458133557
 30
0.0
 10
76.90005026033849
 20
-79.95584859112209
 30
0.0
 10
76.95515414782156
 20
-79.95584859112209
 30
0.0
 10
77.01029331308152
 20
-79.95584859112209
 30
0.0
 10
77.0550608119394
 20
-79.9110458133557
 30
0.0
 10
77.0550608119394
 20
-79.8555891467027
 30
0.0
  0
SPLINE
  5
84
330
55
100
AcDbEntity
  8
_U+30EC_U+30A4_U+30E4_U+30FC 1
 62
   179
420
  2234388
370
     9
100
AcDbSpline
210
0.0
220
0.0
230
1.0
 70
    11
 71
     3
 72
    17
 73
    13
 74
     0
 42
0.0000000001
 43
0.0000000001
 12
1.0
 22
0.0
 32
0.0
 13
1.0
 23
0.0
 33
0.0
 40
0.0
 40
0.0
 40
0.0
 40
0.0
 40
1.0
 40
1.0
 40
1.0
 40
2.0
 40
2.0
 40
2.0
 40
3.0
 40
3.0
 40
3.0
 40
4.0
 40
4.0
 40
4.0
 40
4.0
 10
45.054942183886
 20
-79.8555891467027
 30
0.0
 10
45.054942183886
 20
-79.80048525782777
 30
0.0
 10
45.01017468502811
 20
-79.75568248006105
 30
0.0
 10
44.95503551976816
 20
-79.75568248006105
 30
0.0
 10
44.89993163228509
 20
-79.75568248006105
 30
0.0
 10
44.85512885565033
 20
-79.80048525782777
 30
0.0
 10
44.85512885565033
 20
-79.8555891467027
 30
0.0
 10
44.85512885565033
 20
-79.9110458133557
 30
0.0
 10
44.89993163228509
 20
-79.95584859112209
 30
0.0
 10
44.95503551976816
 20
-79.95584859112209
 30
0.0
 10
45.01017468502811
 20
-79.95584859112209
 30
0.0
 10
45.054942183886
 20
-79.9110458133557
 30
0.0
 10
45.054942183886
 20
-79.8555891467027
 30
0.0
  0
SPLINE
  5
85
330
55
100
AcDbEntity
  8
_U+30EC_U+30A4_U+30E4_U+30FC 1
 62
   179
420
  2234388
370
     9
100
AcDbSpline
210
0.0
220
0.0
230
1.0
 70
    11
 71
     3
 72
    17
 73
    13
 74
     0
 42
0.0000000001
 43
0.0000000001
 12
1.0
 22
0.0
 32
0.0
 13
1.0
 23
0.0
 33
0.0
 40
0.0
 40
0.0
 40
0.0
 40
0.0
 40
1.0
 40
1.0
 40
1.0
 40
2.0
 40
2.0
 40
2.0
 40
3.0
 40
3.0
 40
3.0
 40
4.0
 40
4.0
 40
4.0
 40
4.0
 10
45.054942183886
 20
-99.65594747508577
 30
0.0
 10
45.054942183886
 20
-99.60045553065557
 30
0.0
 10
45.01017468502811
 20
-99.55568803066636
 30
0.0
 10
44.95503551976816
 20
-99.55568803066636
 30
0.0
 10
44.89993163228509
 20
-99.55568803066636
 30
0.0
 10
44.85512885565033
 20
-99.60045553065557
 30
0.0
 10
44.85512885565033
 20
-99.65594747508577
 30
0.0
 10
44.85512885565033
 20
-99.71105136396132
 30
0.0
 10
44.89993163228509
 20
-99.7558541417274
 30
0.0
 10
44.95503551976816
 20
-99.7558541417274
 30
0.0
 10
45.01017468502811
 20
-99.7558541417274
 30
0.0
 10
45.054942183886
 20
-99.71105136396132
 30
0.0
 10
45.054942183886
 20
-99.65594747508577
 30
0.0
  0
SPLINE
  5
86
330
55
100
AcDbEntity
  8
_U+30EC_U+30A4_U+30E4_U+30FC 1
 62
   179
420
  2234388
370
     9
100
AcDbSpline
210
0.0
220
0.0
230
1.0
 70
    11
 71
     3
 72
    17
 73
    13
 74
     0
 42
0.0000000001
 43
0.0000000001
 12
1.0
 22
0.0
 32
0.0
 13
1.0
 23
0.0
 33
0.0
 40
0.0
 40
0.0
 40
0.0
 40
0.0
 40
1.0
 40
1.0
 40
1.0
 40
2.0
 40
2.0
 40
2.0
 40
3.0
 40
3.0
 40
3.0
 40
4.0
 40
4.0
 40
4.0
 40
4.0
 10
57.05492493329649
 20
-99.65594747508577
 30
0.0
 10
57.05492493329649
 20
-99.60045553065557
 30
0.0
 10
57.01012215666172
 20
-99.55568803066636
 30
0.0
 10
56.95501826917865
 20
-99.55568803066636
 30
0.0
 10
56.89988054133065
 20
-99.55568803066636
 30
0.0
 10
56.85511160506082
 20
-99.60045553065557
 30
0.0
 10
56.85511160506082
 20
-99.65594747508577
 30
0.0
 10
56.85511160506082
 20
-99.71105136396132
 30
0.0
 10
56.89988054133065
 20
-99.7558541417274
 30
0.0
 10
56.95501826917865
 20
-99.7558541417274
 30
0.0
 10
57.01012215666172
 20
-99.7558541417274
 30
0.0
 10
57.05492493329649
 20
-99.71105136396132
 30
0.0
 10
57.05492493329649
 20
-99.65594747508577
 30
0.0
  0
SPLINE
  5
87
330
55
100
AcDbEntity
  8
_U+30EC_U+30A4_U+30E4_U+30FC 1
 62
   179
420
  2234388
370
     9
100
AcDbSpline
210
0.0
220
0.0
230
1.0
 70
    11
 71
     3
 72
    17
 73
    13
 74
     0
 42
0.0000000001
 43
0.0000000001
 12
1.0
 22
0.0
 32
0.0
 13
1.0
 23
0.0
 33
0.0
 40
0.0
 40
0.0
 40
0.0
 40
0.0
 40
1.0
 40
1.0
 40
1.0
 40
2.0
 40
2.0
 40
2.0
 40
3.0
 40
3.0
 40
3.0
 40
4.0
 40
4.0
 40
4.0
 40
4.0
 10
59.55537848061572
 20
-99.65594747508577
 30
0.0
 10
59.55537848061572
 20
-99.60045553065557
 30
0.0
 10
59.51057570398095
 20
-99.55568803066636
 30
0.0
 10
59.45476626096033
 20
-99.55568803066636
 30
0.0
 10
59.39966387403912
 20
-99.55568803066636
 30
0.0
 10
59.3548610962724
 20
-99.60045553065557
 30
0.0
 10
59.3548610962724
 20
-99.65594747508577
 30
0.0
 10
59.3548610962724
 20
-99.71105136396132
 30
0.0
 10
59.39966387403912
 20
-99.7558541417274
 30
0.0
 10
59.45476626096033
 20
-99.7558541417274
 30
0.0
 10
59.51057570398095
 20
-99.7558541417274
 30
0.0
 10
59.55537848061572
 20
-99.71105136396132
 30
0.0
 10
59.55537848061572
 20
-99.65594747508577
 30
0.0
  0
SPLINE
  5
88
330
55
100
AcDbEntity
  8
_U+30EC_U+30A4_U+30E4_U+30FC 1
 62
   179
420
  2234388
370
     9
100
AcDbSpline
210
0.0
220
0.0
230
1.0
 70
    11
 71
     3
 72
    17
 73
    13
 74
     0
 42
0.0000000001
 43
0.0000000001
 12
1.0
 22
0.0
 32
0.0
 13
1.0
 23
0.0
 33
0.0
 40
0.0
 40
0.0
 40
0.0
 40
0.0
 40
1.0
 40
1.0
 40
1.0
 40
2.0
 40
2.0
 40
2.0
 40
3.0
 40
3.0
 40
3.0
 40
4.0
 40
4.0
 40
4.0
 40
4.0
 10
81.05481987656371
 20
-94.65571053189146
 30
0.0
 10
81.05481987656371
 20
-94.60060664301653
 30
0.0
 10
81.01005237770583
 20
-94.55580386524981
 30
0.0
 10
80.95491321244587
 20
-94.55580386524981
 30
0.0
 10
80.8998093249628
 20
-94.55580386524981
 30
0.0
 10
80.85500654832803
 20
-94.60060664301653
 30
0.0
 10
80.85500654832803
 20
-94.65571053189146
 30
0.0
 10
80.85500654832803
 20
-94.7112024763223
 30
0.0
 10
80.8998093249628
 20
-94.75596997631085
 30
0.0
 10
80.95491321244587
 20
-94.75596997631085
 30
0.0
 10
81.01005237770583
 20
-94.75596997631085
 30
0.0
 10
81.05481987656371
 20
-94.7112024763223
 30
0.0
 10
81.05481987656371
 20
-94.65571053189146
 30
0.0
  0
POLYLINE
  5
89
330
55
100
AcDbEntity
  8
_U+30EC_U+30A4_U+30E4_U+30FC 1
 62
   179
420
  2234388
370
     9
100
AcDb2dPolyline
 66
     1
 10
0.0
 20
0.0
 30
0.0
  0
VERTEX
  5
8A
330
89
100
AcDbEntity
  8
_U+30EC_U+30A4_U+30E4_U+30FC 1
 62
   179
420
  2234388
370
     9
100
AcDbVertex
100
AcDb2dVertex
 10
80.95491321244587
 20
-83.85601859014726
 30
0.0
  0
VERTEX
  5
8B
330
89
100
AcDbEntity
  8
_U+30EC_U+30A4_U+30E4_U+30FC 1
 62
   179
420
  2234388
370
     9
100
AcDbVertex
100
AcDb2dVertex
 10
80.95491321244587
 20
-80.08570609108983
 30
0.0
  0
SEQEND
  5
8C
330
89
100
AcDbEntity
  8
_U+30EC_U+30A4_U+30E4_U+30FC 1
 62
   179
420
  2234388
370
     9
  0
POLYLINE
  5
8D
330
55
100
AcDbEntity
  8
_U+30EC_U+30A4_U+30E4_U+30FC 1
 62
   179
420
  2234388
370
     9
100
AcDb2dPolyline
 66
     1
 10
0.0
 20
0.0
 30
0.0
  0
VERTEX
  5
8E
330
8D
100
AcDbEntity
  8
_U+30EC_U+30A4_U+30E4_U+30FC 1
 62
   179
420
  2234388
370
     9
100
AcDbVertex
100
AcDb2dVertex
 10
80.95491321244587
 20
-83.85601859014726
 30
0.0
  0
VERTEX
  5
8F
330
8D
100
AcDbEntity
  8
_U+30EC_U+30A4_U+30E4_U+30FC 1
 62
   179
420
  2234388
370
     9
100
AcDbVertex
100
AcDb2dVertex
 10
80.95491321244587
 20
-84.85579081211948
 30
0.0
  0
SEQEND
  5
90
330
8D
100
AcDbEntity
  8
_U+30EC_U+30A4_U+30E4_U+30FC 1
 62
   179
420
  2234388
370
     9
  0
POLYLINE
  5
91
330
55
100
AcDbEntity
  8
_U+30EC_U+30A4_U+30E4_U+30FC 1
 62
   179
420
  2234388
370
     9
100
AcDb2dPolyline
 66
     1
 10
0.0
 20
0.0
 30
0.0
  0
VERTEX
  5
92
330
91
100
AcDbEntity
  8
_U+30EC_U+30A4_U+30E4_U+30FC 1
 62
   179
420
  2234388
370
     9
100
AcDbVertex
100
AcDb2dVertex
 10
79.49487186080574
 20
-83.85601859014726
 30
0.0
  0
VERTEX
  5
93
330
91
100
AcDbEntity
  8
_U+30EC_U+30A4_U+30E4_U+30FC 1
 62
   179
420
  2234388
370
     9
100
AcDbVertex
100
AcDb2dVertex
 10
81.95468540916178
 20
-83.85601859014726
 30
0.0
  0
SEQEND
  5
94
330
91
100
AcDbEntity
  8
_U+30EC_U+30A4_U+30E4_U+30FC 1
 62
   179
420
  2234388
370
     9
  0
POLYLINE
  5
95
330
55
100
AcDbEntity
  8
_U+30EC_U+30A4_U+30E4_U+30FC 1
 62
   179
420
  2234388
370
     9
100
AcDb2dPolyline
 66
     1
 10
0.0
 20
0.0
 30
0.0
  0
VERTEX
  5
96
330
95
100
AcDbEntity
  8
_U+30EC_U+30A4_U+30E4_U+30FC 1
 62
   179
420
  2234388
370
     9
100
AcDbVertex
100
AcDb2dVertex
 10
79.49487186080574
 20
-84.85579081211948
 30
0.0
  0
VERTEX
  5
97
330
95
100
AcDbEntity
  8
_U+30EC_U+30A4_U+30E4_U+30FC 1
 62
   179
420
  2234388
370
     9
100
AcDbVertex
100
AcDb2dVertex
 10
81.95468540916178
 20
-84.85579081211948
 30
0.0
  0
SEQEND
  5
98
330
95
100
AcDbEntity
  8
_U+30EC_U+30A4_U+30E4_U+30FC 1
 62
   179
420
  2234388
370
     9
  0
INSERT
  5
9A
330
55
100
AcDbEntity
  8
_U+30EC_U+30A4_U+30E4_U+30FC 1
100
AcDbBlockReference
  2
block 5
 10
0.0
 20
0.0
 30
0.0
  0
POLYLINE
  5
9F
330
55
100
AcDbEntity
  8
_U+30EC_U+30A4_U+30E4_U+30FC 1
 62
   179
420
  2234388
370
     9
100
AcDb2dPolyline
 66
     1
 10
0.0
 20
0.0
 30
0.0
  0
VERTEX
  5
A0
330
9F
100
AcDbEntity
  8
_U+30EC_U+30A4_U+30E4_U+30FC 1
 62
   179
420
  2234388
370
     9
100
AcDbVertex
100
AcDb2dVertex
 10
44.95503551976816
 20
-79.8555891467027
 30
0.0
  0
VERTEX
  5
A1
330
9F
100
AcDbEntity
  8
_U+30EC_U+30A4_U+30E4_U+30FC 1
 62
   179
420
  2234388
370
     9
100
AcDbVertex
100
AcDb2dVertex
 10
76.95515414782156
 20
-79.8555891467027
 30
0.0
  0
SEQEND
  5
A2
330
9F
100
AcDbEntity
  8
_U+30EC_U+30A4_U+30E4_U+30FC 1
 62
   179
420
  2234388
370
     9
  0
POLYLINE
  5
A3
330
55
100
AcDbEntity
  8
_U+30EC_U+30A4_U+30E4_U+30FC 1
 62
   179
420
  2234388
370
     9
100
AcDb2dPolyline
 66
     1
 10
0.0
 20
0.0
 30
0.0
  0
VERTEX
  5
A4
330
A3
100
AcDbEntity
  8
_U+30EC_U+30A4_U+30E4_U+30FC 1
 62
   179
420
  2234388
370
     9
100
AcDbVertex
100
AcDb2dVertex
 10
44.95503551976816
 20
-81.31563053522672
 30
0.0
  0
VERTEX
  5
A5
330
A3
100
AcDbEntity
  8
_U+30EC_U+30A4_U+30E4_U+30FC 1
 62
   179
420
  2234388
370
     9
100
AcDbVertex
100
AcDb2dVertex
 10
44.95503551976816
 20
-78.85581692473048
 30
0.0
  0
SEQEND
  5
A6
330
A3
100
AcDbEntity
  8
_U+30EC_U+30A4_U+30E4_U+30FC 1
 62
   179
420
  2234388
370
     9
  0
POLYLINE
  5
A7
330
55
100
AcDbEntity
  8
_U+30EC_U+30A4_U+30E4_U+30FC 1
 62
   179
420
  2234388
370
     9
100
AcDb2dPolyline
 66
     1
 10
0.0
 20
0.0
 30
0.0
  0
VERTEX
  5
A8
330
A7
100
AcDbEntity
  8
_U+30EC_U+30A4_U+30E4_U+30FC 1
 62
   179
420
  2234388
370
     9
100
AcDbVertex
100
AcDb2dVertex
 10
76.95515414782156
 20
-81.31563053522672
 30
0.0
  0
VERTEX
  5
A9
330
A7
100
AcDbEntity
  8
_U+30EC_U+30A4_U+30E4_U+30FC 1
 62
   179
420
  2234388
370
     9
100
AcDbVertex
100
AcDb2dVertex
 10
76.95515414782156
 20
-78.85581692473048
 30
0.0
  0
SEQEND
  5
AA
330
A7
100
AcDbEntity
  8
_U+30EC_U+30A4_U+30E4_U+30FC 1
 62
   179
420
  2234388
370
     9
  0
INSERT
  5
AC
330
55
100
AcDbEntity
  8
_U+30EC_U+30A4_U+30E4_U+30FC 1
100
AcDbBlockReference
  2
block 6
 10
0.0
 20
0.0
 30
0.0
  0
POLYLINE
  5
B3
330
55
100
AcDbEntity
  8
_U+30EC_U+30A4_U+30E4_U+30FC 1
 62
   179
420
  2234388
370
     9
100
AcDb2dPolyline
 66
     1
 10
0.0
 20
0.0
 30
0.0
  0
VERTEX
  5
B4
330
B3
100
AcDbEntity
  8
_U+30EC_U+30A4_U+30E4_U+30FC 1
 62
   179
420
  2234388
370
     9
100
AcDbVertex
100
AcDb2dVertex
 10
44.95503551976816
 20
-99.65594747508577
 30
0.0
  0
VERTEX
  5
B5
330
B3
100
AcDbEntity
  8
_U+30EC_U+30A4_U+30E4_U+30FC 1
 62
   179
420
  2234388
370
     9
100
AcDbVertex
100
AcDb2dVertex
 10
56.95501826917865
 20
-99.65594747508577
 30
0.0
  0
SEQEND
  5
B6
330
B3
100
AcDbEntity
  8
_U+30EC_U+30A4_U+30E4_U+30FC 1
 62
   179
420
  2234388
370
     9
  0
POLYLINE
  5
B7
330
55
100
AcDbEntity
  8
_U+30EC_U+30A4_U+30E4_U+30FC 1
 62
   179
420
  2234388
370
     9
100
AcDb2dPolyline
 66
     1
 10
0.0
 20
0.0
 30
0.0
  0
VERTEX
  5
B8
330
B7
100
AcDbEntity
  8
_U+30EC_U+30A4_U+30E4_U+30FC 1
 62
   179
420
  2234388
370
     9
100
AcDbVertex
100
AcDb2dVertex
 10
44.95503551976816
 20
-87.39586136703977
 30
0.0
  0
VERTEX
  5
B9
330
B7
100
AcDbEntity
  8
_U+30EC_U+30A4_U+30E4_U+30FC 1
 62
   179
420
  2234388
370
     9
100
AcDbVertex
100
AcDb2dVertex
 10
44.95503551976816
 20
-100.6556844192808
 30
0.0
  0
SEQEND
  5
BA
330
B7
100
AcDbEntity
  8
_U+30EC_U+30A4_U+30E4_U+30FC 1
 62
   179
420
  2234388
370
     9
  0
POLYLINE
  5
BB
330
55
100
AcDbEntity
  8
_U+30EC_U+30A4_U+30E4_U+30FC 1
 62
   179
420
  2234388
370
     9
100
AcDb2dPolyline
 66
     1
 10
0.0
 20
0.0
 30
0.0
  0
VERTEX
  5
BC
330
BB
100
AcDbEntity
  8
_U+30EC_U+30A4_U+30E4_U+30FC 1
 62
   179
420
  2234388
370
     9
100
AcDbVertex
100
AcDb2dVertex
 10
56.95501826917865
 20
-98.19590608656205
 30
0.0
  0
VERTEX
  5
BD
330
BB
100
AcDbEntity
  8
_U+30EC_U+30A4_U+30E4_U+30FC 1
 62
   179
420
  2234388
370
     9
100
AcDbVertex
100
AcDb2dVertex
 10
56.95501826917865
 20
-100.6556844192808
 30
0.0
  0
SEQEND
  5
BE
330
BB
100
AcDbEntity
  8
_U+30EC_U+30A4_U+30E4_U+30FC 1
 62
   179
420
  2234388
370
     9
  0
INSERT
  5
C0
330
55
100
AcDbEntity
  8
_U+30EC_U+30A4_U+30E4_U+30FC 1
100
AcDbBlockReference
  2
block 7
 10
0.0
 20
0.0
 30
0.0
  0
POLYLINE
  5
C7
330
55
100
AcDbEntity
  8
_U+30EC_U+30A4_U+30E4_U+30FC 1
 62
   179
420
  2234388
370
     9
100
AcDb2dPolyline
 66
     1
 10
0.0
 20
0.0
 30
0.0
  0
VERTEX
  5
C8
330
C7
100
AcDbEntity
  8
_U+30EC_U+30A4_U+30E4_U+30FC 1
 62
   179
420
  2234388
370
     9
100
AcDbVertex
100
AcDb2dVertex
 10
59.45476626096033
 20
-99.65594747508577
 30
0.0
  0
VERTEX
  5
C9
330
C7
100
AcDbEntity
  8
_U+30EC_U+30A4_U+30E4_U+30FC 1
 62
   179
420
  2234388
370
     9
100
AcDbVertex
100
AcDb2dVertex
 10
64.7126719601533
 20
-99.65594747508577
 30
0.0
  0
SEQEND
  5
CA
330
C7
100
AcDbEntity
  8
_U+30EC_U+30A4_U+30E4_U+30FC 1
 62
   179
420
  2234388
370
     9
  0
POLYLINE
  5
CB
330
55
100
AcDbEntity
  8
_U+30EC_U+30A4_U+30E4_U+30FC 1
 62
   179
420
  2234388
370
     9
100
AcDb2dPolyline
 66
     1
 10
0.0
 20
0.0
 30
0.0
  0
VERTEX
  5
CC
330
CB
100
AcDbEntity
  8
_U+30EC_U+30A4_U+30E4_U+30FC 1
 62
   179
420
  2234388
370
     9
100
AcDbVertex
100
AcDb2dVertex
 10
56.95501826917865
 20
-99.65594747508577
 30
0.0
  0
VERTEX
  5
CD
330
CB
100
AcDbEntity
  8
_U+30EC_U+30A4_U+30E4_U+30FC 1
 62
   179
420
  2234388
370
     9
100
AcDbVertex
100
AcDb2dVertex
 10
59.45476626096033
 20
-99.65594747508577
 30
0.0
  0
SEQEND
  5
CE
330
CB
100
AcDbEntity
  8
_U+30EC_U+30A4_U+30E4_U+30FC 1
 62
   179
420
  2234388
370
     9
  0
POLYLINE
  5
CF
330
55
100
AcDbEntity
  8
_U+30EC_U+30A4_U+30E4_U+30FC 1
 62
   179
420
  2234388
370
     9
100
AcDb2dPolyline
 66
     1
 10
0.0
 20
0.0
 30
0.0
  0
VERTEX
  5
D0
330
CF
100
AcDbEntity
  8
_U+30EC_U+30A4_U+30E4_U+30FC 1
 62
   179
420
  2234388
370
     9
100
AcDbVertex
100
AcDb2dVertex
 10
59.45476626096033
 20
-98.19590608656205
 30
0.0
  0
VERTEX
  5
D1
330
CF
100
AcDbEntity
  8
_U+30EC_U+30A4_U+30E4_U+30FC 1
 62
   179
420
  2234388
370
     9
100
AcDbVertex
100
AcDb2dVertex
 10
59.45476626096033
 20
-100.6556844192808
 30
0.0
  0
SEQEND
  5
D2
330
CF
100
AcDbEntity
  8
_U+30EC_U+30A4_U+30E4_U+30FC 1
 62
   179
420
  2234388
370
     9
  0
POLYLINE
  5
D3
330
55
100
AcDbEntity
  8
_U+30EC_U+30A4_U+30E4_U+30FC 1
 62
   179
420
  2234388
370
     9
100
AcDb2dPolyline
 66
     1
 10
0.0
 20
0.0
 30
0.0
  0
VERTEX
  5
D4
330
D3
100
AcDbEntity
  8
_U+30EC_U+30A4_U+30E4_U+30FC 1
 62
   179
420
  2234388
370
     9
100
AcDbVertex
100
AcDb2dVertex
 10
80.95491321244587
 20
-84.85579081211948
 30
0.0
  0
VERTEX
  5
D5
330
D3
100
AcDbEntity
  8
_U+30EC_U+30A4_U+30E4_U+30FC 1
 62
   179
420
  2234388
370
     9
100
AcDbVertex
100
AcDb2dVertex
 10
80.95491321244587
 20
-94.65571053189146
 30
0.0
  0
SEQEND
  5
D6
330
D3
100
AcDbEntity
  8
_U+30EC_U+30A4_U+30E4_U+30FC 1
 62
   179
420
  2234388
370
     9
  0
POLYLINE
  5
D7
330
55
100
AcDbEntity
  8
_U+30EC_U+30A4_U+30E4_U+30FC 1
 62
   179
420
  2234388
370
     9
100
AcDb2dPolyline
 66
     1
 10
0.0
 20
0.0
 30
0.0
  0
VERTEX
  5
D8
330
D7
100
AcDbEntity
  8
_U+30EC_U+30A4_U+30E4_U+30FC 1
 62
   179
420
  2234388
370
     9
100
AcDbVertex
100
AcDb2dVertex
 10
61.99518952948206
 20
-94.65571053189146
 30
0.0
  0
VERTEX
  5
D9
330
D7
100
AcDbEntity
  8
_U+30EC_U+30A4_U+30E4_U+30FC 1
 62
   179
420
  2234388
370
     9
100
AcDbVertex
100
AcDb2dVertex
 10
81.95468540916178
 20
-94.65571053189146
 30
0.0
  0
SEQEND
  5
DA
330
D7
100
AcDbEntity
  8
_U+30EC_U+30A4_U+30E4_U+30FC 1
 62
   179
420
  2234388
370
     9
  0
INSERT
  5
DC
330
55
100
AcDbEntity
  8
_U+30EC_U+30A4_U+30E4_U+30FC 1
100
AcDbBlockReference
  2
block 8
 10
0.0
 20
0.0
 30
0.0
  0
ENDBLK
  5
58
330
55
100
AcDbEntity
  8
0
100
AcDbBlockEnd
  0
BLOCK
  5
9B
330
99
100
AcDbEntity
  8
0
100
AcDbBlockBegin
  2
block 5
 70
     0
 10
0.0
 20
0.0
 30
0.0
  3
block 5
  1

  0
SPLINE
  5
9D
330
99
100
AcDbEntity
  8
_U+30EC_U+30A4_U+30E4_U+30FC 1
370
     0
100
AcDbSpline
210
0.0
220
0.0
230
1.0
 70
    11
 71
     3
 72
    26
 73
    22
 74
     0
 42
0.0000000001
 43
0.0000000001
 12
1.0
 22
0.0
 32
0.0
 13
1.0
 23
0.0
 33
0.0
 40
0.0
 40
0.0
 40
0.0
 40
0.0
 40
1.0
 40
1.0
 40
1.0
 40
2.0
 40
2.0
 40
2.0
 40
3.0
 40
3.0
 40
3.0
 40
4.0
 40
4.0
 40
4.0
 40
5.0
 40
5.0
 40
5.0
 40
6.0
 40
6.0
 40
6.0
 40
7.0
 40
7.0
 40
7.0
 40
7.0
 10
80.35891925074361
 20
-80.97507457828054
 30
0.0
 10
80.35891925074361
 20
-80.97507457828054
 30
0.0
 10
79.25476614772103
 20
-80.97507457828054
 30
0.0
 10
79.25476614772103
 20
-80.97507457828054
 30
0.0
 10
79.25476614772103
 20
-80.97507457828054
 30
0.0
 10
79.25476614772103
 20
-81.26050073923349
 30
0.0
 10
79.25476614772103
 20
-81.26050073923349
 30
0.0
 10
79.25476614772103
 20
-81.26050073923349
 30
0.0
 10
79.10662704185529
 20
-81.26050073923349
 30
0.0
 10
79.10662704185529
 20
-81.26050073923349
 30
0.0
 10
79.09181313126872
 20
-80.97317977576365
 30
0.0
 10
78.9288601148164
 20
-80.93287215858624
 30
0.0
 10
78.8144829447061
 20
-80.90737845199538
 30
0.0
 10
78.8144829447061
 20
-80.90737845199538
 30
0.0
 10
78.8144829447061
 20
-80.78094344768671
 30
0.0
 10
78.8144829447061
 20
-80.78094344768671
 30
0.0
 10
78.8144829447061
 20
-80.78094344768671
 30
0.0
 10
80.35891925074361
 20
-80.78094344768671
 30
0.0
 10
80.35891925074361
 20
-80.78094344768671
 30
0.0
 10
80.35891925074361
 20
-80.78094344768671
 30
0.0
 10
80.35891925074361
 20
-80.97507457828054
 30
0.0
 10
80.35891925074361
 20
-80.97507457828054
 30
0.0
  0
HATCH
  5
9E
330
99
100
AcDbEntity
  8
_U+30EC_U+30A4_U+30E4_U+30FC 1
 62
   179
420
  2234388
100
AcDbHatch
 10
0.0
 20
0.0
 30
0.0
210
0.0
220
0.0
230
1.0
  2
SOLID
 70
     1
 71
     0
 91
        1
 92
        1
 93
        1
 72
     4
 94
        3
 73
     0
 74
     1
 95
       26
 96
       22
 40
0.0
 40
0.0
 40
0.0
 40
0.0
 40
1.0
 40
1.0
 40
1.0
 40
2.0
 40
2.0
 40
2.0
 40
3.0
 40
3.0
 40
3.0
 40
4.0
 40
4.0
 40
4.0
 40
5.0
 40
5.0
 40
5.0
 40
6.0
 40
6.0
 40
6.0
 40
7.0
 40
7.0
 40
7.0
 40
7.0
 10
80.35891925074361
 20
-80.97507457828054
 10
80.35891925074361
 20
-80.97507457828054
 10
79.25476614772103
 20
-80.97507457828054
 10
79.25476614772103
 20
-80.97507457828054
 10
79.25476614772103
 20
-80.97507457828054
 10
79.25476614772103
 20
-81.26050073923349
 10
79.25476614772103
 20
-81.26050073923349
 10
79.25476614772103
 20
-81.26050073923349
 10
79.10662704185529
 20
-81.26050073923349
 10
79.10662704185529
 20
-81.26050073923349
 10
79.09181313126872
 20
-80.97317977576365
 10
78.9288601148164
 20
-80.93287215858624
 10
78.8144829447061
 20
-80.90737845199538
 10
78.8144829447061
 20
-80.90737845199538
 10
78.8144829447061
 20
-80.78094344768671
 10
78.8144829447061
 20
-80.78094344768671
 10
78.8144829447061
 20
-80.78094344768671
 10
80.35891925074361
 20
-80.78094344768671
 10
80.35891925074361
 20
-80.78094344768671
 10
80.35891925074361
 20
-80.78094344768671
 10
80.35891925074361
 20
-80.97507457828054
 10
80.35891925074361
 20
-80.97507457828054
 97
        0
 97
        0
 75
     2
 76
     1
 98
        0
  0
ENDBLK
  5
9C
330
99
100
AcDbEntity
  8
0
100
AcDbBlockEnd
  0
BLOCK
  5
AD
330
AB
100
AcDbEntity
  8
0
100
AcDbBlockBegin
  2
block 6
 70
     0
 10
0.0
 20
0.0
 30
0.0
  3
block 6
  1

  0
SPLINE
  5
AF
330
AB
100
AcDbEntity
  8
_U+30EC_U+30A4_U+30E4_U+30FC 1
370
     0
100
AcDbSpline
210
0.0
220
0.0
230
1.0
 70
    11
 71
     3
 72
    62
 73
    58
 74
     0
 42
0.0000000001
 43
0.0000000001
 12
1.0
 22
0.0
 32
0.0
 13
1.0
 23
0.0
 33
0.0
 40
0.0
 40
0.0
 40
0.0
 40
0.0
 40
1.0
 40
1.0
 40
1.0
 40
2.0
 40
2.0
 40
2.0
 40
3.0
 40
3.0
 40
3.0
 40
4.0
 40
4.0
 40
4.0
 40
5.0
 40
5.0
 40
5.0
 40
6.0
 40
6.0
 40
6.0
 40
7.0
 40
7.0
 40
7.0
 40
8.0
 40
8.0
 40
8.0
 40
9.0
 40
9.0
 40
9.0
 40
10.0
 40
10.0
 40
10.0
 40
11.0
 40
11.0
 40
11.0
 40
12.0
 40
12.0
 40
12.0
 40
13.0
 40
13.0
 40
13.0
 40
14.0
 40
14.0
 40
14.0
 40
15.0
 40
15.0
 40
15.0
 40
16.0
 40
16.0
 40
16.0
 40
17.0
 40
17.0
 40
17.0
 40
18.0
 40
18.0
 40
18.0
 40
19.0
 40
19.0
 40
19.0
 40
19.0
 10
60.20407713338648
 20
-79.31092120413061
 30
0.0
 10
60.12173935128902
 20
-79.31092120413061
 30
0.0
 10
59.93294811869732
 20
-79.28990612167058
 30
0.0
 10
59.825116630009
 20
-79.1038709654671
 30
0.0
 10
59.76103785398335
 20
-78.99156085264795
 30
0.0
 10
59.75724824894958
 20
-78.89234210267276
 30
0.0
 10
59.75380315346433
 20
-78.8075927537356
 30
0.0
 10
59.75380315346433
 20
-78.8075927537356
 30
0.0
 10
59.94397242425012
 20
-78.8075927537356
 30
0.0
 10
59.94397242425012
 20
-78.8075927537356
 30
0.0
 10
59.94603948154127
 20
-78.88166230666847
 30
0.0
 10
59.95499672980292
 20
-79.116273309214
 30
0.0
 10
60.20028752835271
 20
-79.116273309214
 30
0.0
 10
60.31914332259383
 20
-79.116273309214
 30
0.0
 10
60.4510904796789
 20
-79.04668238041194
 30
0.0
 10
60.4510904796789
 20
-78.81827254973987
 30
0.0
 10
60.4510904796789
 20
-78.70182832233843
 30
0.0
 10
60.4180175630205
 20
-78.65325247599641
 30
0.0
 10
60.3904567991385
 20
-78.62155759753212
 30
0.0
 10
60.32672253266138
 20
-78.54748804459925
 30
0.0
 10
60.22578123494355
 20
-78.53474119130382
 30
0.0
 10
60.17823891724711
 20
-78.53474119130382
 30
0.0
 10
60.16170245891791
 20
-78.53474119130382
 30
0.0
 10
60.13069659955066
 20
-78.53680824859497
 30
0.0
 10
60.10692544070244
 20
-78.54094236317727
 30
0.0
 10
60.10692544070244
 20
-78.54094236317727
 30
0.0
 10
60.10692544070244
 20
-78.34629446826065
 30
0.0
 10
60.10692544070244
 20
-78.34629446826065
 30
0.0
 10
60.13999835736084
 20
-78.35266789490836
 30
0.0
 10
60.17651636950448
 20
-78.35490720697378
 30
0.0
 10
60.18202852228089
 20
-78.35490720697378
 30
0.0
 10
60.23887259778751
 20
-78.35490720697378
 30
0.0
 10
60.41078286250147
 20
-78.3337198697395
 30
0.0
 10
60.41078286250147
 20
-78.09669730035431
 30
0.0
 10
60.41078286250147
 20
-77.91910262808968
 30
0.0
 10
60.29743922103675
 20
-77.86398110032567
 30
0.0
 10
60.20201007609533
 20
-77.86398110032567
 30
0.0
 10
59.97325573587474
 20
-77.86398110032567
 30
0.0
 10
59.96602103535572
 20
-78.09669730035431
 30
0.0
 10
59.96223143032194
 20
-78.16869979599602
 30
0.0
 10
59.96223143032194
 20
-78.16869979599602
 30
0.0
 10
59.7865315605742
 20
-78.16869979599602
 30
0.0
 10
59.7865315605742
 20
-78.16869979599602
 30
0.0
 10
59.79411077064175
 20
-78.04381508465572
 30
0.0
 10
59.81788192948998
 20
-77.6672661481179
 30
0.0
 10
60.21303438164814
 20
-77.6672661481179
 30
0.0
 10
60.4069932574677
 20
-77.6672661481179
 30
0.0
 10
60.61576604387384
 20
-77.79421791674936
 30
0.0
 10
60.61576604387384
 20
-78.0903238737066
 30
0.0
 10
60.61576604387384
 20
-78.27653128468434
 30
0.0
 10
60.53342826177636
 20
-78.35904132155608
 30
0.0
 10
60.44730087464512
 20
-78.42036402119352
 30
0.0
 10
60.50035534511797
 20
-78.44792478507553
 30
0.0
 10
60.65779620879389
 20
-78.52819550988184
 30
0.0
 10
60.65779620879389
 20
-78.80552569644446
 30
0.0
 10
60.65779620879389
 20
-79.14383407309599
 30
0.0
 10
60.44385577915988
 20
-79.31092120413061
 30
0.0
 10
60.20407713338648
 20
-79.31092120413061
 30
0.0
  0
HATCH
  5
B0
330
AB
100
AcDbEntity
  8
_U+30EC_U+30A4_U+30E4_U+30FC 1
 62
   179
420
  2234388
100
AcDbHatch
 10
0.0
 20
0.0
 30
0.0
210
0.0
220
0.0
230
1.0
  2
SOLID
 70
     1
 71
     0
 91
        1
 92
        1
 93
        1
 72
     4
 94
        3
 73
     0
 74
     1
 95
       62
 96
       58
 40
0.0
 40
0.0
 40
0.0
 40
0.0
 40
1.0
 40
1.0
 40
1.0
 40
2.0
 40
2.0
 40
2.0
 40
3.0
 40
3.0
 40
3.0
 40
4.0
 40
4.0
 40
4.0
 40
5.0
 40
5.0
 40
5.0
 40
6.0
 40
6.0
 40
6.0
 40
7.0
 40
7.0
 40
7.0
 40
8.0
 40
8.0
 40
8.0
 40
9.0
 40
9.0
 40
9.0
 40
10.0
 40
10.0
 40
10.0
 40
11.0
 40
11.0
 40
11.0
 40
12.0
 40
12.0
 40
12.0
 40
13.0
 40
13.0
 40
13.0
 40
14.0
 40
14.0
 40
14.0
 40
15.0
 40
15.0
 40
15.0
 40
16.0
 40
16.0
 40
16.0
 40
17.0
 40
17.0
 40
17.0
 40
18.0
 40
18.0
 40
18.0
 40
19.0
 40
19.0
 40
19.0
 40
19.0
 10
60.20407713338648
 20
-79.31092120413061
 10
60.12173935128902
 20
-79.31092120413061
 10
59.93294811869732
 20
-79.28990612167058
 10
59.825116630009
 20
-79.1038709654671
 10
59.76103785398335
 20
-78.99156085264795
 10
59.75724824894958
 20
-78.89234210267276
 10
59.75380315346433
 20
-78.8075927537356
 10
59.75380315346433
 20
-78.8075927537356
 10
59.94397242425012
 20
-78.8075927537356
 10
59.94397242425012
 20
-78.8075927537356
 10
59.94603948154127
 20
-78.88166230666847
 10
59.95499672980292
 20
-79.116273309214
 10
60.20028752835271
 20
-79.116273309214
 10
60.31914332259383
 20
-79.116273309214
 10
60.4510904796789
 20
-79.04668238041194
 10
60.4510904796789
 20
-78.81827254973987
 10
60.4510904796789
 20
-78.70182832233843
 10
60.4180175630205
 20
-78.65325247599641
 10
60.3904567991385
 20
-78.62155759753212
 10
60.32672253266138
 20
-78.54748804459925
 10
60.22578123494355
 20
-78.53474119130382
 10
60.17823891724711
 20
-78.53474119130382
 10
60.16170245891791
 20
-78.53474119130382
 10
60.13069659955066
 20
-78.53680824859497
 10
60.10692544070244
 20
-78.54094236317727
 10
60.10692544070244
 20
-78.54094236317727
 10
60.10692544070244
 20
-78.34629446826065
 10
60.10692544070244
 20
-78.34629446826065
 10
60.13999835736084
 20
-78.35266789490836
 10
60.17651636950448
 20
-78.35490720697378
 10
60.18202852228089
 20
-78.35490720697378
 10
60.23887259778751
 20
-78.35490720697378
 10
60.41078286250147
 20
-78.3337198697395
 10
60.41078286250147
 20
-78.09669730035431
 10
60.41078286250147
 20
-77.91910262808968
 10
60.29743922103675
 20
-77.86398110032567
 10
60.20201007609533
 20
-77.86398110032567
 10
59.97325573587474
 20
-77.86398110032567
 10
59.96602103535572
 20
-78.09669730035431
 10
59.96223143032194
 20
-78.16869979599602
 10
59.96223143032194
 20
-78.16869979599602
 10
59.7865315605742
 20
-78.16869979599602
 10
59.7865315605742
 20
-78.16869979599602
 10
59.79411077064175
 20
-78.04381508465572
 10
59.81788192948998
 20
-77.6672661481179
 10
60.21303438164814
 20
-77.6672661481179
 10
60.4069932574677
 20
-77.6672661481179
 10
60.61576604387384
 20
-77.79421791674936
 10
60.61576604387384
 20
-78.0903238737066
 10
60.61576604387384
 20
-78.27653128468434
 10
60.53342826177636
 20
-78.35904132155608
 10
60.44730087464512
 20
-78.42036402119352
 10
60.50035534511797
 20
-78.44792478507553
 10
60.65779620879389
 20
-78.52819550988184
 10
60.65779620879389
 20
-78.80552569644446
 10
60.65779620879389
 20
-79.14383407309599
 10
60.44385577915988
 20
-79.31092120413061
 10
60.20407713338648
 20
-79.31092120413061
 97
        0
 97
        0
 75
     2
 76
     1
 98
        0
  0
SPLINE
  5
B1
330
AB
100
AcDbEntity
  8
_U+30EC_U+30A4_U+30E4_U+30FC 1
370
     0
100
AcDbSpline
210
0.0
220
0.0
230
1.0
 70
    11
 71
     3
 72
    44
 73
    40
 74
     0
 42
0.0000000001
 43
0.0000000001
 12
1.0
 22
0.0
 32
0.0
 13
1.0
 23
0.0
 33
0.0
 40
0.0
 40
0.0
 40
0.0
 40
0.0
 40
1.0
 40
1.0
 40
1.0
 40
2.0
 40
2.0
 40
2.0
 40
3.0
 40
3.0
 40
3.0
 40
4.0
 40
4.0
 40
4.0
 40
5.0
 40
5.0
 40
5.0
 40
6.0
 40
6.0
 40
6.0
 40
7.0
 40
7.0
 40
7.0
 40
8.0
 40
8.0
 40
8.0
 40
9.0
 40
9.0
 40
9.0
 40
10.0
 40
10.0
 40
10.0
 40
11.0
 40
11.0
 40
11.0
 40
12.0
 40
12.0
 40
12.0
 40
13.0
 40
13.0
 40
13.0
 40
13.0
 10
61.30926376505463
 20
-78.67840167303873
 30
0.0
 10
61.12047253246294
 20
-78.83722057490876
 30
0.0
 10
61.04020180765662
 20
-78.91129012784162
 30
0.0
 10
60.99817164273657
 20
-79.05495060957654
 30
0.0
 10
60.99817164273657
 20
-79.05495060957654
 30
0.0
 10
61.67134330055439
 20
-79.05495060957654
 30
0.0
 10
61.67134330055439
 20
-79.05495060957654
 30
0.0
 10
61.67134330055439
 20
-79.05495060957654
 30
0.0
 10
61.67134330055439
 20
-79.26027830049743
 30
0.0
 10
61.67134330055439
 20
-79.26027830049743
 30
0.0
 10
61.67134330055439
 20
-79.26027830049743
 30
0.0
 10
60.78216415581141
 20
-79.26027830049743
 30
0.0
 10
60.78216415581141
 20
-79.26027830049743
 30
0.0
 10
60.80938041014488
 20
-78.9026773891285
 30
0.0
 10
60.8662244856515
 20
-78.82447372161333
 30
0.0
 10
61.19936521907516
 20
-78.5261284525907
 30
0.0
 10
61.42088485877672
 20
-78.32734644309178
 30
0.0
 10
61.47738442473482
 20
-78.25965031680661
 30
0.0
 10
61.47738442473482
 20
-78.12219100694514
 30
0.0
 10
61.47738442473482
 20
-78.00367972225256
 30
0.0
 10
61.41537270600033
 20
-77.8725938390388
 30
0.0
 10
61.24518498902899
 20
-77.8725938390388
 30
0.0
 10
61.01987574429364
 20
-77.8725938390388
 30
0.0
 10
61.01264104377462
 20
-78.10307072700202
 30
0.0
 10
61.00885143874085
 20
-78.21951495440346
 30
0.0
 10
61.00885143874085
 20
-78.21951495440346
 30
0.0
 10
60.81489256292128
 20
-78.21951495440346
 30
0.0
 10
60.81489256292128
 20
-78.21951495440346
 30
0.0
 10
60.82247177298883
 20
-78.09256318577201
 30
0.0
 10
60.83142902125048
 20
-77.98042532772712
 30
0.0
 10
60.90101995005253
 20
-77.86191404303453
 30
0.0
 10
60.99610458544542
 20
-77.70120033864762
 30
0.0
 10
61.15733505415511
 20
-77.6672661481179
 30
0.0
 10
61.25793184232441
 20
-77.6672661481179
 30
0.0
 10
61.49771048809779
 20
-77.6672661481179
 30
0.0
 10
61.67685545333079
 20
-77.85140650180452
 30
0.0
 10
61.67685545333079
 20
-78.1242580642363
 30
0.0
 10
61.67685545333079
 20
-78.35266789490836
 30
0.0
 10
61.5762586651615
 20
-78.45205889965783
 30
0.0
 10
61.30926376505463
 20
-78.67840167303873
 30
0.0
  0
HATCH
  5
B2
330
AB
100
AcDbEntity
  8
_U+30EC_U+30A4_U+30E4_U+30FC 1
 62
   179
420
  2234388
100
AcDbHatch
 10
0.0
 20
0.0
 30
0.0
210
0.0
220
0.0
230
1.0
  2
SOLID
 70
     1
 71
     0
 91
        1
 92
        1
 93
        1
 72
     4
 94
        3
 73
     0
 74
     1
 95
       44
 96
       40
 40
0.0
 40
0.0
 40
0.0
 40
0.0
 40
1.0
 40
1.0
 40
1.0
 40
2.0
 40
2.0
 40
2.0
 40
3.0
 40
3.0
 40
3.0
 40
4.0
 40
4.0
 40
4.0
 40
5.0
 40
5.0
 40
5.0
 40
6.0
 40
6.0
 40
6.0
 40
7.0
 40
7.0
 40
7.0
 40
8.0
 40
8.0
 40
8.0
 40
9.0
 40
9.0
 40
9.0
 40
10.0
 40
10.0
 40
10.0
 40
11.0
 40
11.0
 40
11.0
 40
12.0
 40
12.0
 40
12.0
 40
13.0
 40
13.0
 40
13.0
 40
13.0
 10
61.30926376505463
 20
-78.67840167303873
 10
61.12047253246294
 20
-78.83722057490876
 10
61.04020180765662
 20
-78.91129012784162
 10
60.99817164273657
 20
-79.05495060957654
 10
60.99817164273657
 20
-79.05495060957654
 10
61.67134330055439
 20
-79.05495060957654
 10
61.67134330055439
 20
-79.05495060957654
 10
61.67134330055439
 20
-79.05495060957654
 10
61.67134330055439
 20
-79.26027830049743
 10
61.67134330055439
 20
-79.26027830049743
 10
61.67134330055439
 20
-79.26027830049743
 10
60.78216415581141
 20
-79.26027830049743
 10
60.78216415581141
 20
-79.26027830049743
 10
60.80938041014488
 20
-78.9026773891285
 10
60.8662244856515
 20
-78.82447372161333
 10
61.19936521907516
 20
-78.5261284525907
 10
61.42088485877672
 20
-78.32734644309178
 10
61.47738442473482
 20
-78.25965031680661
 10
61.47738442473482
 20
-78.12219100694514
 10
61.47738442473482
 20
-78.00367972225256
 10
61.41537270600033
 20
-77.8725938390388
 10
61.24518498902899
 20
-77.8725938390388
 10
61.01987574429364
 20
-77.8725938390388
 10
61.01264104377462
 20
-78.10307072700202
 10
61.00885143874085
 20
-78.21951495440346
 10
61.00885143874085
 20
-78.21951495440346
 10
60.81489256292128
 20
-78.21951495440346
 10
60.81489256292128
 20
-78.21951495440346
 10
60.82247177298883
 20
-78.09256318577201
 10
60.83142902125048
 20
-77.98042532772712
 10
60.90101995005253
 20
-77.86191404303453
 10
60.99610458544542
 20
-77.70120033864762
 10
61.15733505415511
 20
-77.6672661481179
 10
61.25793184232441
 20
-77.6672661481179
 10
61.49771048809779
 20
-77.6672661481179
 10
61.67685545333079
 20
-77.85140650180452
 10
61.67685545333079
 20
-78.1242580642363
 10
61.67685545333079
 20
-78.35266789490836
 10
61.5762586651615
 20
-78.45205889965783
 10
61.30926376505463
 20
-78.67840167303873
 97
        0
 97
        0
 75
     2
 76
     1
 98
        0
  0
ENDBLK
  5
AE
330
AB
100
AcDbEntity
  8
0
100
AcDbBlockEnd
  0
BLOCK
  5
C1
330
BF
100
AcDbEntity
  8
0
100
AcDbBlockBegin
  2
block 7
 70
     0
 10
0.0
 20
0.0
 30
0.0
  3
block 7
  1

  0
SPLINE
  5
C3
330
BF
100
AcDbEntity
  8
_U+30EC_U+30A4_U+30E4_U+30FC 1
370
     0
100
AcDbSpline
210
0.0
220
0.0
230
1.0
 70
    11
 71
     3
 72
    26
 73
    22
 74
     0
 42
0.0000000001
 43
0.0000000001
 12
1.0
 22
0.0
 32
0.0
 13
1.0
 23
0.0
 33
0.0
 40
0.0
 40
0.0
 40
0.0
 40
0.0
 40
1.0
 40
1.0
 40
1.0
 40
2.0
 40
2.0
 40
2.0
 40
3.0
 40
3.0
 40
3.0
 40
4.0
 40
4.0
 40
4.0
 40
5.0
 40
5.0
 40
5.0
 40
6.0
 40
6.0
 40
6.0
 40
7.0
 40
7.0
 40
7.0
 40
7.0
 10
50.16903074917649
 20
-98.5317979354365
 30
0.0
 10
50.16903074917649
 20
-98.5317979354365
 30
0.0
 10
50.16903074917649
 20
-97.42764483241393
 30
0.0
 10
50.16903074917649
 20
-97.42764483241393
 30
0.0
 10
50.16903074917649
 20
-97.42764483241393
 30
0.0
 10
49.88360458822355
 20
-97.42764483241393
 30
0.0
 10
49.88360458822355
 20
-97.42764483241393
 30
0.0
 10
49.88360458822355
 20
-97.42764483241393
 30
0.0
 10
49.88360458822355
 20
-97.27950572654818
 30
0.0
 10
49.88360458822355
 20
-97.27950572654818
 30
0.0
 10
50.17092555169338
 20
-97.26469181596161
 30
0.0
 10
50.21123316887081
 20
-97.10173879950929
 30
0.0
 10
50.23672687546166
 20
-96.987361629399
 30
0.0
 10
50.23672687546166
 20
-96.987361629399
 30
0.0
 10
50.36316187977032
 20
-96.987361629399
 30
0.0
 10
50.36316187977032
 20
-96.987361629399
 30
0.0
 10
50.36316187977032
 20
-96.987361629399
 30
0.0
 10
50.36316187977032
 20
-98.5317979354365
 30
0.0
 10
50.36316187977032
 20
-98.5317979354365
 30
0.0
 10
50.36316187977032
 20
-98.5317979354365
 30
0.0
 10
50.16903074917649
 20
-98.5317979354365
 30
0.0
 10
50.16903074917649
 20
-98.5317979354365
 30
0.0
  0
HATCH
  5
C4
330
BF
100
AcDbEntity
  8
_U+30EC_U+30A4_U+30E4_U+30FC 1
 62
   179
420
  2234388
100
AcDbHatch
 10
0.0
 20
0.0
 30
0.0
210
0.0
220
0.0
230
1.0
  2
SOLID
 70
     1
 71
     0
 91
        1
 92
        1
 93
        1
 72
     4
 94
        3
 73
     0
 74
     1
 95
       26
 96
       22
 40
0.0
 40
0.0
 40
0.0
 40
0.0
 40
1.0
 40
1.0
 40
1.0
 40
2.0
 40
2.0
 40
2.0
 40
3.0
 40
3.0
 40
3.0
 40
4.0
 40
4.0
 40
4.0
 40
5.0
 40
5.0
 40
5.0
 40
6.0
 40
6.0
 40
6.0
 40
7.0
 40
7.0
 40
7.0
 40
7.0
 10
50.16903074917649
 20
-98.5317979354365
 10
50.16903074917649
 20
-98.5317979354365
 10
50.16903074917649
 20
-97.42764483241393
 10
50.16903074917649
 20
-97.42764483241393
 10
50.16903074917649
 20
-97.42764483241393
 10
49.88360458822355
 20
-97.42764483241393
 10
49.88360458822355
 20
-97.42764483241393
 10
49.88360458822355
 20
-97.42764483241393
 10
49.88360458822355
 20
-97.27950572654818
 10
49.88360458822355
 20
-97.27950572654818
 10
50.17092555169338
 20
-97.26469181596161
 10
50.21123316887081
 20
-97.10173879950929
 10
50.23672687546166
 20
-96.987361629399
 10
50.23672687546166
 20
-96.987361629399
 10
50.36316187977032
 20
-96.987361629399
 10
50.36316187977032
 20
-96.987361629399
 10
50.36316187977032
 20
-96.987361629399
 10
50.36316187977032
 20
-98.5317979354365
 10
50.36316187977032
 20
-98.5317979354365
 10
50.36316187977032
 20
-98.5317979354365
 10
50.16903074917649
 20
-98.5317979354365
 10
50.16903074917649
 20
-98.5317979354365
 97
        0
 97
        0
 75
     2
 76
     1
 98
        0
  0
SPLINE
  5
C5
330
BF
100
AcDbEntity
  8
_U+30EC_U+30A4_U+30E4_U+30FC 1
370
     0
100
AcDbSpline
210
0.0
220
0.0
230
1.0
 70
    11
 71
     3
 72
    44
 73
    40
 74
     0
 42
0.0000000001
 43
0.0000000001
 12
1.0
 22
0.0
 32
0.0
 13
1.0
 23
0.0
 33
0.0
 40
0.0
 40
0.0
 40
0.0
 40
0.0
 40
1.0
 40
1.0
 40
1.0
 40
2.0
 40
2.0
 40
2.0
 40
3.0
 40
3.0
 40
3.0
 40
4.0
 40
4.0
 40
4.0
 40
5.0
 40
5.0
 40
5.0
 40
6.0
 40
6.0
 40
6.0
 40
7.0
 40
7.0
 40
7.0
 40
8.0
 40
8.0
 40
8.0
 40
9.0
 40
9.0
 40
9.0
 40
10.0
 40
10.0
 40
10.0
 40
11.0
 40
11.0
 40
11.0
 40
12.0
 40
12.0
 40
12.0
 40
13.0
 40
13.0
 40
13.0
 40
13.0
 10
51.30901284524567
 20
-97.9499213079778
 30
0.0
 10
51.1205661222025
 20
-98.10874020984782
 30
0.0
 10
51.03995088784765
 20
-98.18280976278069
 30
0.0
 10
50.9979207229276
 20
-98.3264702445156
 30
0.0
 10
50.9979207229276
 20
-98.3264702445156
 30
0.0
 10
51.67143689029395
 20
-98.3264702445156
 30
0.0
 10
51.67143689029395
 20
-98.3264702445156
 30
0.0
 10
51.67143689029395
 20
-98.3264702445156
 30
0.0
 10
51.67143689029395
 20
-98.5317979354365
 30
0.0
 10
51.67143689029395
 20
-98.5317979354365
 30
0.0
 10
51.67143689029395
 20
-98.5317979354365
 30
0.0
 10
50.78191323600244
 20
-98.5317979354365
 30
0.0
 10
50.78191323600244
 20
-98.5317979354365
 30
0.0
 10
50.80947399988444
 20
-98.17419702406757
 30
0.0
 10
50.8661458206168
 20
-98.0959933565524
 30
0.0
 10
51.19928655404046
 20
-97.79764808752977
 30
0.0
 10
51.42063393896776
 20
-97.59886607803084
 30
0.0
 10
51.47747801447439
 20
-97.53099769697143
 30
0.0
 10
51.47747801447439
 20
-97.39353838710996
 30
0.0
 10
51.47747801447439
 20
-97.27502710241735
 30
0.0
 10
51.41529404096563
 20
-97.14411347397787
 30
0.0
 10
51.24493406922002
 20
-97.14411347397787
 30
0.0
 10
51.01979707925894
 20
-97.14411347397787
 30
0.0
 10
51.01256237873991
 20
-97.37459036194107
 30
0.0
 10
51.0089450284804
 20
-97.49103458934252
 30
0.0
 10
51.0089450284804
 20
-97.49103458934252
 30
0.0
 10
50.81481389788657
 20
-97.49103458934252
 30
0.0
 10
50.81481389788657
 20
-97.49103458934252
 30
0.0
 10
50.82222085317986
 20
-97.3639105659368
 30
0.0
 10
50.83135035621578
 20
-97.25194496266619
 30
0.0
 10
50.90094128501782
 20
-97.13343367797358
 30
0.0
 10
50.99602592041072
 20
-96.97254771881242
 30
0.0
 10
51.15708413434615
 20
-96.93878578305697
 30
0.0
 10
51.2578531772897
 20
-96.93878578305697
 30
0.0
 10
51.4976318230631
 20
-96.93878578305697
 30
0.0
 10
51.67694904307035
 20
-97.12275388196932
 30
0.0
 10
51.67694904307035
 20
-97.3956054444011
 30
0.0
 10
51.67694904307035
 20
-97.62435978462169
 30
0.0
 10
51.57618000012679
 20
-97.72357853459688
 30
0.0
 10
51.30901284524567
 20
-97.9499213079778
 30
0.0
  0
HATCH
  5
C6
330
BF
100
AcDbEntity
  8
_U+30EC_U+30A4_U+30E4_U+30FC 1
 62
   179
420
  2234388
100
AcDbHatch
 10
0.0
 20
0.0
 30
0.0
210
0.0
220
0.0
230
1.0
  2
SOLID
 70
     1
 71
     0
 91
        1
 92
        1
 93
        1
 72
     4
 94
        3
 73
     0
 74
     1
 95
       44
 96
       40
 40
0.0
 40
0.0
 40
0.0
 40
0.0
 40
1.0
 40
1.0
 40
1.0
 40
2.0
 40
2.0
 40
2.0
 40
3.0
 40
3.0
 40
3.0
 40
4.0
 40
4.0
 40
4.0
 40
5.0
 40
5.0
 40
5.0
 40
6.0
 40
6.0
 40
6.0
 40
7.0
 40
7.0
 40
7.0
 40
8.0
 40
8.0
 40
8.0
 40
9.0
 40
9.0
 40
9.0
 40
10.0
 40
10.0
 40
10.0
 40
11.0
 40
11.0
 40
11.0
 40
12.0
 40
12.0
 40
12.0
 40
13.0
 40
13.0
 40
13.0
 40
13.0
 10
51.30901284524567
 20
-97.9499213079778
 10
51.1205661222025
 20
-98.10874020984782
 10
51.03995088784765
 20
-98.18280976278069
 10
50.9979207229276
 20
-98.3264702445156
 10
50.9979207229276
 20
-98.3264702445156
 10
51.67143689029395
 20
-98.3264702445156
 10
51.67143689029395
 20
-98.3264702445156
 10
51.67143689029395
 20
-98.3264702445156
 10
51.67143689029395
 20
-98.5317979354365
 10
51.67143689029395
 20
-98.5317979354365
 10
51.67143689029395
 20
-98.5317979354365
 10
50.78191323600244
 20
-98.5317979354365
 10
50.78191323600244
 20
-98.5317979354365
 10
50.80947399988444
 20
-98.17419702406757
 10
50.8661458206168
 20
-98.0959933565524
 10
51.19928655404046
 20
-97.79764808752977
 10
51.42063393896776
 20
-97.59886607803084
 10
51.47747801447439
 20
-97.53099769697143
 10
51.47747801447439
 20
-97.39353838710996
 10
51.47747801447439
 20
-97.27502710241735
 10
51.41529404096563
 20
-97.14411347397787
 10
51.24493406922002
 20
-97.14411347397787
 10
51.01979707925894
 20
-97.14411347397787
 10
51.01256237873991
 20
-97.37459036194107
 10
51.0089450284804
 20
-97.49103458934252
 10
51.0089450284804
 20
-97.49103458934252
 10
50.81481389788657
 20
-97.49103458934252
 10
50.81481389788657
 20
-97.49103458934252
 10
50.82222085317986
 20
-97.3639105659368
 10
50.83135035621578
 20
-97.25194496266619
 10
50.90094128501782
 20
-97.13343367797358
 10
50.99602592041072
 20
-96.97254771881242
 10
51.15708413434615
 20
-96.93878578305697
 10
51.2578531772897
 20
-96.93878578305697
 10
51.4976318230631
 20
-96.93878578305697
 10
51.67694904307035
 20
-97.12275388196932
 10
51.67694904307035
 20
-97.3956054444011
 10
51.67694904307035
 20
-97.62435978462169
 10
51.57618000012679
 20
-97.72357853459688
 10
51.30901284524567
 20
-97.9499213079778
 97
        0
 97
        0
 75
     2
 76
     1
 98
        0
  0
ENDBLK
  5
C2
330
BF
100
AcDbEntity
  8
0
100
AcDbBlockEnd
  0
BLOCK
  5
DD
330
DB
100
AcDbEntity
  8
0
100
AcDbBlockBegin
  2
block 8
 70
     0
 10
0.0
 20
0.0
 30
0.0
  3
block 8
  1

  0
SPLINE
  5
DF
330
DB
100
AcDbEntity
  8
_U+30EC_U+30A4_U+30E4_U+30FC 1
370
     0
100
AcDbSpline
210
0.0
220
0.0
230
1.0
 70
    11
 71
     3
 72
    32
 73
    28
 74
     0
 42
0.0000000001
 43
0.0000000001
 12
1.0
 22
0.0
 32
0.0
 13
1.0
 23
0.0
 33
0.0
 40
0.0
 40
0.0
 40
0.0
 40
0.0
 40
1.0
 40
1.0
 40
1.0
 40
2.0
 40
2.0
 40
2.0
 40
3.0
 40
3.0
 40
3.0
 40
4.0
 40
4.0
 40
4.0
 40
5.0
 40
5.0
 40
5.0
 40
6.0
 40
6.0
 40
6.0
 40
7.0
 40
7.0
 40
7.0
 40
8.0
 40
8.0
 40
8.0
 40
9.0
 40
9.0
 40
9.0
 40
9.0
 10
80.40921764482826
 20
-90.68731551552261
 30
0.0
 10
80.40921764482826
 20
-90.83752167867951
 30
0.0
 10
80.3396267160262
 20
-91.0497395605709
 30
0.0
 10
80.00751951124812
 20
-91.0828124772293
 30
0.0
 10
80.00751951124812
 20
-91.0828124772293
 30
0.0
 10
80.00751951124812
 20
-90.89781084967139
 30
0.0
 10
80.00751951124812
 20
-90.89781084967139
 30
0.0
 10
80.06677515359442
 20
-90.88885360140974
 30
0.0
 10
80.21456974991163
 20
-90.86129283752774
 30
0.0
 10
80.21456974991163
 20
-90.68559296778
 30
0.0
 10
80.21456974991163
 20
-90.43306746871119
 30
0.0
 10
79.88487411197323
 20
-90.39999455205279
 30
0.0
 10
79.67954642105234
 20
-90.38897024649998
 30
0.0
 10
79.75981714585866
 20
-90.4678629331122
 30
0.0
 10
79.8170057309138
 20
-90.52642955636145
 30
0.0
 10
79.8170057309138
 20
-90.68387042003737
 30
0.0
 10
79.8170057309138
 20
-90.83924422642214
 30
0.0
 10
79.71124129951664
 20
-91.10107148330113
 30
0.0
 10
79.30506454180568
 20
-91.10107148330113
 30
0.0
 10
78.98570419032302
 20
-91.10107148330113
 30
0.0
 10
78.76556258881556
 20
-90.92916121858715
 30
0.0
 10
78.76556258881556
 20
-90.65458710841274
 30
0.0
 10
78.76556258881556
 20
-90.20982528126699
 30
0.0
 10
79.31987845239226
 20
-90.20052352345682
 30
0.0
 10
79.53347437247774
 20
-90.20052352345682
 30
0.0
 10
79.76395126044096
 20
-90.20052352345682
 30
0.0
 10
80.40921764482826
 20
-90.21705998178602
 30
0.0
 10
80.40921764482826
 20
-90.68731551552261
 30
0.0
  0
SPLINE
  5
E0
330
DB
100
AcDbEntity
  8
_U+30EC_U+30A4_U+30E4_U+30FC 1
370
     0
100
AcDbSpline
210
0.0
220
0.0
230
1.0
 70
    11
 71
     3
 72
    17
 73
    13
 74
     0
 42
0.0000000001
 43
0.0000000001
 12
1.0
 22
0.0
 32
0.0
 13
1.0
 23
0.0
 33
0.0
 40
0.0
 40
0.0
 40
0.0
 40
0.0
 40
1.0
 40
1.0
 40
1.0
 40
2.0
 40
2.0
 40
2.0
 40
3.0
 40
3.0
 40
3.0
 40
4.0
 40
4.0
 40
4.0
 40
4.0
 10
78.95814342644103
 20
-90.6525200511216
 30
0.0
 10
78.95814342644103
 20
-90.75518389658204
 30
0.0
 10
79.01533201149617
 20
-90.90711260748157
 30
0.0
 10
79.30093042722338
 20
-90.90711260748157
 30
0.0
 10
79.5272732006043
 20
-90.90711260748157
 30
0.0
 10
79.62235783599719
 20
-90.7861897559493
 30
0.0
 10
79.62235783599719
 20
-90.6690565094508
 30
0.0
 10
79.62235783599719
 20
-90.44236922652135
 30
0.0
 10
79.412896030494
 20
-90.40929630986295
 30
0.0
 10
79.29645180309255
 20
-90.40929630986295
 30
0.0
 10
79.12109644289335
 20
-90.40929630986295
 30
0.0
 10
78.95814342644103
 20
-90.49163409196044
 30
0.0
 10
78.95814342644103
 20
-90.6525200511216
 30
0.0
  0
HATCH
  5
E1
330
DB
100
AcDbEntity
  8
_U+30EC_U+30A4_U+30E4_U+30FC 1
 62
   179
420
  2234388
100
AcDbHatch
 10
0.0
 20
0.0
 30
0.0
210
0.0
220
0.0
230
1.0
  2
SOLID
 70
     1
 71
     0
 91
        2
 92
        1
 93
        1
 72
     4
 94
        3
 73
     0
 74
     1
 95
       32
 96
       28
 40
0.0
 40
0.0
 40
0.0
 40
0.0
 40
1.0
 40
1.0
 40
1.0
 40
2.0
 40
2.0
 40
2.0
 40
3.0
 40
3.0
 40
3.0
 40
4.0
 40
4.0
 40
4.0
 40
5.0
 40
5.0
 40
5.0
 40
6.0
 40
6.0
 40
6.0
 40
7.0
 40
7.0
 40
7.0
 40
8.0
 40
8.0
 40
8.0
 40
9.0
 40
9.0
 40
9.0
 40
9.0
 10
80.40921764482826
 20
-90.68731551552261
 10
80.40921764482826
 20
-90.83752167867951
 10
80.3396267160262
 20
-91.0497395605709
 10
80.00751951124812
 20
-91.0828124772293
 10
80.00751951124812
 20
-91.0828124772293
 10
80.00751951124812
 20
-90.89781084967139
 10
80.00751951124812
 20
-90.89781084967139
 10
80.06677515359442
 20
-90.88885360140974
 10
80.21456974991163
 20
-90.86129283752774
 10
80.21456974991163
 20
-90.68559296778
 10
80.21456974991163
 20
-90.43306746871119
 10
79.88487411197323
 20
-90.39999455205279
 10
79.67954642105234
 20
-90.38897024649998
 10
79.75981714585866
 20
-90.4678629331122
 10
79.8170057309138
 20
-90.52642955636145
 10
79.8170057309138
 20
-90.68387042003737
 10
79.8170057309138
 20
-90.83924422642214
 10
79.71124129951664
 20
-91.10107148330113
 10
79.30506454180568
 20
-91.10107148330113
 10
78.98570419032302
 20
-91.10107148330113
 10
78.76556258881556
 20
-90.92916121858715
 10
78.76556258881556
 20
-90.65458710841274
 10
78.76556258881556
 20
-90.20982528126699
 10
79.31987845239226
 20
-90.20052352345682
 10
79.53347437247774
 20
-90.20052352345682
 10
79.76395126044096
 20
-90.20052352345682
 10
80.40921764482826
 20
-90.21705998178602
 10
80.40921764482826
 20
-90.68731551552261
 97
        0
 97
        0
 92
        1
 93
        1
 72
     4
 94
        3
 73
     0
 74
     1
 95
       17
 96
       13
 40
0.0
 40
0.0
 40
0.0
 40
0.0
 40
1.0
 40
1.0
 40
1.0
 40
2.0
 40
2.0
 40
2.0
 40
3.0
 40
3.0
 40
3.0
 40
4.0
 40
4.0
 40
4.0
 40
4.0
 10
78.95814342644103
 20
-90.6525200511216
 10
78.95814342644103
 20
-90.75518389658204
 10
79.01533201149617
 20
-90.90711260748157
 10
79.30093042722338
 20
-90.90711260748157
 10
79.5272732006043
 20
-90.90711260748157
 10
79.62235783599719
 20
-90.7861897559493
 10
79.62235783599719
 20
-90.6690565094508
 10
79.62235783599719
 20
-90.44236922652135
 10
79.412896030494
 20
-90.40929630986295
 10
79.29645180309255
 20
-90.40929630986295
 10
79.12109644289335
 20
-90.40929630986295
 10
78.95814342644103
 20
-90.49163409196044
 10
78.95814342644103
 20
-90.6525200511216
 97
        0
 97
        0
 75
     2
 76
     1
 98
        0
  0
POLYLINE
  5
E2
330
DB
100
AcDbEntity
  8
_U+30EC_U+30A4_U+30E4_U+30FC 1
370
     0
100
AcDb2dPolyline
 66
     1
 10
0.0
 20
0.0
 30
0.0
  0
VERTEX
  5
E3
330
E2
100
AcDbEntity
  8
_U+30EC_U+30A4_U+30E4_U+30FC 1
370
     0
100
AcDbVertex
100
AcDb2dVertex
 10
80.35857474119508
 20
-90.0141438577048
 30
0.0
  0
VERTEX
  5
E4
330
E2
100
AcDbEntity
  8
_U+30EC_U+30A4_U+30E4_U+30FC 1
370
     0
100
AcDbVertex
100
AcDb2dVertex
 10
80.10673826122331
 20
-90.0141438577048
 30
0.0
  0
VERTEX
  5
E5
330
E2
100
AcDbEntity
  8
_U+30EC_U+30A4_U+30E4_U+30FC 1
370
     0
100
AcDbVertex
100
AcDb2dVertex
 10
80.10673826122331
 20
-89.79641382303701
 30
0.0
  0
VERTEX
  5
E6
330
E2
100
AcDbEntity
  8
_U+30EC_U+30A4_U+30E4_U+30FC 1
370
     0
100
AcDbVertex
100
AcDb2dVertex
 10
80.35857474119508
 20
-89.79641382303701
 30
0.0
  0
VERTEX
  5
E7
330
E2
100
AcDbEntity
  8
_U+30EC_U+30A4_U+30E4_U+30FC 1
370
     0
100
AcDbVertex
100
AcDb2dVertex
 10
80.35857474119508
 20
-90.0141438577048
 30
0.0
  0
SEQEND
  5
E8
330
E2
100
AcDbEntity
  8
_U+30EC_U+30A4_U+30E4_U+30FC 1
370
     0
  0
HATCH
  5
E9
330
DB
100
AcDbEntity
  8
_U+30EC_U+30A4_U+30E4_U+30FC 1
 62
   179
420
  2234388
100
AcDbHatch
 10
0.0
 20
0.0
 30
0.0
210
0.0
220
0.0
230
1.0
  2
SOLID
 70
     1
 71
     0
 91
        1
 92
        1
 93
        4
 72
     1
 10
80.35857474119508
 20
-90.0141438577048
 11
80.10673826122331
 21
-90.0141438577048
 72
     1
 10
80.10673826122331
 20
-90.0141438577048
 11
80.10673826122331
 21
-89.79641382303701
 72
     1
 10
80.10673826122331
 20
-89.79641382303701
 11
80.35857474119508
 21
-89.79641382303701
 72
     1
 10
80.35857474119508
 20
-89.79641382303701
 11
80.35857474119508
 21
-90.0141438577048
 97
        0
 75
     2
 76
     1
 98
        0
  0
SPLINE
  5
EA
330
DB
100
AcDbEntity
  8
_U+30EC_U+30A4_U+30E4_U+30FC 1
370
     0
100
AcDbSpline
210
0.0
220
0.0
230
1.0
 70
    11
 71
     3
 72
    29
 73
    25
 74
     0
 42
0.0000000001
 43
0.0000000001
 12
1.0
 22
0.0
 32
0.0
 13
1.0
 23
0.0
 33
0.0
 40
0.0
 40
0.0
 40
0.0
 40
0.0
 40
1.0
 40
1.0
 40
1.0
 40
2.0
 40
2.0
 40
2.0
 40
3.0
 40
3.0
 40
3.0
 40
4.0
 40
4.0
 40
4.0
 40
5.0
 40
5.0
 40
5.0
 40
6.0
 40
6.0
 40
6.0
 40
7.0
 40
7.0
 40
7.0
 40
8.0
 40
8.0
 40
8.0
 40
8.0
 10
80.40921764482826
 20
-89.15976017736284
 30
0.0
 10
80.40921764482826
 20
-89.39023706532606
 30
0.0
 10
80.27175833496679
 20
-89.610034157285
 30
0.0
 10
79.92277016231098
 20
-89.610034157285
 30
0.0
 10
79.66679956775691
 20
-89.610034157285
 30
0.0
 10
79.57171493236402
 20
-89.4873887580101
 30
0.0
 10
79.51039223272657
 20
-89.39574921810245
 30
0.0
 10
79.45113659038027
 20
-89.5039252163393
 30
0.0
 10
79.33675942026998
 20
-89.56972654010757
 30
0.0
 10
79.17587346110881
 20
-89.56972654010757
 30
0.0
 10
78.90095484138588
 20
-89.56972654010757
 30
0.0
 10
78.76556258881556
 20
-89.39781627539361
 30
0.0
 10
78.76556258881556
 20
-89.15976017736284
 30
0.0
 10
78.76556258881556
 20
-88.91446937881305
 30
0.0
 10
78.909567580099
 20
-88.74979381461812
 30
0.0
 10
79.17587346110881
 20
-88.74979381461812
 30
0.0
 10
79.33675942026998
 20
-88.74979381461812
 30
0.0
 10
79.45113659038027
 20
-88.81766219567753
 30
0.0
 10
79.51039223272657
 20
-88.92549368436585
 30
0.0
 10
79.56103513635975
 20
-88.84866805504478
 30
0.0
 10
79.65611977175264
 20
-88.71155325473184
 30
0.0
 10
79.91863604772868
 20
-88.71155325473184
 30
0.0
 10
80.29311792697534
 20
-88.71155325473184
 30
0.0
 10
80.40921764482826
 20
-88.95305444824785
 30
0.0
 10
80.40921764482826
 20
-89.15976017736284
 30
0.0
  0
SPLINE
  5
EB
330
DB
100
AcDbEntity
  8
_U+30EC_U+30A4_U+30E4_U+30FC 1
370
     0
100
AcDbSpline
210
0.0
220
0.0
230
1.0
 70
    11
 71
     3
 72
    17
 73
    13
 74
     0
 42
0.0000000001
 43
0.0000000001
 12
1.0
 22
0.0
 32
0.0
 13
1.0
 23
0.0
 33
0.0
 40
0.0
 40
0.0
 40
0.0
 40
0.0
 40
1.0
 40
1.0
 40
1.0
 40
2.0
 40
2.0
 40
2.0
 40
3.0
 40
3.0
 40
3.0
 40
4.0
 40
4.0
 40
4.0
 40
4.0
 10
78.95814342644103
 20
-89.15976017736284
 30
0.0
 10
78.95814342644103
 20
-89.30273164000072
 30
0.0
 10
79.05322806183392
 20
-89.375767664288
 30
0.0
 10
79.18862031440423
 20
-89.375767664288
 30
0.0
 10
79.31126571367913
 20
-89.375767664288
 30
0.0
 10
79.42977699837172
 20
-89.31341143600498
 30
0.0
 10
79.42977699837172
 20
-89.15976017736284
 30
0.0
 10
79.42977699837172
 20
-89.0061089187207
 30
0.0
 10
79.31126571367913
 20
-88.94375269043768
 30
0.0
 10
79.18862031440423
 20
-88.94375269043768
 30
0.0
 10
79.05322806183392
 20
-88.94375269043768
 30
0.0
 10
78.95814342644103
 20
-89.01885577201612
 30
0.0
 10
78.95814342644103
 20
-89.15976017736284
 30
0.0
  0
SPLINE
  5
EC
330
DB
100
AcDbEntity
  8
_U+30EC_U+30A4_U+30E4_U+30FC 1
370
     0
100
AcDbSpline
210
0.0
220
0.0
230
1.0
 70
    11
 71
     3
 72
    17
 73
    13
 74
     0
 42
0.0000000001
 43
0.0000000001
 12
1.0
 22
0.0
 32
0.0
 13
1.0
 23
0.0
 33
0.0
 40
0.0
 40
0.0
 40
0.0
 40
0.0
 40
1.0
 40
1.0
 40
1.0
 40
2.0
 40
2.0
 40
2.0
 40
3.0
 40
3.0
 40
3.0
 40
4.0
 40
4.0
 40
4.0
 40
4.0
 10
79.61822372141489
 20
-89.15976017736284
 30
0.0
 10
79.61822372141489
 20
-89.28412812438036
 30
0.0
 10
79.70504012764319
 20
-89.41607528146542
 30
0.0
 10
79.9079562517244
 20
-89.41607528146542
 30
0.0
 10
80.1132839426453
 20
-89.41607528146542
 30
0.0
 10
80.21456974991163
 20
-89.30617673548596
 30
0.0
 10
80.21456974991163
 20
-89.15976017736284
 30
0.0
 10
80.21456974991163
 20
-88.99887421820168
 30
0.0
 10
80.09192435063675
 20
-88.90344507326026
 30
0.0
 10
79.91415742359786
 20
-88.90344507326026
 30
0.0
 10
79.69229327434776
 20
-88.90344507326026
 30
0.0
 10
79.61822372141489
 20
-89.04434947860697
 30
0.0
 10
79.61822372141489
 20
-89.15976017736284
 30
0.0
  0
HATCH
  5
ED
330
DB
100
AcDbEntity
  8
_U+30EC_U+30A4_U+30E4_U+30FC 1
 62
   179
420
  2234388
100
AcDbHatch
 10
0.0
 20
0.0
 30
0.0
210
0.0
220
0.0
230
1.0
  2
SOLID
 70
     1
 71
     0
 91
        3
 92
        1
 93
        1
 72
     4
 94
        3
 73
     0
 74
     1
 95
       29
 96
       25
 40
0.0
 40
0.0
 40
0.0
 40
0.0
 40
1.0
 40
1.0
 40
1.0
 40
2.0
 40
2.0
 40
2.0
 40
3.0
 40
3.0
 40
3.0
 40
4.0
 40
4.0
 40
4.0
 40
5.0
 40
5.0
 40
5.0
 40
6.0
 40
6.0
 40
6.0
 40
7.0
 40
7.0
 40
7.0
 40
8.0
 40
8.0
 40
8.0
 40
8.0
 10
80.40921764482826
 20
-89.15976017736284
 10
80.40921764482826
 20
-89.39023706532606
 10
80.27175833496679
 20
-89.610034157285
 10
79.92277016231098
 20
-89.610034157285
 10
79.66679956775691
 20
-89.610034157285
 10
79.57171493236402
 20
-89.4873887580101
 10
79.51039223272657
 20
-89.39574921810245
 10
79.45113659038027
 20
-89.5039252163393
 10
79.33675942026998
 20
-89.56972654010757
 10
79.17587346110881
 20
-89.56972654010757
 10
78.90095484138588
 20
-89.56972654010757
 10
78.76556258881556
 20
-89.39781627539361
 10
78.76556258881556
 20
-89.15976017736284
 10
78.76556258881556
 20
-88.91446937881305
 10
78.909567580099
 20
-88.74979381461812
 10
79.17587346110881
 20
-88.74979381461812
 10
79.33675942026998
 20
-88.74979381461812
 10
79.45113659038027
 20
-88.81766219567753
 10
79.51039223272657
 20
-88.92549368436585
 10
79.56103513635975
 20
-88.84866805504478
 10
79.65611977175264
 20
-88.71155325473184
 10
79.91863604772868
 20
-88.71155325473184
 10
80.29311792697534
 20
-88.71155325473184
 10
80.40921764482826
 20
-88.95305444824785
 10
80.40921764482826
 20
-89.15976017736284
 97
        0
 97
        0
 92
        1
 93
        1
 72
     4
 94
        3
 73
     0
 74
     1
 95
       17
 96
       13
 40
0.0
 40
0.0
 40
0.0
 40
0.0
 40
1.0
 40
1.0
 40
1.0
 40
2.0
 40
2.0
 40
2.0
 40
3.0
 40
3.0
 40
3.0
 40
4.0
 40
4.0
 40
4.0
 40
4.0
 10
78.95814342644103
 20
-89.15976017736284
 10
78.95814342644103
 20
-89.30273164000072
 10
79.05322806183392
 20
-89.375767664288
 10
79.18862031440423
 20
-89.375767664288
 10
79.31126571367913
 20
-89.375767664288
 10
79.42977699837172
 20
-89.31341143600498
 10
79.42977699837172
 20
-89.15976017736284
 10
79.42977699837172
 20
-89.0061089187207
 10
79.31126571367913
 20
-88.94375269043768
 10
79.18862031440423
 20
-88.94375269043768
 10
79.05322806183392
 20
-88.94375269043768
 10
78.95814342644103
 20
-89.01885577201612
 10
78.95814342644103
 20
-89.15976017736284
 97
        0
 97
        0
 92
        1
 93
        1
 72
     4
 94
        3
 73
     0
 74
     1
 95
       17
 96
       13
 40
0.0
 40
0.0
 40
0.0
 40
0.0
 40
1.0
 40
1.0
 40
1.0
 40
2.0
 40
2.0
 40
2.0
 40
3.0
 40
3.0
 40
3.0
 40
4.0
 40
4.0
 40
4.0
 40
4.0
 10
79.61822372141489
 20
-89.15976017736284
 10
79.61822372141489
 20
-89.28412812438036
 10
79.70504012764319
 20
-89.41607528146542
 10
79.9079562517244
 20
-89.41607528146542
 10
80.1132839426453
 20
-89.41607528146542
 10
80.21456974991163
 20
-89.30617673548596
 10
80.21456974991163
 20
-89.15976017736284
 10
80.21456974991163
 20
-88.99887421820168
 10
80.09192435063675
 20
-88.90344507326026
 10
79.91415742359786
 20
-88.90344507326026
 10
79.69229327434776
 20
-88.90344507326026
 10
79.61822372141489
 20
-89.04434947860697
 10
79.61822372141489
 20
-89.15976017736284
 97
        0
 97
        0
 75
     2
 76
     1
 98
        0
  0
ENDBLK
  5
DE
330
DB
100
AcDbEntity
  8
0
100
AcDbBlockEnd
  0
ENDSEC
  0
SECTION
  2
ENTITIES
  0
INSERT
  5
42
330
1F
100
AcDbEntity
  8
_U+30EC_U+30A4_U+30E4_U+30FC 1
100
AcDbBlockReference
  2
block 2
 10
0.0
 20
0.0
 30
0.0
  0
ENDSEC
  0
SECTION
  2
OBJECTS
  0
DICTIONARY
  5
C
330
0
100
AcDbDictionary
281
     1
  3
ACAD_GROUP
350
D
  3
ACAD_LAYOUT
350
1A
  3
ACAD_MATERIAL
350
3B
  3
ACAD_MLEADERSTYLE
350
EF
  3
ACAD_MLINESTYLE
350
17
  3
ACAD_PLOTSETTINGS
350
19
  3
ACAD_PLOTSTYLENAME
350
E
  3
ACAD_TABLESTYLE
350
EE
  3
ACAD_VISUALSTYLE
350
2A
  0
SUN
  5
3F
330
29
100
AcDbSun
 90
        1
290
     0
 63
     7
421
 16777215
 40
1.0
291
     1
 91
  2455826
 92
 54000000
292
     0
 70
     2
 71
   256
280
     1
  0
DICTIONARY
  5
D
102
{ACAD_REACTORS
330
C
102
}
330
C
100
AcDbDictionary
281
     1
  0
DICTIONARY
  5
1A
102
{ACAD_REACTORS
330
C
102
}
330
C
100
AcDbDictionary
281
     1
  3
Layout1
350
1E
  3
Layout2
350
26
  3
Model
350
22
  0
DICTIONARY
  5
3B
102
{ACAD_REACTORS
330
C
102
}
330
C
100
AcDbDictionary
281
     1
  3
ByBlock
350
3D
  3
ByLayer
350
3C
  3
Global
350
3E
  0
DICTIONARY
  5
EF
102
{ACAD_REACTORS
330
C
102
}
330
C
100
AcDbDictionary
281
     1
  0
DICTIONARY
  5
17
102
{ACAD_REACTORS
330
C
102
}
330
C
100
AcDbDictionary
281
     1
  3
Standard
350
18
  0
DICTIONARY
  5
19
102
{ACAD_REACTORS
330
C
102
}
330
C
100
AcDbDictionary
281
     1
  0
ACDBDICTIONARYWDFLT
  5
E
102
{ACAD_REACTORS
330
C
102
}
330
C
100
AcDbDictionary
281
     1
  3
Normal
350
F
100
AcDbDictionaryWithDefault
340
F
  0
DICTIONARY
  5
EE
102
{ACAD_REACTORS
330
C
102
}
330
C
100
AcDbDictionary
281
     1
  0
DICTIONARY
  5
2A
102
{ACAD_REACTORS
330
C
102
}
330
C
100
AcDbDictionary
281
     1
  3
2dWireframe
350
2F
  3
3D Hidden
350
31
  3
3dWireframe
350
30
  3
Basic
350
32
  3
Brighten
350
36
  3
ColorChange
350
3A
  3
Conceptual
350
34
  3
Dim
350
35
  3
Facepattern
350
39
  3
Flat
350
2B
  3
FlatWithEdges
350
2C
  3
Gouraud
350
2D
  3
GouraudWithEdges
350
2E
  3
Linepattern
350
38
  3
Realistic
350
33
  3
Thicken
350
37
  0
LAYOUT
  5
1E
102
{ACAD_REACTORS
330
1A
102
}
330
1A
100
AcDbPlotSettings
  1

  2
none_device
  4

  6

 40
0.0
 41
0.0
 42
0.0
 43
0.0
 44
0.0
 45
0.0
 46
0.0
 47
0.0
 48
0.0
 49
0.0
140
0.0
141
0.0
142
1.0
143
1.0
 70
   688
 72
     0
 73
     0
 74
     5
  7

 75
    16
 76
     0
 77
     2
 78
   300
147
1.0
148
0.0
149
0.0
100
AcDbLayout
  1
Layout1
 70
     1
 71
     1
 10
0.0
 20
0.0
 11
12.0
 21
9.0
 12
0.0
 22
0.0
 32
0.0
 14
1.000000000000000E+20
 24
1.000000000000000E+20
 34
1.000000000000000E+20
 15
-1.000000000000000E+20
 25
-1.000000000000000E+20
 35
-1.000000000000000E+20
146
0.0
 13
0.0
 23
0.0
 33
0.0
 16
1.0
 26
0.0
 36
0.0
 17
0.0
 27
1.0
 37
0.0
 76
     0
330
1B
  0
LAYOUT
  5
26
102
{ACAD_REACTORS
330
1A
102
}
330
1A
100
AcDbPlotSettings
  1

  2
none_device
  4

  6

 40
0.0
 41
0.0
 42
0.0
 43
0.0
 44
0.0
 45
0.0
 46
0.0
 47
0.0
 48
0.0
 49
0.0
140
0.0
141
0.0
142
1.0
143
1.0
 70
   688
 72
     0
 73
     0
 74
     5
  7

 75
    16
 76
     0
 77
     2
 78
   300
147
1.0
148
0.0
149
0.0
100
AcDbLayout
  1
Layout2
 70
     1
 71
     2
 10
0.0
 20
0.0
 11
0.0
 21
0.0
 12
0.0
 22
0.0
 32
0.0
 14
0.0
 24
0.0
 34
0.0
 15
0.0
 25
0.0
 35
0.0
146
0.0
 13
0.0
 23
0.0
 33
0.0
 16
1.0
 26
0.0
 36
0.0
 17
0.0
 27
1.0
 37
0.0
 76
     0
330
23
  0
LAYOUT
  5
22
102
{ACAD_REACTORS
330
1A
102
}
330
1A
100
AcDbPlotSettings
  1

  2
none_device
  4

  6

 40
0.0
 41
0.0
 42
0.0
 43
0.0
 44
0.0
 45
0.0
 46
0.0
 47
0.0
 48
0.0
 49
0.0
140
0.0
141
0.0
142
1.0
143
1.0
 70
  1712
 72
     0
 73
     0
 74
     0
  7

 75
     0
 76
     0
 77
     2
 78
   300
147
1.0
148
0.0
149
0.0
100
AcDbLayout
  1
Model
 70
     1
 71
     0
 10
0.0
 20
0.0
 11
12.0
 21
9.0
 12
0.0
 22
0.0
 32
0.0
 14
1.000000000000000E+20
 24
1.000000000000000E+20
 34
1.000000000000000E+20
 15
-1.000000000000000E+20
 25
-1.000000000000000E+20
 35
-1.000000000000000E+20
146
0.0
 13
0.0
 23
0.0
 33
0.0
 16
1.0
 26
0.0
 36
0.0
 17
0.0
 27
1.0
 37
0.0
 76
     0
330
1F
331
29
  0
MATERIAL
  5
3D
102
{ACAD_REACTORS
330
3B
102
}
330
3B
100
AcDbMaterial
  1
ByBlock
 72
     1
 94
      127
  0
MATERIAL
  5
3C
102
{ACAD_REACTORS
330
3B
102
}
330
3B
100
AcDbMaterial
  1
ByLayer
 72
     1
 94
      127
  0
MATERIAL
  5
3E
102
{ACAD_REACTORS
330
3B
102
}
330
3B
100
AcDbMaterial
  1
Global
 72
     1
 94
      127
  0
MLINESTYLE
  5
18
102
{ACAD_REACTORS
330
17
102
}
330
17
100
AcDbMlineStyle
  2
Standard
 70
     0
  3

 62
   256
 51
90.0
 52
90.0
 71
     2
 49
0.5
 62
   256
  6
BYLAYER
 49
-0.5
 62
   256
  6
BYLAYER
  0
ACDBPLACEHOLDER
  5
F
102
{ACAD_REACTORS
330
E
102
}
330
E
  0
VISUALSTYLE
  5
2F
102
{ACAD_REACTORS
330
2A
102
}
330
2A
100
AcDbVisualStyle
  2
2dWireframe
 70
     4
177
     2
291
     0
 71
     0
176
     1
 72
     2
176
     1
 73
     0
176
     1
 90
        0
176
     1
 40
-0.6
176
     1
 41
-30.0
176
     1
 62
     5
 63
     7
421
 16777215
176
     1
 74
     1
176
     1
 91
        4
176
     1
 64
     7
176
     1
 65
   257
176
     1
 75
     1
176
     1
175
     1
176
     1
 42
1.0
176
     1
 92
        0
176
     1
 66
   257
176
     1
 43
1.0
176
     1
 76
     1
176
     1
 77
     6
176
     1
 78
     2
176
     1
 67
     7
176
     1
 79
     5
176
     1
170
     0
176
     1
171
     0
176
     1
290
     0
176
     1
 93
        1
176
     1
 44
0.0
176
     1
173
     0
176
     1
  0
VISUALSTYLE
  5
31
102
{ACAD_REACTORS
330
2A
102
}
330
2A
100
AcDbVisualStyle
  2
3D Hidden
 70
     6
177
     2
291
     0
 71
     1
176
     1
 72
     2
176
     1
 73
     2
176
     1
 90
        0
176
     1
 40
-0.6
176
     1
 41
-30.0
176
     1
 62
     5
 63
     7
421
 16777215
176
     1
 74
     2
176
     1
 91
        2
176
     1
 64
     7
176
     1
 65
   257
176
     1
 75
     2
176
     1
175
     1
176
     1
 42
40.0
176
     1
 92
        0
176
     1
 66
   257
176
     1
 43
1.0
176
     1
 76
     1
176
     1
 77
     6
176
     1
 78
     2
176
     1
 67
     7
176
     1
 79
     3
176
     1
170
     0
176
     1
171
     0
176
     1
290
     0
176
     1
 93
        1
176
     1
 44
0.0
176
     1
173
     0
176
     1
  0
VISUALSTYLE
  5
30
102
{ACAD_REACTORS
330
2A
102
}
330
2A
100
AcDbVisualStyle
  2
3dWireframe
 70
     5
177
     2
291
     0
 71
     0
176
     1
 72
     2
176
     1
 73
     0
176
     1
 90
        0
176
     1
 40
-0.6
176
     1
 41
-30.0
176
     1
 62
     5
 63
     7
421
 16777215
176
     1
 74
     1
176
     1
 91
        4
176
     1
 64
     7
176
     1
 65
   257
176
     1
 75
     1
176
     1
175
     1
176
     1
 42
1.0
176
     1
 92
        0
176
     1
 66
   257
176
     1
 43
1.0
176
     1
 76
     1
176
     1
 77
     6
176
     1
 78
     2
176
     1
 67
     7
176
     1
 79
     5
176
     1
170
     0
176
     1
171
     0
176
     1
290
     0
176
     1
 93
        1
176
     1
 44
0.0
176
     1
173
     0
176
     1
  0
VISUALSTYLE
  5
32
102
{ACAD_REACTORS
330
2A
102
}
330
2A
100
AcDbVisualStyle
  2
Basic
 70
     7
177
     2
291
     1
 71
     1
176
     1
 72
     0
176
     1
 73
     1
176
     1
 90
        0
176
     1
 40
-0.6
176
     1
 41
-30.0
176
     1
 62
     5
 63
     7
421
 16777215
176
     1
 74
     0
176
     1
 91
        4
176
     1
 64
     7
176
     1
 65
   257
176
     1
 75
     1
176
     1
175
     1
176
     1
 42
1.0
176
     1
 92
        8
176
     1
 66
     7
176
     1
 43
1.0
176
     1
 76
     1
176
     1
 77
     6
176
     1
 78
     2
176
     1
 67
     7
176
     1
 79
     5
176
     1
170
     0
176
     1
171
     0
176
     1
290
     0
176
     1
 93
        1
176
     1
 44
0.0
176
     1
173
     0
176
     1
  0
VISUALSTYLE
  5
36
102
{ACAD_REACTORS
330
2A
102
}
330
2A
100
AcDbVisualStyle
  2
Brighten
 70
    12
177
     2
291
     1
 71
     2
176
     1
 72
     2
176
     1
 73
     0
176
     1
 90
        0
176
     1
 40
-0.6
176
     1
 41
-30.0
176
     1
 62
     5
 63
     7
421
 16777215
176
     1
 74
     1
176
     1
 91
        4
176
     1
 64
     7
176
     1
 65
   257
176
     1
 75
     1
176
     1
175
     1
176
     1
 42
1.0
176
     1
 92
        8
176
     1
 66
     7
176
     1
 43
1.0
176
     1
 76
     1
176
     1
 77
     6
176
     1
 78
     2
176
     1
 67
     7
176
     1
 79
     5
176
     1
170
     0
176
     1
171
     0
176
     1
290
     0
176
     1
 93
        1
176
     1
 44
50.0
176
     1
173
     0
176
     1
  0
VISUALSTYLE
  5
3A
102
{ACAD_REACTORS
330
2A
102
}
330
2A
100
AcDbVisualStyle
  2
ColorChange
 70
    16
177
     2
291
     1
 71
     2
176
     1
 72
     2
176
     1
 73
     3
176
     1
 90
        0
176
     1
 40
-0.6
176
     1
 41
-30.0
176
     1
 62
     5
 63
     8
421
  8421504
176
     1
 74
     1
176
     1
 91
        4
176
     1
 64
     7
176
     1
 65
   257
176
     1
 75
     1
176
     1
175
     1
176
     1
 42
1.0
176
     1
 92
        8
176
     1
 66
     8
424
  8421504
176
     1
 43
1.0
176
     1
 76
     1
176
     1
 77
     6
176
     1
 78
     2
176
     1
 67
     7
176
     1
 79
     5
176
     1
170
     0
176
     1
171
     0
176
     1
290
     0
176
     1
 93
        1
176
     1
 44
0.0
176
     1
173
     0
176
     1
  0
VISUALSTYLE
  5
34
102
{ACAD_REACTORS
330
2A
102
}
330
2A
100
AcDbVisualStyle
  2
Conceptual
 70
     9
177
     2
291
     0
 71
     3
176
     1
 72
     2
176
     1
 73
     0
176
     1
 90
        0
176
     1
 40
-0.6
176
     1
 41
-30.0
176
     1
 62
     5
 63
     7
421
 16777215
176
     1
 74
     2
176
     1
 91
        2
176
     1
 64
     7
176
     1
 65
   257
176
     1
 75
     1
176
     1
175
     1
176
     1
 42
40.0
176
     1
 92
        8
176
     1
 66
     7
176
     1
 43
1.0
176
     1
 76
     1
176
     1
 77
     6
176
     1
 78
     2
176
     1
 67
     7
176
     1
 79
     3
176
     1
170
     0
176
     1
171
     0
176
     1
290
     0
176
     1
 93
        1
176
     1
 44
0.0
176
     1
173
     0
176
     1
  0
VISUALSTYLE
  5
35
102
{ACAD_REACTORS
330
2A
102
}
330
2A
100
AcDbVisualStyle
  2
Dim
 70
    11
177
     2
291
     1
 71
     2
176
     1
 72
     2
176
     1
 73
     0
176
     1
 90
        0
176
     1
 40
-0.6
176
     1
 41
-30.0
176
     1
 62
     5
 63
     7
421
 16777215
176
     1
 74
     1
176
     1
 91
        4
176
     1
 64
     7
176
     1
 65
   257
176
     1
 75
     1
176
     1
175
     1
176
     1
 42
1.0
176
     1
 92
        8
176
     1
 66
     7
176
     1
 43
1.0
176
     1
 76
     1
176
     1
 77
     6
176
     1
 78
     2
176
     1
 67
     7
176
     1
 79
     5
176
     1
170
     0
176
     1
171
     0
176
     1
290
     0
176
     1
 93
        1
176
     1
 44
-50.0
176
     1
173
     0
176
     1
  0
VISUALSTYLE
  5
39
102
{ACAD_REACTORS
330
2A
102
}
330
2A
100
AcDbVisualStyle
  2
Facepattern
 70
    15
177
     2
291
     1
 71
     2
176
     1
 72
     2
176
     1
 73
     0
176
     1
 90
        0
176
     1
 40
-0.6
176
     1
 41
-30.0
176
     1
 62
     5
 63
     7
421
 16777215
176
     1
 74
     1
176
     1
 91
        4
176
     1
 64
     7
176
     1
 65
   257
176
     1
 75
     1
176
     1
175
     1
176
     1
 42
1.0
176
     1
 92
        8
176
     1
 66
     7
176
     1
 43
1.0
176
     1
 76
     1
176
     1
 77
     6
176
     1
 78
     2
176
     1
 67
     7
176
     1
 79
     5
176
     1
170
     0
176
     1
171
     0
176
     1
290
     0
176
     1
 93
        1
176
     1
 44
0.0
176
     1
173
     0
176
     1
  0
VISUALSTYLE
  5
2B
102
{ACAD_REACTORS
330
2A
102
}
330
2A
100
AcDbVisualStyle
  2
Flat
 70
     0
177
     2
291
     1
 71
     2
176
     1
 72
     1
176
     1
 73
     1
176
     1
 90
        2
176
     1
 40
-0.6
176
     1
 41
30.0
176
     1
 62
     5
 63
     7
421
 16777215
176
     1
 74
     0
176
     1
 91
        4
176
     1
 64
     7
176
     1
 65
   257
176
     1
 75
     1
176
     1
175
     1
176
     1
 42
1.0
176
     1
 92
        8
176
     1
 66
     7
176
     1
 43
1.0
176
     1
 76
     1
176
     1
 77
     6
176
     1
 78
     2
176
     1
 67
     7
176
     1
 79
     5
176
     1
170
     0
176
     1
171
     0
176
     1
290
     0
176
     1
 93
       13
176
     1
 44
0.0
176
     1
173
     0
176
     1
  0
VISUALSTYLE
  5
2C
102
{ACAD_REACTORS
330
2A
102
}
330
2A
100
AcDbVisualStyle
  2
FlatWithEdges
 70
     1
177
     2
291
     1
 71
     2
176
     1
 72
     1
176
     1
 73
     1
176
     1
 90
        2
176
     1
 40
-0.6
176
     1
 41
30.0
176
     1
 62
     5
 63
     7
421
 16777215
176
     1
 74
     1
176
     1
 91
        4
176
     1
 64
     7
176
     1
 65
   257
176
     1
 75
     1
176
     1
175
     1
176
     1
 42
1.0
176
     1
 92
        0
176
     1
 66
   257
176
     1
 43
1.0
176
     1
 76
     1
176
     1
 77
     6
176
     1
 78
     2
176
     1
 67
     7
176
     1
 79
     5
176
     1
170
     0
176
     1
171
     0
176
     1
290
     0
176
     1
 93
       13
176
     1
 44
0.0
176
     1
173
     0
176
     1
  0
VISUALSTYLE
  5
2D
102
{ACAD_REACTORS
330
2A
102
}
330
2A
100
AcDbVisualStyle
  2
Gouraud
 70
     2
177
     2
291
     1
 71
     2
176
     1
 72
     2
176
     1
 73
     1
176
     1
 90
        2
176
     1
 40
-0.6
176
     1
 41
30.0
176
     1
 62
     5
 63
     7
421
 16777215
176
     1
 74
     0
176
     1
 91
        4
176
     1
 64
     7
176
     1
 65
   257
176
     1
 75
     1
176
     1
175
     1
176
     1
 42
1.0
176
     1
 92
        0
176
     1
 66
     7
176
     1
 43
1.0
176
     1
 76
     1
176
     1
 77
     6
176
     1
 78
     2
176
     1
 67
     7
176
     1
 79
     5
176
     1
170
     0
176
     1
171
     0
176
     1
290
     0
176
     1
 93
       13
176
     1
 44
0.0
176
     1
173
     0
176
     1
  0
VISUALSTYLE
  5
2E
102
{ACAD_REACTORS
330
2A
102
}
330
2A
100
AcDbVisualStyle
  2
GouraudWithEdges
 70
     3
177
     2
291
     1
 71
     2
176
     1
 72
     2
176
     1
 73
     1
176
     1
 90
        2
176
     1
 40
-0.6
176
     1
 41
30.0
176
     1
 62
     5
 63
     7
421
 16777215
176
     1
 74
     1
176
     1
 91
        4
176
     1
 64
     7
176
     1
 65
   257
176
     1
 75
     1
176
     1
175
     1
176
     1
 42
1.0
176
     1
 92
        0
176
     1
 66
   257
176
     1
 43
1.0
176
     1
 76
     1
176
     1
 77
     6
176
     1
 78
     2
176
     1
 67
     7
176
     1
 79
     5
176
     1
170
     0
176
     1
171
     0
176
     1
290
     0
176
     1
 93
       13
176
     1
 44
0.0
176
     1
173
     0
176
     1
  0
VISUALSTYLE
  5
38
102
{ACAD_REACTORS
330
2A
102
}
330
2A
100
AcDbVisualStyle
  2
Linepattern
 70
    14
177
     2
291
     1
 71
     2
176
     1
 72
     2
176
     1
 73
     0
176
     1
 90
        0
176
     1
 40
-0.6
176
     1
 41
-30.0
176
     1
 62
     5
 63
     7
421
 16777215
176
     1
 74
     1
176
     1
 91
        4
176
     1
 64
     7
176
     1
 65
   257
176
     1
 75
     7
176
     1
175
     7
176
     1
 42
1.0
176
     1
 92
        8
176
     1
 66
     7
176
     1
 43
1.0
176
     1
 76
     1
176
     1
 77
     6
176
     1
 78
     2
176
     1
 67
     7
176
     1
 79
     5
176
     1
170
     0
176
     1
171
     0
176
     1
290
     0
176
     1
 93
        1
176
     1
 44
0.0
176
     1
173
     0
176
     1
  0
VISUALSTYLE
  5
33
102
{ACAD_REACTORS
330
2A
102
}
330
2A
100
AcDbVisualStyle
  2
Realistic
 70
     8
177
     2
291
     0
 71
     2
176
     1
 72
     2
176
     1
 73
     0
176
     1
 90
        0
176
     1
 40
-0.6
176
     1
 41
-30.0
176
     1
 62
     5
 63
     7
421
 16777215
176
     1
 74
     1
176
     1
 91
        0
176
     1
 64
     7
176
     1
 65
   257
176
     1
 75
     1
176
     1
175
     1
176
     1
 42
1.0
176
     1
 92
        8
176
     1
 66
     8
424
  7895160
176
     1
 43
1.0
176
     1
 76
     1
176
     1
 77
     6
176
     1
 78
     2
176
     1
 67
     7
176
     1
 79
     5
176
     1
170
     0
176
     1
171
     0
176
     1
290
     0
176
     1
 93
       13
176
     1
 44
0.0
176
     1
173
     0
176
     1
  0
VISUALSTYLE
  5
37
102
{ACAD_REACTORS
330
2A
102
}
330
2A
100
AcDbVisualStyle
  2
Thicken
 70
    13
177
     2
291
     1
 71
     2
176
     1
 72
     2
176
     1
 73
     0
176
     1
 90
        0
176
     1
 40
-0.6
176
     1
 41
-30.0
176
     1
 62
     5
 63
     7
421
 16777215
176
     1
 74
     1
176
     1
 91
        4
176
     1
 64
     7
176
     1
 65
   257
176
     1
 75
     1
176
     1
175
     1
176
     1
 42
1.0
176
     1
 92
       12
176
     1
 66
     7
176
     1
 43
1.0
176
     1
 76
     1
176
     1
 77
     6
176
     1
 78
     2
176
     1
 67
     7
176
     1
 79
     5
176
     1
170
     0
176
     1
171
     0
176
     1
290
     0
176
     1
 93
        1
176
     1
 44
0.0
176
     1
173
     0
176
     1
  0
ENDSEC
  0
EOF
