  0
SECTION
  2
HEADER
  9
$ACADVER
  1
AC1024
  9
$ACADMAINTVER
 70
     6
  9
$DWGCODEPAGE
  3
UNDEFINED
  9
$INSBASE
 10
0.0
 20
0.0
 30
0.0
  9
$EXTMIN
 10
1.000000000000000E+20
 20
1.000000000000000E+20
 30
1.000000000000000E+20
  9
$EXTMAX
 10
-1.000000000000000E+20
 20
-1.000000000000000E+20
 30
-1.000000000000000E+20
  9
$LIMMIN
 10
0.0
 20
0.0
  9
$LIMMAX
 10
12.0
 20
9.0
  9
$ORTHOMODE
 70
     0
  9
$REGENMODE
 70
     1
  9
$FILLMODE
 70
     1
  9
$QTEXTMODE
 70
     0
  9
$MIRRTEXT
 70
     1
  9
$LTSCALE
 40
1.0
  9
$ATTMODE
 70
     1
  9
$TEXTSIZE
 40
0.2
  9
$TRACEWID
 40
0.05
  9
$TEXTSTYLE
  7
Standard
  9
$CLAYER
  8
0
  9
$CELTYPE
  6
ByLayer
  9
$CECOLOR
 62
   256
  9
$CELTSCALE
 40
1.0
  9
$DISPSILH
 70
     0
  9
$DIMSCALE
 40
1.0
  9
$DIMASZ
 40
0.18
  9
$DIMEXO
 40
0.0625
  9
$DIMDLI
 40
0.38
  9
$DIMRND
 40
0.0
  9
$DIMDLE
 40
0.0
  9
$DIMEXE
 40
0.18
  9
$DIMTP
 40
0.0
  9
$DIMTM
 40
0.0
  9
$DIMTXT
 40
0.18
  9
$DIMCEN
 40
0.09
  9
$DIMTSZ
 40
0.0
  9
$DIMTOL
 70
     0
  9
$DIMLIM
 70
     0
  9
$DIMTIH
 70
     1
  9
$DIMTOH
 70
     1
  9
$DIMSE1
 70
     0
  9
$DIMSE2
 70
     0
  9
$DIMTAD
 70
     0
  9
$DIMZIN
 70
     0
  9
$DIMBLK
  1

  9
$DIMASO
 70
     1
  9
$DIMSHO
 70
     1
  9
$DIMPOST
  1

  9
$DIMAPOST
  1

  9
$DIMALT
 70
     0
  9
$DIMALTD
 70
     2
  9
$DIMALTF
 40
25.4
  9
$DIMLFAC
 40
1.0
  9
$DIMTOFL
 70
     0
  9
$DIMTVP
 40
0.0
  9
$DIMTIX
 70
     0
  9
$DIMSOXD
 70
     0
  9
$DIMSAH
 70
     0
  9
$DIMBLK1
  1

  9
$DIMBLK2
  1

  9
$DIMSTYLE
  2
Standard
  9
$DIMCLRD
 70
     0
  9
$DIMCLRE
 70
     0
  9
$DIMCLRT
 70
     0
  9
$DIMTFAC
 40
1.0
  9
$DIMGAP
 40
0.09
  9
$DIMJUST
 70
     0
  9
$DIMSD1
 70
     0
  9
$DIMSD2
 70
     0
  9
$DIMTOLJ
 70
     1
  9
$DIMTZIN
 70
     0
  9
$DIMALTZ
 70
     0
  9
$DIMALTTZ
 70
     0
  9
$DIMUPT
 70
     0
  9
$DIMDEC
 70
     4
  9
$DIMTDEC
 70
     4
  9
$DIMALTU
 70
     2
  9
$DIMALTTD
 70
     2
  9
$DIMTXSTY
  7
Standard
  9
$DIMAUNIT
 70
     0
  9
$DIMADEC
 70
     0
  9
$DIMALTRND
 40
0.0
  9
$DIMAZIN
 70
     0
  9
$DIMDSEP
 70
    46
  9
$DIMATFIT
 70
     3
  9
$DIMFRAC
 70
     0
  9
$DIMLDRBLK
  1

  9
$DIMLUNIT
 70
     2
  9
$DIMLWD
 70
    -2
  9
$DIMLWE
 70
    -2
  9
$DIMTMOVE
 70
     0
  9
$DIMFXL
 40
1.0
  9
$DIMFXLON
 70
     0
  9
$DIMJOGANG
 40
0.7853981633974483
  9
$DIMTFILL
 70
     0
  9
$DIMTFILLCLR
 70
     0
  9
$DIMARCSYM
 70
     0
  9
$DIMLTYPE
  6

  9
$DIMLTEX1
  6

  9
$DIMLTEX2
  6

  9
$DIMTXTDIRECTION
 70
     0
  9
$LUNITS
 70
     2
  9
$LUPREC
 70
     4
  9
$SKETCHINC
 40
0.1
  9
$FILLETRAD
 40
0.5
  9
$AUNITS
 70
     0
  9
$AUPREC
 70
     0
  9
$MENU
  1
.
  9
$ELEVATION
 40
0.0
  9
$PELEVATION
 40
0.0
  9
$THICKNESS
 40
0.0
  9
$LIMCHECK
 70
     0
  9
$CHAMFERA
 40
0.5
  9
$CHAMFERB
 40
0.5
  9
$CHAMFERC
 40
1.0
  9
$CHAMFERD
 40
0.0
  9
$SKPOLY
 70
     0
  9
$TDCREATE
 40
2457917.58662037
  9
$TDUCREATE
 40
2457917.21162037
  9
$TDUPDATE
 40
2457917.58662037
  9
$TDUUPDATE
 40
2457917.21162037
  9
$TDINDWG
 40
0.0000000116
  9
$TDUSRTIMER
 40
0.0000000116
  9
$USRTIMER
 70
     1
  9
$ANGBASE
 50
0.0
  9
$ANGDIR
 70
     0
  9
$PDMODE
 70
     0
  9
$PDSIZE
 40
0.0
  9
$PLINEWID
 40
0.0
  9
$SPLFRAME
 70
     0
  9
$SPLINETYPE
 70
     6
  9
$SPLINESEGS
 70
     8
  9
$HANDSEED
  5
F2
  9
$SURFTAB1
 70
     6
  9
$SURFTAB2
 70
     6
  9
$SURFTYPE
 70
     6
  9
$SURFU
 70
     6
  9
$SURFV
 70
     6
  9
$UCSBASE
  2

  9
$UCSNAME
  2

  9
$UCSORG
 10
0.0
 20
0.0
 30
0.0
  9
$UCSXDIR
 10
1.0
 20
0.0
 30
0.0
  9
$UCSYDIR
 10
0.0
 20
1.0
 30
0.0
  9
$UCSORTHOREF
  2

  9
$UCSORTHOVIEW
 70
     0
  9
$UCSORGTOP
 10
0.0
 20
0.0
 30
0.0
  9
$UCSORGBOTTOM
 10
0.0
 20
0.0
 30
0.0
  9
$UCSORGLEFT
 10
0.0
 20
0.0
 30
0.0
  9
$UCSORGRIGHT
 10
0.0
 20
0.0
 30
0.0
  9
$UCSORGFRONT
 10
0.0
 20
0.0
 30
0.0
  9
$UCSORGBACK
 10
0.0
 20
0.0
 30
0.0
  9
$PUCSBASE
  2

  9
$PUCSNAME
  2

  9
$PUCSORG
 10
0.0
 20
0.0
 30
0.0
  9
$PUCSXDIR
 10
1.0
 20
0.0
 30
0.0
  9
$PUCSYDIR
 10
0.0
 20
1.0
 30
0.0
  9
$PUCSORTHOREF
  2

  9
$PUCSORTHOVIEW
 70
     0
  9
$PUCSORGTOP
 10
0.0
 20
0.0
 30
0.0
  9
$PUCSORGBOTTOM
 10
0.0
 20
0.0
 30
0.0
  9
$PUCSORGLEFT
 10
0.0
 20
0.0
 30
0.0
  9
$PUCSORGRIGHT
 10
0.0
 20
0.0
 30
0.0
  9
$PUCSORGFRONT
 10
0.0
 20
0.0
 30
0.0
  9
$PUCSORGBACK
 10
0.0
 20
0.0
 30
0.0
  9
$USERI1
 70
     0
  9
$USERI2
 70
     0
  9
$USERI3
 70
     0
  9
$USERI4
 70
     0
  9
$USERI5
 70
     0
  9
$USERR1
 40
0.0
  9
$USERR2
 40
0.0
  9
$USERR3
 40
0.0
  9
$USERR4
 40
0.0
  9
$USERR5
 40
0.0
  9
$WORLDVIEW
 70
     1
  9
$SHADEDGE
 70
     3
  9
$SHADEDIF
 70
    70
  9
$TILEMODE
 70
     1
  9
$MAXACTVP
 70
    64
  9
$PINSBASE
 10
0.0
 20
0.0
 30
0.0
  9
$PLIMCHECK
 70
     0
  9
$PEXTMIN
 10
1.000000000000000E+20
 20
1.000000000000000E+20
 30
1.000000000000000E+20
  9
$PEXTMAX
 10
-1.000000000000000E+20
 20
-1.000000000000000E+20
 30
-1.000000000000000E+20
  9
$PLIMMIN
 10
0.0
 20
0.0
  9
$PLIMMAX
 10
12.0
 20
9.0
  9
$UNITMODE
 70
     0
  9
$VISRETAIN
 70
     1
  9
$PLINEGEN
 70
     0
  9
$PSLTSCALE
 70
     1
  9
$TREEDEPTH
 70
  3020
  9
$CMLSTYLE
  2
Standard
  9
$CMLJUST
 70
     0
  9
$CMLSCALE
 40
1.0
  9
$PROXYGRAPHICS
 70
     1
  9
$MEASUREMENT
 70
     0
  9
$CELWEIGHT
370
    -1
  9
$ENDCAPS
280
     0
  9
$JOINSTYLE
280
     0
  9
$LWDISPLAY
290
     1
  9
$INSUNITS
 70
     1
  9
$HYPERLINKBASE
  1

  9
$STYLESHEET
  1

  9
$XEDIT
290
     1
  9
$CEPSNTYPE
380
     0
  9
$PSTYLEMODE
290
     1
  9
$FINGERPRINTGUID
  2
{F7FE93E9-117A-8F67-6DB0-C554FBD98B10}
  9
$VERSIONGUID
  2
{FAEB1C32-E019-11D5-929B-00C0DF256EC4}
  9
$EXTNAMES
290
     1
  9
$PSVPSCALE
 40
0.0
  9
$OLESTARTUP
290
     0
  9
$SORTENTS
280
   127
  9
$INDEXCTL
280
     0
  9
$HIDETEXT
280
     1
  9
$XCLIPFRAME
280
     2
  9
$HALOGAP
280
     0
  9
$OBSCOLOR
 70
   257
  9
$OBSLTYPE
280
     0
  9
$INTERSECTIONDISPLAY
280
     0
  9
$INTERSECTIONCOLOR
 70
   257
  9
$DIMASSOC
280
     2
  9
$PROJECTNAME
  1

  9
$CAMERADISPLAY
290
     0
  9
$LENSLENGTH
 40
50.0
  9
$CAMERAHEIGHT
 40
0.0
  9
$STEPSPERSEC
 40
2.0
  9
$STEPSIZE
 40
6.0
  9
$3DDWFPREC
 40
2.0
  9
$PSOLWIDTH
 40
0.25
  9
$PSOLHEIGHT
 40
4.0
  9
$LOFTANG1
 40
1.570796326794897
  9
$LOFTANG2
 40
1.570796326794897
  9
$LOFTMAG1
 40
0.0
  9
$LOFTMAG2
 40
0.0
  9
$LOFTPARAM
 70
     7
  9
$LOFTNORMALS
280
     1
  9
$LATITUDE
 40
37.795
  9
$LONGITUDE
 40
-122.394
  9
$NORTHDIRECTION
 40
0.0
  9
$TIMEZONE
 70
 -8000
  9
$LIGHTGLYPHDISPLAY
280
     1
  9
$TILEMODELIGHTSYNCH
280
     1
  9
$CMATERIAL
347
3C
  9
$SOLIDHIST
280
     1
  9
$SHOWHIST
280
     1
  9
$DWFFRAME
280
     2
  9
$DGNFRAME
280
     2
  9
$REALWORLDSCALE
290
     1
  9
$INTERFERECOLOR
 62
   256
  9
$CSHADOW
280
     0
  9
$SHADOWPLANELOCATION
 40
0.0
  0
ENDSEC
  0
SECTION
  2
CLASSES
  0
CLASS
  1
ACDBDICTIONARYWDFLT
  2
AcDbDictionaryWithDefault
  3
ObjectDBX Classes
 90
        0
 91
        4
280
     0
281
     0
  0
CLASS
  1
VISUALSTYLE
  2
AcDbVisualStyle
  3
ObjectDBX Classes
 90
     4095
 91
        4
280
     0
281
     0
  0
CLASS
  1
MATERIAL
  2
AcDbMaterial
  3
ObjectDBX Classes
 90
     1153
 91
        4
280
     0
281
     0
  0
CLASS
  1
SUN
  2
AcDbSun
  3
SCENEOE
 90
     1024
 91
        4
280
     0
281
     0
  0
ENDSEC
  0
SECTION
  2
TABLES
  0
TABLE
  2
VPORT
  5
8
330
0
100
AcDbSymbolTable
 70
     1
  0
VPORT
  5
29
330
8
100
AcDbSymbolTableRecord
100
AcDbViewportTableRecord
  2
*Active
 70
     0
 10
0.0
 20
0.0
 11
1.0
 21
1.0
 12
0.0
 22
0.0
 13
0.0
 23
0.0
 14
0.5
 24
0.5
 15
0.5
 25
0.5
 16
0.0
 26
0.0
 36
1.0
 17
105.0008280156501
 27
-148.4999710739862
 37
0.0
 40
296.9999421479724
 41
0.7070764206636528
 42
50.0
 43
0.0
 44
0.0
 50
0.0
 51
0.0
 71
     0
 72
   100
 73
     1
 74
     3
 75
     0
 76
     0
 77
     0
 78
     0
281
     0
 65
     1
110
0.0
120
0.0
130
0.0
111
1.0
121
0.0
131
0.0
112
0.0
122
1.0
132
0.0
 79
     0
146
0.0
 60
     3
 61
     5
292
     1
282
     1
141
0.0
142
0.0
 63
   250
361
3F
  0
ENDTAB
  0
TABLE
  2
LTYPE
  5
5
330
0
100
AcDbSymbolTable
 70
     1
  0
LTYPE
  5
14
330
5
100
AcDbSymbolTableRecord
100
AcDbLinetypeTableRecord
  2
ByBlock
 70
     0
  3

 72
    65
 73
     0
 40
0.0
  0
LTYPE
  5
15
330
5
100
AcDbSymbolTableRecord
100
AcDbLinetypeTableRecord
  2
ByLayer
 70
     0
  3

 72
    65
 73
     0
 40
0.0
  0
LTYPE
  5
16
330
5
100
AcDbSymbolTableRecord
100
AcDbLinetypeTableRecord
  2
Continuous
 70
     0
  3
Solid line
 72
    65
 73
     0
 40
0.0
  0
ENDTAB
  0
TABLE
  2
LAYER
  5
2
330
0
100
AcDbSymbolTable
 70
     2
  0
LAYER
  5
10
330
2
100
AcDbSymbolTableRecord
100
AcDbLayerTableRecord
  2
0
 70
     0
 62
     7
  6
Continuous
370
    -3
390
F
347
3E
  0
LAYER
  5
40
330
2
100
AcDbSymbolTableRecord
100
AcDbLayerTableRecord
  2
_U+30EC_U+30A4_U+30E4_U+30FC 1
 70
     0
 62
     7
  6
Continuous
370
    -3
390
F
347
3E
  0
ENDTAB
  0
TABLE
  2
STYLE
  5
3
330
0
100
AcDbSymbolTable
 70
     1
  0
STYLE
  5
11
330
3
100
AcDbSymbolTableRecord
100
AcDbTextStyleTableRecord
  2
Standard
 70
     0
 40
0.0
 41
1.0
 50
0.0
 71
     0
 42
0.2
  3
txt
  4

  0
ENDTAB
  0
TABLE
  2
VIEW
  5
6
330
0
100
AcDbSymbolTable
 70
     0
  0
ENDTAB
  0
TABLE
  2
UCS
  5
7
330
0
100
AcDbSymbolTable
 70
     0
  0
ENDTAB
  0
TABLE
  2
APPID
  5
9
330
0
100
AcDbSymbolTable
 70
     1
  0
APPID
  5
12
330
9
100
AcDbSymbolTableRecord
100
AcDbRegAppTableRecord
  2
ACAD
 70
     0
  0
ENDTAB
  0
TABLE
  2
DIMSTYLE
  5
A
330
0
100
AcDbSymbolTable
 70
     1
100
AcDbDimStyleTable
  0
DIMSTYLE
105
27
330
A
100
AcDbSymbolTableRecord
100
AcDbDimStyleTableRecord
  2
Standard
 70
     0
178
     0
340
11
  0
ENDTAB
  0
TABLE
  2
BLOCK_RECORD
  5
1
330
0
100
AcDbSymbolTable
 70
     7
  0
BLOCK_RECORD
  5
1F
330
1
100
AcDbSymbolTableRecord
100
AcDbBlockTableRecord
  2
*Model_Space
340
22
 70
     0
280
     1
281
     0
  0
BLOCK_RECORD
  5
1B
330
1
100
AcDbSymbolTableRecord
100
AcDbBlockTableRecord
  2
*Paper_Space
340
1E
 70
     0
280
     1
281
     0
  0
BLOCK_RECORD
  5
23
330
1
100
AcDbSymbolTableRecord
100
AcDbBlockTableRecord
  2
*Paper_Space0
340
26
 70
     0
280
     1
281
     0
  0
BLOCK_RECORD
  5
83
330
1
100
AcDbSymbolTableRecord
100
AcDbBlockTableRecord
  2
block 2
340
0
102
{BLKREFS
331
84
102
}
 70
     0
280
     1
281
     0
  0
BLOCK_RECORD
  5
95
330
1
100
AcDbSymbolTableRecord
100
AcDbBlockTableRecord
  2
block 3
340
0
102
{BLKREFS
331
96
102
}
 70
     0
280
     1
281
     0
  0
BLOCK_RECORD
  5
AD
330
1
100
AcDbSymbolTableRecord
100
AcDbBlockTableRecord
  2
block 4
340
0
102
{BLKREFS
331
AE
102
}
 70
     0
280
     1
281
     0
  0
BLOCK_RECORD
  5
CA
330
1
100
AcDbSymbolTableRecord
100
AcDbBlockTableRecord
  2
block 5
340
0
102
{BLKREFS
331
CB
102
}
 70
     0
280
     1
281
     0
  0
BLOCK_RECORD
  5
DA
330
1
100
AcDbSymbolTableRecord
100
AcDbBlockTableRecord
  2
block 6
340
0
102
{BLKREFS
331
DB
102
}
 70
     0
280
     1
281
     0
  0
BLOCK_RECORD
  5
E8
330
1
100
AcDbSymbolTableRecord
100
AcDbBlockTableRecord
  2
block 7
340
0
102
{BLKREFS
331
E9
102
}
 70
     0
280
     1
281
     0
  0
ENDTAB
  0
ENDSEC
  0
SECTION
  2
BLOCKS
  0
BLOCK
  5
20
330
1F
100
AcDbEntity
  8
0
100
AcDbBlockBegin
  2
*Model_Space
 70
     0
 10
0.0
 20
0.0
 30
0.0
  3
*Model_Space
  1

  0
ENDBLK
  5
21
330
1F
100
AcDbEntity
  8
0
100
AcDbBlockEnd
  0
BLOCK
  5
1C
330
1B
100
AcDbEntity
 67
     1
  8
0
100
AcDbBlockBegin
  2
*Paper_Space
 70
     0
 10
0.0
 20
0.0
 30
0.0
  3
*Paper_Space
  1

  0
ENDBLK
  5
1D
330
1B
100
AcDbEntity
 67
     1
  8
0
100
AcDbBlockEnd
  0
BLOCK
  5
24
330
23
100
AcDbEntity
  8
0
100
AcDbBlockBegin
  2
*Paper_Space0
 70
     0
 10
0.0
 20
0.0
 30
0.0
  3
*Paper_Space0
  1

  0
ENDBLK
  5
25
330
23
100
AcDbEntity
  8
0
100
AcDbBlockEnd
  0
BLOCK
  5
85
330
83
100
AcDbEntity
  8
0
100
AcDbBlockBegin
  2
block 2
 70
     0
 10
0.0
 20
0.0
 30
0.0
  3
block 2
  1

  0
SPLINE
  5
87
330
83
100
AcDbEntity
  8
_U+30EC_U+30A4_U+30E4_U+30FC 1
370
     0
100
AcDbSpline
210
0.0
220
0.0
230
1.0
 70
    11
 71
     3
 72
    26
 73
    22
 74
     0
 42
0.0000000001
 43
0.0000000001
 12
1.0
 22
0.0
 32
0.0
 13
1.0
 23
0.0
 33
0.0
 40
0.0
 40
0.0
 40
0.0
 40
0.0
 40
1.0
 40
1.0
 40
1.0
 40
2.0
 40
2.0
 40
2.0
 40
3.0
 40
3.0
 40
3.0
 40
4.0
 40
4.0
 40
4.0
 40
5.0
 40
5.0
 40
5.0
 40
6.0
 40
6.0
 40
6.0
 40
7.0
 40
7.0
 40
7.0
 40
7.0
 10
116.4111544847861
 20
-139.2467976539904
 30
0.0
 10
116.4111544847861
 20
-139.2467976539904
 30
0.0
 10
115.3070013817635
 20
-139.2467976539904
 30
0.0
 10
115.3070013817635
 20
-139.2467976539904
 30
0.0
 10
115.3070013817635
 20
-139.2467976539904
 30
0.0
 10
115.3070013817635
 20
-139.59957543168
 30
0.0
 10
115.3070013817635
 20
-139.59957543168
 30
0.0
 10
115.3070013817635
 20
-139.59957543168
 30
0.0
 10
115.1588622758978
 20
-139.59957543168
 30
0.0
 10
115.1588622758978
 20
-139.59957543168
 30
0.0
 10
115.1440483653112
 20
-139.244558341925
 30
0.0
 10
114.9810953488589
 20
-139.1947767121631
 30
0.0
 10
114.8667181787486
 20
-139.1632540884731
 30
0.0
 10
114.8667181787486
 20
-139.1632540884731
 30
0.0
 10
114.8667181787486
 20
-139.0071912629913
 30
0.0
 10
114.8667181787486
 20
-139.0071912629913
 30
0.0
 10
114.8667181787486
 20
-139.0071912629913
 30
0.0
 10
116.4111544847861
 20
-139.0071912629913
 30
0.0
 10
116.4111544847861
 20
-139.0071912629913
 30
0.0
 10
116.4111544847861
 20
-139.0071912629913
 30
0.0
 10
116.4111544847861
 20
-139.2467976539904
 30
0.0
 10
116.4111544847861
 20
-139.2467976539904
 30
0.0
  0
HATCH
  5
88
330
83
100
AcDbEntity
  8
_U+30EC_U+30A4_U+30E4_U+30FC 1
 62
   179
420
  2234388
100
AcDbHatch
 10
0.0
 20
0.0
 30
0.0
210
0.0
220
0.0
230
1.0
  2
SOLID
 70
     1
 71
     0
 91
        1
 92
        1
 93
        1
 72
     4
 94
        3
 73
     0
 74
     1
 95
       26
 96
       22
 40
0.0
 40
0.0
 40
0.0
 40
0.0
 40
1.0
 40
1.0
 40
1.0
 40
2.0
 40
2.0
 40
2.0
 40
3.0
 40
3.0
 40
3.0
 40
4.0
 40
4.0
 40
4.0
 40
5.0
 40
5.0
 40
5.0
 40
6.0
 40
6.0
 40
6.0
 40
7.0
 40
7.0
 40
7.0
 40
7.0
 10
116.4111544847861
 20
-139.2467976539904
 10
116.4111544847861
 20
-139.2467976539904
 10
115.3070013817635
 20
-139.2467976539904
 10
115.3070013817635
 20
-139.2467976539904
 10
115.3070013817635
 20
-139.2467976539904
 10
115.3070013817635
 20
-139.59957543168
 10
115.3070013817635
 20
-139.59957543168
 10
115.3070013817635
 20
-139.59957543168
 10
115.1588622758978
 20
-139.59957543168
 10
115.1588622758978
 20
-139.59957543168
 10
115.1440483653112
 20
-139.244558341925
 10
114.9810953488589
 20
-139.1947767121631
 10
114.8667181787486
 20
-139.1632540884731
 10
114.8667181787486
 20
-139.1632540884731
 10
114.8667181787486
 20
-139.0071912629913
 10
114.8667181787486
 20
-139.0071912629913
 10
114.8667181787486
 20
-139.0071912629913
 10
116.4111544847861
 20
-139.0071912629913
 10
116.4111544847861
 20
-139.0071912629913
 10
116.4111544847861
 20
-139.0071912629913
 10
116.4111544847861
 20
-139.2467976539904
 10
116.4111544847861
 20
-139.2467976539904
 97
        0
 97
        0
 75
     2
 76
     1
 98
        0
  0
ENDBLK
  5
86
330
83
100
AcDbEntity
  8
0
100
AcDbBlockEnd
  0
BLOCK
  5
97
330
95
100
AcDbEntity
  8
0
100
AcDbBlockBegin
  2
block 3
 70
     0
 10
0.0
 20
0.0
 30
0.0
  3
block 3
  1

  0
SPLINE
  5
99
330
95
100
AcDbEntity
  8
_U+30EC_U+30A4_U+30E4_U+30FC 1
370
     0
100
AcDbSpline
210
0.0
220
0.0
230
1.0
 70
    11
 71
     3
 72
    44
 73
    40
 74
     0
 42
0.0000000001
 43
0.0000000001
 12
1.0
 22
0.0
 32
0.0
 13
1.0
 23
0.0
 33
0.0
 40
0.0
 40
0.0
 40
0.0
 40
0.0
 40
1.0
 40
1.0
 40
1.0
 40
2.0
 40
2.0
 40
2.0
 40
3.0
 40
3.0
 40
3.0
 40
4.0
 40
4.0
 40
4.0
 40
5.0
 40
5.0
 40
5.0
 40
6.0
 40
6.0
 40
6.0
 40
7.0
 40
7.0
 40
7.0
 40
8.0
 40
8.0
 40
8.0
 40
9.0
 40
9.0
 40
9.0
 40
10.0
 40
10.0
 40
10.0
 40
11.0
 40
11.0
 40
11.0
 40
12.0
 40
12.0
 40
12.0
 40
13.0
 40
13.0
 40
13.0
 40
13.0
 10
102.1885945382549
 20
-136.3539509750261
 30
0.0
 10
101.9557060834521
 20
-136.5125976221219
 30
0.0
 10
101.8561428239283
 20
-136.5866671750547
 30
0.0
 10
101.8041218821011
 20
-136.7304999115639
 30
0.0
 10
101.8041218821011
 20
-136.7304999115639
 30
0.0
 10
102.6364569513374
 20
-136.7304999115639
 30
0.0
 10
102.6364569513374
 20
-136.7304999115639
 30
0.0
 10
102.6364569513374
 20
-136.7304999115639
 30
0.0
 10
102.6364569513374
 20
-136.9356553477105
 30
0.0
 10
102.6364569513374
 20
-136.9356553477105
 30
0.0
 10
102.6364569513374
 20
-136.9356553477105
 30
0.0
 10
101.5374714915427
 20
-136.9356553477105
 30
0.0
 10
101.5374714915427
 20
-136.9356553477105
 30
0.0
 10
101.5715779368467
 20
-136.5780544363416
 30
0.0
 10
101.6415133751973
 20
-136.4998507688264
 30
0.0
 10
102.0528577761361
 20
-136.2015054998038
 30
0.0
 10
102.3263983576649
 20
-136.0027234903049
 30
0.0
 10
102.396678305564
 20
-135.9350273640197
 30
0.0
 10
102.396678305564
 20
-135.7975680541583
 30
0.0
 10
102.396678305564
 20
-135.6790567694657
 30
0.0
 10
102.319852676243
 20
-135.5479708862519
 30
0.0
 10
102.1093573420942
 20
-135.5479708862519
 30
0.0
 10
101.8313381364345
 20
-135.5479708862519
 30
0.0
 10
101.8223808881729
 20
-135.7784477742151
 30
0.0
 10
101.8179022640421
 20
-135.8948920016166
 30
0.0
 10
101.8179022640421
 20
-135.8948920016166
 30
0.0
 10
101.5781236182687
 20
-135.8948920016166
 30
0.0
 10
101.5781236182687
 20
-135.8948920016166
 30
0.0
 10
101.5870808665303
 20
-135.7679402329851
 30
0.0
 10
101.5984496816316
 20
-135.6558023749402
 30
0.0
 10
101.6845770687629
 20
-135.5372910902476
 30
0.0
 10
101.8020548248099
 20
-135.3765773858607
 30
0.0
 10
102.0008368343088
 20
-135.342643195331
 30
0.0
 10
102.1252047813263
 20
-135.342643195331
 30
0.0
 10
102.4214829930578
 20
-135.342643195331
 30
0.0
 10
102.6430026327594
 20
-135.5267835490176
 30
0.0
 10
102.6430026327594
 20
-135.7996351114494
 30
0.0
 10
102.6430026327594
 20
-136.0280449421215
 30
0.0
 10
102.5186346857419
 20
-136.1276082016452
 30
0.0
 10
102.1885945382549
 20
-136.3539509750261
 30
0.0
  0
HATCH
  5
9A
330
95
100
AcDbEntity
  8
_U+30EC_U+30A4_U+30E4_U+30FC 1
 62
   179
420
  2234388
100
AcDbHatch
 10
0.0
 20
0.0
 30
0.0
210
0.0
220
0.0
230
1.0
  2
SOLID
 70
     1
 71
     0
 91
        1
 92
        1
 93
        1
 72
     4
 94
        3
 73
     0
 74
     1
 95
       44
 96
       40
 40
0.0
 40
0.0
 40
0.0
 40
0.0
 40
1.0
 40
1.0
 40
1.0
 40
2.0
 40
2.0
 40
2.0
 40
3.0
 40
3.0
 40
3.0
 40
4.0
 40
4.0
 40
4.0
 40
5.0
 40
5.0
 40
5.0
 40
6.0
 40
6.0
 40
6.0
 40
7.0
 40
7.0
 40
7.0
 40
8.0
 40
8.0
 40
8.0
 40
9.0
 40
9.0
 40
9.0
 40
10.0
 40
10.0
 40
10.0
 40
11.0
 40
11.0
 40
11.0
 40
12.0
 40
12.0
 40
12.0
 40
13.0
 40
13.0
 40
13.0
 40
13.0
 10
102.1885945382549
 20
-136.3539509750261
 10
101.9557060834521
 20
-136.5125976221219
 10
101.8561428239283
 20
-136.5866671750547
 10
101.8041218821011
 20
-136.7304999115639
 10
101.8041218821011
 20
-136.7304999115639
 10
102.6364569513374
 20
-136.7304999115639
 10
102.6364569513374
 20
-136.7304999115639
 10
102.6364569513374
 20
-136.7304999115639
 10
102.6364569513374
 20
-136.9356553477105
 10
102.6364569513374
 20
-136.9356553477105
 10
102.6364569513374
 20
-136.9356553477105
 10
101.5374714915427
 20
-136.9356553477105
 10
101.5374714915427
 20
-136.9356553477105
 10
101.5715779368467
 20
-136.5780544363416
 10
101.6415133751973
 20
-136.4998507688264
 10
102.0528577761361
 20
-136.2015054998038
 10
102.3263983576649
 20
-136.0027234903049
 10
102.396678305564
 20
-135.9350273640197
 10
102.396678305564
 20
-135.7975680541583
 10
102.396678305564
 20
-135.6790567694657
 10
102.319852676243
 20
-135.5479708862519
 10
102.1093573420942
 20
-135.5479708862519
 10
101.8313381364345
 20
-135.5479708862519
 10
101.8223808881729
 20
-135.7784477742151
 10
101.8179022640421
 20
-135.8948920016166
 10
101.8179022640421
 20
-135.8948920016166
 10
101.5781236182687
 20
-135.8948920016166
 10
101.5781236182687
 20
-135.8948920016166
 10
101.5870808665303
 20
-135.7679402329851
 10
101.5984496816316
 20
-135.6558023749402
 10
101.6845770687629
 20
-135.5372910902476
 10
101.8020548248099
 20
-135.3765773858607
 10
102.0008368343088
 20
-135.342643195331
 10
102.1252047813263
 20
-135.342643195331
 10
102.4214829930578
 20
-135.342643195331
 10
102.6430026327594
 20
-135.5267835490176
 10
102.6430026327594
 20
-135.7996351114494
 10
102.6430026327594
 20
-136.0280449421215
 10
102.5186346857419
 20
-136.1276082016452
 10
102.1885945382549
 20
-136.3539509750261
 97
        0
 97
        0
 75
     2
 76
     1
 98
        0
  0
SPLINE
  5
9B
330
95
100
AcDbEntity
  8
_U+30EC_U+30A4_U+30E4_U+30FC 1
370
     0
100
AcDbSpline
210
0.0
220
0.0
230
1.0
 70
    11
 71
     3
 72
    44
 73
    40
 74
     0
 42
0.0000000001
 43
0.0000000001
 12
1.0
 22
0.0
 32
0.0
 13
1.0
 23
0.0
 33
0.0
 40
0.0
 40
0.0
 40
0.0
 40
0.0
 40
1.0
 40
1.0
 40
1.0
 40
2.0
 40
2.0
 40
2.0
 40
3.0
 40
3.0
 40
3.0
 40
4.0
 40
4.0
 40
4.0
 40
5.0
 40
5.0
 40
5.0
 40
6.0
 40
6.0
 40
6.0
 40
7.0
 40
7.0
 40
7.0
 40
8.0
 40
8.0
 40
8.0
 40
9.0
 40
9.0
 40
9.0
 40
10.0
 40
10.0
 40
10.0
 40
11.0
 40
11.0
 40
11.0
 40
12.0
 40
12.0
 40
12.0
 40
13.0
 40
13.0
 40
13.0
 40
13.0
 10
103.4463988999197
 20
-136.3539509750261
 30
0.0
 10
103.2135104451168
 20
-136.5125976221219
 30
0.0
 10
103.113947185593
 20
-136.5866671750547
 30
0.0
 10
103.0622707533143
 20
-136.7304999115639
 30
0.0
 10
103.0622707533143
 20
-136.7304999115639
 30
0.0
 10
103.8939168034536
 20
-136.7304999115639
 30
0.0
 10
103.8939168034536
 20
-136.7304999115639
 30
0.0
 10
103.8939168034536
 20
-136.7304999115639
 30
0.0
 10
103.8939168034536
 20
-136.9356553477105
 30
0.0
 10
103.8939168034536
 20
-136.9356553477105
 30
0.0
 10
103.8939168034536
 20
-136.9356553477105
 30
0.0
 10
102.7952758532074
 20
-136.9356553477105
 30
0.0
 10
102.7952758532074
 20
-136.9356553477105
 30
0.0
 10
102.8293822985114
 20
-136.5780544363416
 30
0.0
 10
102.899317736862
 20
-136.4998507688264
 30
0.0
 10
103.3106621378008
 20
-136.2015054998038
 30
0.0
 10
103.5842027193297
 20
-136.0027234903049
 30
0.0
 10
103.6544826672287
 20
-135.9350273640197
 30
0.0
 10
103.6544826672287
 20
-135.7975680541583
 30
0.0
 10
103.6544826672287
 20
-135.6790567694657
 30
0.0
 10
103.5776570379077
 20
-135.5479708862519
 30
0.0
 10
103.3671617037589
 20
-135.5479708862519
 30
0.0
 10
103.0891424980992
 20
-135.5479708862519
 30
0.0
 10
103.0801852498376
 20
-135.7784477742151
 30
0.0
 10
103.0757066257068
 20
-135.8948920016166
 30
0.0
 10
103.0757066257068
 20
-135.8948920016166
 30
0.0
 10
102.8359279799334
 20
-135.8948920016166
 30
0.0
 10
102.8359279799334
 20
-135.8948920016166
 30
0.0
 10
102.8452297377436
 20
-135.7679402329851
 30
0.0
 10
102.8562540432964
 20
-135.6558023749402
 30
0.0
 10
102.9423814304276
 20
-135.5372910902476
 30
0.0
 10
103.0598591864746
 20
-135.3765773858607
 30
0.0
 10
103.2586411959735
 20
-135.342643195331
 30
0.0
 10
103.3830091429911
 20
-135.342643195331
 30
0.0
 10
103.6792873547225
 20
-135.342643195331
 30
0.0
 10
103.9008069944241
 20
-135.5267835490176
 30
0.0
 10
103.9008069944241
 20
-135.7996351114494
 30
0.0
 10
103.9008069944241
 20
-136.0280449421215
 30
0.0
 10
103.7764390474066
 20
-136.1276082016452
 30
0.0
 10
103.4463988999197
 20
-136.3539509750261
 30
0.0
  0
HATCH
  5
9C
330
95
100
AcDbEntity
  8
_U+30EC_U+30A4_U+30E4_U+30FC 1
 62
   179
420
  2234388
100
AcDbHatch
 10
0.0
 20
0.0
 30
0.0
210
0.0
220
0.0
230
1.0
  2
SOLID
 70
     1
 71
     0
 91
        1
 92
        1
 93
        1
 72
     4
 94
        3
 73
     0
 74
     1
 95
       44
 96
       40
 40
0.0
 40
0.0
 40
0.0
 40
0.0
 40
1.0
 40
1.0
 40
1.0
 40
2.0
 40
2.0
 40
2.0
 40
3.0
 40
3.0
 40
3.0
 40
4.0
 40
4.0
 40
4.0
 40
5.0
 40
5.0
 40
5.0
 40
6.0
 40
6.0
 40
6.0
 40
7.0
 40
7.0
 40
7.0
 40
8.0
 40
8.0
 40
8.0
 40
9.0
 40
9.0
 40
9.0
 40
10.0
 40
10.0
 40
10.0
 40
11.0
 40
11.0
 40
11.0
 40
12.0
 40
12.0
 40
12.0
 40
13.0
 40
13.0
 40
13.0
 40
13.0
 10
103.4463988999197
 20
-136.3539509750261
 10
103.2135104451168
 20
-136.5125976221219
 10
103.113947185593
 20
-136.5866671750547
 10
103.0622707533143
 20
-136.7304999115639
 10
103.0622707533143
 20
-136.7304999115639
 10
103.8939168034536
 20
-136.7304999115639
 10
103.8939168034536
 20
-136.7304999115639
 10
103.8939168034536
 20
-136.7304999115639
 10
103.8939168034536
 20
-136.9356553477105
 10
103.8939168034536
 20
-136.9356553477105
 10
103.8939168034536
 20
-136.9356553477105
 10
102.7952758532074
 20
-136.9356553477105
 10
102.7952758532074
 20
-136.9356553477105
 10
102.8293822985114
 20
-136.5780544363416
 10
102.899317736862
 20
-136.4998507688264
 10
103.3106621378008
 20
-136.2015054998038
 10
103.5842027193297
 20
-136.0027234903049
 10
103.6544826672287
 20
-135.9350273640197
 10
103.6544826672287
 20
-135.7975680541583
 10
103.6544826672287
 20
-135.6790567694657
 10
103.5776570379077
 20
-135.5479708862519
 10
103.3671617037589
 20
-135.5479708862519
 10
103.0891424980992
 20
-135.5479708862519
 10
103.0801852498376
 20
-135.7784477742151
 10
103.0757066257068
 20
-135.8948920016166
 10
103.0757066257068
 20
-135.8948920016166
 10
102.8359279799334
 20
-135.8948920016166
 10
102.8359279799334
 20
-135.8948920016166
 10
102.8452297377436
 20
-135.7679402329851
 10
102.8562540432964
 20
-135.6558023749402
 10
102.9423814304276
 20
-135.5372910902476
 10
103.0598591864746
 20
-135.3765773858607
 10
103.2586411959735
 20
-135.342643195331
 10
103.3830091429911
 20
-135.342643195331
 10
103.6792873547225
 20
-135.342643195331
 10
103.9008069944241
 20
-135.5267835490176
 10
103.9008069944241
 20
-135.7996351114494
 10
103.9008069944241
 20
-136.0280449421215
 10
103.7764390474066
 20
-136.1276082016452
 10
103.4463988999197
 20
-136.3539509750261
 97
        0
 97
        0
 75
     2
 76
     1
 98
        0
  0
ENDBLK
  5
98
330
95
100
AcDbEntity
  8
0
100
AcDbBlockEnd
  0
BLOCK
  5
AF
330
AD
100
AcDbEntity
  8
0
100
AcDbBlockBegin
  2
block 4
 70
     0
 10
0.0
 20
0.0
 30
0.0
  3
block 4
  1

  0
SPLINE
  5
B1
330
AD
100
AcDbEntity
  8
_U+30EC_U+30A4_U+30E4_U+30FC 1
370
     0
100
AcDbSpline
210
0.0
220
0.0
230
1.0
 70
    11
 71
     3
 72
    29
 73
    25
 74
     0
 42
0.0000000001
 43
0.0000000001
 12
1.0
 22
0.0
 32
0.0
 13
1.0
 23
0.0
 33
0.0
 40
0.0
 40
0.0
 40
0.0
 40
0.0
 40
1.0
 40
1.0
 40
1.0
 40
2.0
 40
2.0
 40
2.0
 40
3.0
 40
3.0
 40
3.0
 40
4.0
 40
4.0
 40
4.0
 40
5.0
 40
5.0
 40
5.0
 40
6.0
 40
6.0
 40
6.0
 40
7.0
 40
7.0
 40
7.0
 40
8.0
 40
8.0
 40
8.0
 40
8.0
 10
105.2333699281187
 20
-153.5871798661171
 30
0.0
 10
105.4428317336219
 20
-153.702590564873
 30
0.0
 10
105.4617797587908
 20
-153.8879367019794
 30
0.0
 10
105.4617797587908
 20
-154.0123046489969
 30
0.0
 10
105.4617797587908
 20
-154.1838704041624
 30
0.0
 10
105.4152709697399
 20
-154.3354546055134
 30
0.0
 10
105.2333699281187
 20
-154.4370849223282
 30
0.0
 10
105.0387220332021
 20
-154.5480169969533
 30
0.0
 10
104.8020439733655
 20
-154.5683430603163
 30
0.0
 10
104.6390909569132
 20
-154.5683430603163
 30
0.0
 10
104.4950859656297
 20
-154.5683430603163
 30
0.0
 10
104.2432494856579
 20
-154.550428563793
 30
0.0
 10
104.044467476159
 20
-154.4370849223282
 30
0.0
 10
103.8415513520778
 20
-154.3220187331209
 30
0.0
 10
103.8181247027781
 20
-154.1501084684069
 30
0.0
 10
103.8181247027781
 20
-154.0123046489969
 30
0.0
 10
103.8181247027781
 20
-153.8424614415741
 30
0.0
 10
103.8625664345378
 20
-153.688810182932
 30
0.0
 10
104.044467476159
 20
-153.5871798661171
 30
0.0
 10
104.2370483137845
 20
-153.4807264156229
 30
0.0
 10
104.4654581444566
 20
-153.4559217281291
 30
0.0
 10
104.6390909569132
 20
-153.4559217281291
 30
0.0
 10
104.8103122025301
 20
-153.4559217281291
 30
0.0
 10
105.0407890904933
 20
-153.4786593583317
 30
0.0
 10
105.2333699281187
 20
-153.5871798661171
 30
0.0
  0
SPLINE
  5
B2
330
AD
100
AcDbEntity
  8
_U+30EC_U+30A4_U+30E4_U+30FC 1
370
     0
100
AcDbSpline
210
0.0
220
0.0
230
1.0
 70
    11
 71
     3
 72
    17
 73
    13
 74
     0
 42
0.0000000001
 43
0.0000000001
 12
1.0
 22
0.0
 32
0.0
 13
1.0
 23
0.0
 33
0.0
 40
0.0
 40
0.0
 40
0.0
 40
0.0
 40
1.0
 40
1.0
 40
1.0
 40
2.0
 40
2.0
 40
2.0
 40
3.0
 40
3.0
 40
3.0
 40
4.0
 40
4.0
 40
4.0
 40
4.0
 10
104.0107055404036
 20
-154.0123046489969
 30
0.0
 10
104.0107055404036
 20
-154.2789550395553
 30
0.0
 10
104.2942368988396
 20
-154.3285644145429
 30
0.0
 10
104.6390909569132
 20
-154.3285644145429
 30
0.0
 10
104.9584513083958
 20
-154.3285644145429
 30
0.0
 10
105.2671318638742
 20
-154.2903238546566
 30
0.0
 10
105.2671318638742
 20
-154.0123046489969
 30
0.0
 10
105.2671318638742
 20
-153.7477213157297
 30
0.0
 10
104.9860120722778
 20
-153.6957003739025
 30
0.0
 10
104.6390909569132
 20
-153.6957003739025
 30
0.0
 10
104.319386095882
 20
-153.6957003739025
 30
0.0
 10
104.0107055404036
 20
-153.7363525006284
 30
0.0
 10
104.0107055404036
 20
-154.0123046489969
 30
0.0
  0
HATCH
  5
B3
330
AD
100
AcDbEntity
  8
_U+30EC_U+30A4_U+30E4_U+30FC 1
 62
   179
420
  2234388
100
AcDbHatch
 10
0.0
 20
0.0
 30
0.0
210
0.0
220
0.0
230
1.0
  2
SOLID
 70
     1
 71
     0
 91
        2
 92
        1
 93
        1
 72
     4
 94
        3
 73
     0
 74
     1
 95
       29
 96
       25
 40
0.0
 40
0.0
 40
0.0
 40
0.0
 40
1.0
 40
1.0
 40
1.0
 40
2.0
 40
2.0
 40
2.0
 40
3.0
 40
3.0
 40
3.0
 40
4.0
 40
4.0
 40
4.0
 40
5.0
 40
5.0
 40
5.0
 40
6.0
 40
6.0
 40
6.0
 40
7.0
 40
7.0
 40
7.0
 40
8.0
 40
8.0
 40
8.0
 40
8.0
 10
105.2333699281187
 20
-153.5871798661171
 10
105.4428317336219
 20
-153.702590564873
 10
105.4617797587908
 20
-153.8879367019794
 10
105.4617797587908
 20
-154.0123046489969
 10
105.4617797587908
 20
-154.1838704041624
 10
105.4152709697399
 20
-154.3354546055134
 10
105.2333699281187
 20
-154.4370849223282
 10
105.0387220332021
 20
-154.5480169969533
 10
104.8020439733655
 20
-154.5683430603163
 10
104.6390909569132
 20
-154.5683430603163
 10
104.4950859656297
 20
-154.5683430603163
 10
104.2432494856579
 20
-154.550428563793
 10
104.044467476159
 20
-154.4370849223282
 10
103.8415513520778
 20
-154.3220187331209
 10
103.8181247027781
 20
-154.1501084684069
 10
103.8181247027781
 20
-154.0123046489969
 10
103.8181247027781
 20
-153.8424614415741
 10
103.8625664345378
 20
-153.688810182932
 10
104.044467476159
 20
-153.5871798661171
 10
104.2370483137845
 20
-153.4807264156229
 10
104.4654581444566
 20
-153.4559217281291
 10
104.6390909569132
 20
-153.4559217281291
 10
104.8103122025301
 20
-153.4559217281291
 10
105.0407890904933
 20
-153.4786593583317
 10
105.2333699281187
 20
-153.5871798661171
 97
        0
 97
        0
 92
        1
 93
        1
 72
     4
 94
        3
 73
     0
 74
     1
 95
       17
 96
       13
 40
0.0
 40
0.0
 40
0.0
 40
0.0
 40
1.0
 40
1.0
 40
1.0
 40
2.0
 40
2.0
 40
2.0
 40
3.0
 40
3.0
 40
3.0
 40
4.0
 40
4.0
 40
4.0
 40
4.0
 10
104.0107055404036
 20
-154.0123046489969
 10
104.0107055404036
 20
-154.2789550395553
 10
104.2942368988396
 20
-154.3285644145429
 10
104.6390909569132
 20
-154.3285644145429
 10
104.9584513083958
 20
-154.3285644145429
 10
105.2671318638742
 20
-154.2903238546566
 10
105.2671318638742
 20
-154.0123046489969
 10
105.2671318638742
 20
-153.7477213157297
 10
104.9860120722778
 20
-153.6957003739025
 10
104.6390909569132
 20
-153.6957003739025
 10
104.319386095882
 20
-153.6957003739025
 10
104.0107055404036
 20
-153.7363525006284
 10
104.0107055404036
 20
-154.0123046489969
 97
        0
 97
        0
 75
     2
 76
     1
 98
        0
  0
POLYLINE
  5
B4
330
AD
100
AcDbEntity
  8
_U+30EC_U+30A4_U+30E4_U+30FC 1
370
     0
100
AcDb2dPolyline
 66
     1
 10
0.0
 20
0.0
 30
0.0
  0
VERTEX
  5
B5
330
B4
100
AcDbEntity
  8
_U+30EC_U+30A4_U+30E4_U+30FC 1
370
     0
100
AcDbVertex
100
AcDb2dVertex
 10
105.4111368551576
 20
-153.2247558210688
 30
0.0
  0
VERTEX
  5
B6
330
B4
100
AcDbEntity
  8
_U+30EC_U+30A4_U+30E4_U+30FC 1
370
     0
100
AcDbVertex
100
AcDb2dVertex
 10
105.1593003751859
 20
-153.2247558210688
 30
0.0
  0
VERTEX
  5
B7
330
B4
100
AcDbEntity
  8
_U+30EC_U+30A4_U+30E4_U+30FC 1
370
     0
100
AcDbVertex
100
AcDb2dVertex
 10
105.1593003751859
 20
-152.9556938636708
 30
0.0
  0
VERTEX
  5
B8
330
B4
100
AcDbEntity
  8
_U+30EC_U+30A4_U+30E4_U+30FC 1
370
     0
100
AcDbVertex
100
AcDb2dVertex
 10
105.4111368551576
 20
-152.9556938636708
 30
0.0
  0
VERTEX
  5
B9
330
B4
100
AcDbEntity
  8
_U+30EC_U+30A4_U+30E4_U+30FC 1
370
     0
100
AcDbVertex
100
AcDb2dVertex
 10
105.4111368551576
 20
-153.2247558210688
 30
0.0
  0
SEQEND
  5
BA
330
B4
100
AcDbEntity
  8
_U+30EC_U+30A4_U+30E4_U+30FC 1
370
     0
  0
HATCH
  5
BB
330
AD
100
AcDbEntity
  8
_U+30EC_U+30A4_U+30E4_U+30FC 1
 62
   179
420
  2234388
100
AcDbHatch
 10
0.0
 20
0.0
 30
0.0
210
0.0
220
0.0
230
1.0
  2
SOLID
 70
     1
 71
     0
 91
        1
 92
        1
 93
        4
 72
     1
 10
105.4111368551576
 20
-153.2247558210688
 11
105.1593003751859
 21
-153.2247558210688
 72
     1
 10
105.1593003751859
 20
-153.2247558210688
 11
105.1593003751859
 21
-152.9556938636708
 72
     1
 10
105.1593003751859
 20
-152.9556938636708
 11
105.4111368551576
 21
-152.9556938636708
 72
     1
 10
105.4111368551576
 20
-152.9556938636708
 11
105.4111368551576
 21
-153.2247558210688
 97
        0
 75
     2
 76
     1
 98
        0
  0
SPLINE
  5
BC
330
AD
100
AcDbEntity
  8
_U+30EC_U+30A4_U+30E4_U+30FC 1
370
     0
100
AcDbSpline
210
0.0
220
0.0
230
1.0
 70
    11
 71
     3
 72
    53
 73
    49
 74
     0
 42
0.0000000001
 43
0.0000000001
 12
1.0
 22
0.0
 32
0.0
 13
1.0
 23
0.0
 33
0.0
 40
0.0
 40
0.0
 40
0.0
 40
0.0
 40
1.0
 40
1.0
 40
1.0
 40
2.0
 40
2.0
 40
2.0
 40
3.0
 40
3.0
 40
3.0
 40
4.0
 40
4.0
 40
4.0
 40
5.0
 40
5.0
 40
5.0
 40
6.0
 40
6.0
 40
6.0
 40
7.0
 40
7.0
 40
7.0
 40
8.0
 40
8.0
 40
8.0
 40
9.0
 40
9.0
 40
9.0
 40
10.0
 40
10.0
 40
10.0
 40
11.0
 40
11.0
 40
11.0
 40
12.0
 40
12.0
 40
12.0
 40
13.0
 40
13.0
 40
13.0
 40
14.0
 40
14.0
 40
14.0
 40
15.0
 40
15.0
 40
15.0
 40
16.0
 40
16.0
 40
16.0
 40
16.0
 10
105.4617797587908
 20
-152.1888156086542
 30
0.0
 10
105.4617797587908
 20
-152.2725314289458
 30
0.0
 10
105.4448987909131
 20
-152.3807074271826
 30
0.0
 10
105.3815090339845
 20
-152.4895724445165
 30
0.0
 10
105.271610488005
 20
-152.6749185816229
 30
0.0
 10
105.140352350017
 20
-152.6973117022771
 30
0.0
 10
105.0325208613287
 20
-152.71763776564
 30
0.0
 10
105.0325208613287
 20
-152.71763776564
 30
0.0
 10
105.0325208613287
 20
-152.4802706867063
 30
0.0
 10
105.0325208613287
 20
-152.4802706867063
 30
0.0
 10
105.2313028708276
 20
-152.4217040634571
 30
0.0
 10
105.2609306920007
 20
-152.2859673013382
 30
0.0
 10
105.2609306920007
 20
-152.1864040418145
 30
0.0
 10
105.2609306920007
 20
-152.0372314073032
 30
0.0
 10
105.161367432477
 20
-151.8742783908509
 30
0.0
 10
104.9288234872227
 20
-151.8742783908509
 30
0.0
 10
104.6728528926686
 20
-151.8742783908509
 30
0.0
 10
104.602917454318
 20
-152.0665147189278
 30
0.0
 10
104.602917454318
 20
-152.1953612900762
 30
0.0
 10
104.602917454318
 20
-152.2294677353801
 30
0.0
 10
104.602917454318
 20
-152.3807074271826
 30
0.0
 10
104.7321085350149
 20
-152.4757920625755
 30
0.0
 10
104.7321085350149
 20
-152.4757920625755
 30
0.0
 10
104.713160509846
 20
-152.6635497665216
 30
0.0
 10
104.713160509846
 20
-152.6635497665216
 30
0.0
 10
104.713160509846
 20
-152.6635497665216
 30
0.0
 10
103.8667005491201
 20
-152.5347031953733
 30
0.0
 10
103.8667005491201
 20
-152.5347031953733
 30
0.0
 10
103.8667005491201
 20
-152.5347031953733
 30
0.0
 10
103.8667005491201
 20
-151.7027126356854
 30
0.0
 10
103.8667005491201
 20
-151.7027126356854
 30
0.0
 10
103.8667005491201
 20
-151.7027126356854
 30
0.0
 10
104.0613484440368
 20
-151.7027126356854
 30
0.0
 10
104.0613484440368
 20
-151.7027126356854
 30
0.0
 10
104.0613484440368
 20
-151.7027126356854
 30
0.0
 10
104.0613484440368
 20
-152.3603813638196
 30
0.0
 10
104.0613484440368
 20
-152.3603813638196
 30
0.0
 10
104.0613484440368
 20
-152.3603813638196
 30
0.0
 10
104.4844061696254
 20
-152.4306613117187
 30
0.0
 10
104.4844061696254
 20
-152.4306613117187
 30
0.0
 10
104.45064423387
 20
-152.365204497499
 30
0.0
 10
104.4103366166926
 20
-152.2770100530766
 30
0.0
 10
104.4103366166926
 20
-152.1502305392194
 30
0.0
 10
104.4103366166926
 20
-151.8791015245302
 30
0.0
 10
104.5967162824446
 20
-151.6258870063644
 30
0.0
 10
104.9098754620538
 20
-151.6258870063644
 30
0.0
 10
105.2271687562453
 20
-151.6258870063644
 30
0.0
 10
105.4617797587908
 20
-151.8653211425892
 30
0.0
 10
105.4617797587908
 20
-152.1888156086542
 30
0.0
  0
HATCH
  5
BD
330
AD
100
AcDbEntity
  8
_U+30EC_U+30A4_U+30E4_U+30FC 1
 62
   179
420
  2234388
100
AcDbHatch
 10
0.0
 20
0.0
 30
0.0
210
0.0
220
0.0
230
1.0
  2
SOLID
 70
     1
 71
     0
 91
        1
 92
        1
 93
        1
 72
     4
 94
        3
 73
     0
 74
     1
 95
       53
 96
       49
 40
0.0
 40
0.0
 40
0.0
 40
0.0
 40
1.0
 40
1.0
 40
1.0
 40
2.0
 40
2.0
 40
2.0
 40
3.0
 40
3.0
 40
3.0
 40
4.0
 40
4.0
 40
4.0
 40
5.0
 40
5.0
 40
5.0
 40
6.0
 40
6.0
 40
6.0
 40
7.0
 40
7.0
 40
7.0
 40
8.0
 40
8.0
 40
8.0
 40
9.0
 40
9.0
 40
9.0
 40
10.0
 40
10.0
 40
10.0
 40
11.0
 40
11.0
 40
11.0
 40
12.0
 40
12.0
 40
12.0
 40
13.0
 40
13.0
 40
13.0
 40
14.0
 40
14.0
 40
14.0
 40
15.0
 40
15.0
 40
15.0
 40
16.0
 40
16.0
 40
16.0
 40
16.0
 10
105.4617797587908
 20
-152.1888156086542
 10
105.4617797587908
 20
-152.2725314289458
 10
105.4448987909131
 20
-152.3807074271826
 10
105.3815090339845
 20
-152.4895724445165
 10
105.271610488005
 20
-152.6749185816229
 10
105.140352350017
 20
-152.6973117022771
 10
105.0325208613287
 20
-152.71763776564
 10
105.0325208613287
 20
-152.71763776564
 10
105.0325208613287
 20
-152.4802706867063
 10
105.0325208613287
 20
-152.4802706867063
 10
105.2313028708276
 20
-152.4217040634571
 10
105.2609306920007
 20
-152.2859673013382
 10
105.2609306920007
 20
-152.1864040418145
 10
105.2609306920007
 20
-152.0372314073032
 10
105.161367432477
 20
-151.8742783908509
 10
104.9288234872227
 20
-151.8742783908509
 10
104.6728528926686
 20
-151.8742783908509
 10
104.602917454318
 20
-152.0665147189278
 10
104.602917454318
 20
-152.1953612900762
 10
104.602917454318
 20
-152.2294677353801
 10
104.602917454318
 20
-152.3807074271826
 10
104.7321085350149
 20
-152.4757920625755
 10
104.7321085350149
 20
-152.4757920625755
 10
104.713160509846
 20
-152.6635497665216
 10
104.713160509846
 20
-152.6635497665216
 10
104.713160509846
 20
-152.6635497665216
 10
103.8667005491201
 20
-152.5347031953733
 10
103.8667005491201
 20
-152.5347031953733
 10
103.8667005491201
 20
-152.5347031953733
 10
103.8667005491201
 20
-151.7027126356854
 10
103.8667005491201
 20
-151.7027126356854
 10
103.8667005491201
 20
-151.7027126356854
 10
104.0613484440368
 20
-151.7027126356854
 10
104.0613484440368
 20
-151.7027126356854
 10
104.0613484440368
 20
-151.7027126356854
 10
104.0613484440368
 20
-152.3603813638196
 10
104.0613484440368
 20
-152.3603813638196
 10
104.0613484440368
 20
-152.3603813638196
 10
104.4844061696254
 20
-152.4306613117187
 10
104.4844061696254
 20
-152.4306613117187
 10
104.45064423387
 20
-152.365204497499
 10
104.4103366166926
 20
-152.2770100530766
 10
104.4103366166926
 20
-152.1502305392194
 10
104.4103366166926
 20
-151.8791015245302
 10
104.5967162824446
 20
-151.6258870063644
 10
104.9098754620538
 20
-151.6258870063644
 10
105.2271687562453
 20
-151.6258870063644
 10
105.4617797587908
 20
-151.8653211425892
 10
105.4617797587908
 20
-152.1888156086542
 97
        0
 97
        0
 75
     2
 76
     1
 98
        0
  0
ENDBLK
  5
B0
330
AD
100
AcDbEntity
  8
0
100
AcDbBlockEnd
  0
BLOCK
  5
CC
330
CA
100
AcDbEntity
  8
0
100
AcDbBlockBegin
  2
block 5
 70
     0
 10
0.0
 20
0.0
 30
0.0
  3
block 5
  1

  0
SPLINE
  5
CE
330
CA
100
AcDbEntity
  8
_U+30EC_U+30A4_U+30E4_U+30FC 1
370
     0
100
AcDbSpline
210
0.0
220
0.0
230
1.0
 70
    11
 71
     3
 72
    29
 73
    25
 74
     0
 42
0.0000000001
 43
0.0000000001
 12
1.0
 22
0.0
 32
0.0
 13
1.0
 23
0.0
 33
0.0
 40
0.0
 40
0.0
 40
0.0
 40
0.0
 40
1.0
 40
1.0
 40
1.0
 40
2.0
 40
2.0
 40
2.0
 40
3.0
 40
3.0
 40
3.0
 40
4.0
 40
4.0
 40
4.0
 40
5.0
 40
5.0
 40
5.0
 40
6.0
 40
6.0
 40
6.0
 40
7.0
 40
7.0
 40
7.0
 40
8.0
 40
8.0
 40
8.0
 40
8.0
 10
98.75572914197774
 20
-159.9861002204202
 30
0.0
 10
98.47081974534758
 20
-159.9861002204202
 30
0.0
 10
98.19951847588415
 20
-159.8486409105587
 30
0.0
 10
98.19951847588415
 20
-159.4996527379029
 30
0.0
 10
98.19951847588415
 20
-159.2436821433488
 30
0.0
 10
98.35093042246088
 20
-159.1485975079559
 30
0.0
 10
98.46410180915134
 20
-159.0872748083185
 30
0.0
 10
98.3306043590979
 20
-159.0280191659722
 30
0.0
 10
98.24930010564601
 20
-158.9136419958619
 30
0.0
 10
98.24930010564601
 20
-158.7527560367007
 30
0.0
 10
98.24930010564601
 20
-158.4778374169778
 30
0.0
 10
98.46186249708593
 20
-158.3424451644075
 30
0.0
 10
98.75572914197774
 20
-158.3424451644075
 30
0.0
 10
99.0585530351312
 20
-158.3424451644075
 30
0.0
 10
99.26215817830946
 20
-158.4864501556909
 30
0.0
 10
99.26215817830946
 20
-158.7527560367007
 30
0.0
 10
99.26215817830946
 20
-158.9136419958619
 30
0.0
 10
99.17844235801789
 20
-159.0280191659722
 30
0.0
 10
99.04511716273872
 20
-159.0872748083185
 30
0.0
 10
99.14002954335736
 20
-159.1379177119516
 30
0.0
 10
99.30952824123165
 20
-159.2330023473445
 30
0.0
 10
99.30952824123165
 20
-159.4955186233206
 30
0.0
 10
99.30952824123165
 20
-159.8700005025672
 30
0.0
 10
99.01118297220901
 20
-159.9861002204202
 30
0.0
 10
98.75572914197774
 20
-159.9861002204202
 30
0.0
  0
SPLINE
  5
CF
330
CA
100
AcDbEntity
  8
_U+30EC_U+30A4_U+30E4_U+30FC 1
370
     0
100
AcDbSpline
210
0.0
220
0.0
230
1.0
 70
    11
 71
     3
 72
    17
 73
    13
 74
     0
 42
0.0000000001
 43
0.0000000001
 12
1.0
 22
0.0
 32
0.0
 13
1.0
 23
0.0
 33
0.0
 40
0.0
 40
0.0
 40
0.0
 40
0.0
 40
1.0
 40
1.0
 40
1.0
 40
2.0
 40
2.0
 40
2.0
 40
3.0
 40
3.0
 40
3.0
 40
4.0
 40
4.0
 40
4.0
 40
4.0
 10
98.75572914197774
 20
-159.1951062970068
 30
0.0
 10
98.60190562856134
 20
-159.1951062970068
 30
0.0
 10
98.43912486688328
 20
-159.2819227032351
 30
0.0
 10
98.43912486688328
 20
-159.4848388273163
 30
0.0
 10
98.43912486688328
 20
-159.6901665182372
 30
0.0
 10
98.57486162900213
 20
-159.7914523255035
 30
0.0
 10
98.75572914197774
 20
-159.7914523255035
 30
0.0
 10
98.95468340625092
 20
-159.7914523255035
 30
0.0
 10
99.07216116229793
 20
-159.6688069262286
 30
0.0
 10
99.07216116229793
 20
-159.4910399991898
 30
0.0
 10
99.07216116229793
 20
-159.2691758499397
 30
0.0
 10
98.89818384029282
 20
-159.1951062970068
 30
0.0
 10
98.75572914197774
 20
-159.1951062970068
 30
0.0
  0
SPLINE
  5
D0
330
CA
100
AcDbEntity
  8
_U+30EC_U+30A4_U+30E4_U+30FC 1
370
     0
100
AcDbSpline
210
0.0
220
0.0
230
1.0
 70
    11
 71
     3
 72
    17
 73
    13
 74
     0
 42
0.0000000001
 43
0.0000000001
 12
1.0
 22
0.0
 32
0.0
 13
1.0
 23
0.0
 33
0.0
 40
0.0
 40
0.0
 40
0.0
 40
0.0
 40
1.0
 40
1.0
 40
1.0
 40
2.0
 40
2.0
 40
2.0
 40
3.0
 40
3.0
 40
3.0
 40
4.0
 40
4.0
 40
4.0
 40
4.0
 10
98.75572914197774
 20
-158.5350260020329
 30
0.0
 10
98.57934025313294
 20
-158.5350260020329
 30
0.0
 10
98.48890649664514
 20
-158.6301106374258
 30
0.0
 10
98.48890649664514
 20
-158.7655028899961
 30
0.0
 10
98.48890649664514
 20
-158.888148289271
 30
0.0
 10
98.5657321259662
 20
-159.0066595739636
 30
0.0
 10
98.75572914197774
 20
-159.0066595739636
 30
0.0
 10
98.945553903215
 20
-159.0066595739636
 30
0.0
 10
99.02237953253608
 20
-158.888148289271
 30
0.0
 10
99.02237953253608
 20
-158.7655028899961
 30
0.0
 10
99.02237953253608
 20
-158.6301106374258
 30
0.0
 10
98.92970646398285
 20
-158.5350260020329
 30
0.0
 10
98.75572914197774
 20
-158.5350260020329
 30
0.0
  0
HATCH
  5
D1
330
CA
100
AcDbEntity
  8
_U+30EC_U+30A4_U+30E4_U+30FC 1
 62
   179
420
  2234388
100
AcDbHatch
 10
0.0
 20
0.0
 30
0.0
210
0.0
220
0.0
230
1.0
  2
SOLID
 70
     1
 71
     0
 91
        3
 92
        1
 93
        1
 72
     4
 94
        3
 73
     0
 74
     1
 95
       29
 96
       25
 40
0.0
 40
0.0
 40
0.0
 40
0.0
 40
1.0
 40
1.0
 40
1.0
 40
2.0
 40
2.0
 40
2.0
 40
3.0
 40
3.0
 40
3.0
 40
4.0
 40
4.0
 40
4.0
 40
5.0
 40
5.0
 40
5.0
 40
6.0
 40
6.0
 40
6.0
 40
7.0
 40
7.0
 40
7.0
 40
8.0
 40
8.0
 40
8.0
 40
8.0
 10
98.75572914197774
 20
-159.9861002204202
 10
98.47081974534758
 20
-159.9861002204202
 10
98.19951847588415
 20
-159.8486409105587
 10
98.19951847588415
 20
-159.4996527379029
 10
98.19951847588415
 20
-159.2436821433488
 10
98.35093042246088
 20
-159.1485975079559
 10
98.46410180915134
 20
-159.0872748083185
 10
98.3306043590979
 20
-159.0280191659722
 10
98.24930010564601
 20
-158.9136419958619
 10
98.24930010564601
 20
-158.7527560367007
 10
98.24930010564601
 20
-158.4778374169778
 10
98.46186249708593
 20
-158.3424451644075
 10
98.75572914197774
 20
-158.3424451644075
 10
99.0585530351312
 20
-158.3424451644075
 10
99.26215817830946
 20
-158.4864501556909
 10
99.26215817830946
 20
-158.7527560367007
 10
99.26215817830946
 20
-158.9136419958619
 10
99.17844235801789
 20
-159.0280191659722
 10
99.04511716273872
 20
-159.0872748083185
 10
99.14002954335736
 20
-159.1379177119516
 10
99.30952824123165
 20
-159.2330023473445
 10
99.30952824123165
 20
-159.4955186233206
 10
99.30952824123165
 20
-159.8700005025672
 10
99.01118297220901
 20
-159.9861002204202
 10
98.75572914197774
 20
-159.9861002204202
 97
        0
 97
        0
 92
        1
 93
        1
 72
     4
 94
        3
 73
     0
 74
     1
 95
       17
 96
       13
 40
0.0
 40
0.0
 40
0.0
 40
0.0
 40
1.0
 40
1.0
 40
1.0
 40
2.0
 40
2.0
 40
2.0
 40
3.0
 40
3.0
 40
3.0
 40
4.0
 40
4.0
 40
4.0
 40
4.0
 10
98.75572914197774
 20
-159.1951062970068
 10
98.60190562856134
 20
-159.1951062970068
 10
98.43912486688328
 20
-159.2819227032351
 10
98.43912486688328
 20
-159.4848388273163
 10
98.43912486688328
 20
-159.6901665182372
 10
98.57486162900213
 20
-159.7914523255035
 10
98.75572914197774
 20
-159.7914523255035
 10
98.95468340625092
 20
-159.7914523255035
 10
99.07216116229793
 20
-159.6688069262286
 10
99.07216116229793
 20
-159.4910399991898
 10
99.07216116229793
 20
-159.2691758499397
 10
98.89818384029282
 20
-159.1951062970068
 10
98.75572914197774
 20
-159.1951062970068
 97
        0
 97
        0
 92
        1
 93
        1
 72
     4
 94
        3
 73
     0
 74
     1
 95
       17
 96
       13
 40
0.0
 40
0.0
 40
0.0
 40
0.0
 40
1.0
 40
1.0
 40
1.0
 40
2.0
 40
2.0
 40
2.0
 40
3.0
 40
3.0
 40
3.0
 40
4.0
 40
4.0
 40
4.0
 40
4.0
 10
98.75572914197774
 20
-158.5350260020329
 10
98.57934025313294
 20
-158.5350260020329
 10
98.48890649664514
 20
-158.6301106374258
 10
98.48890649664514
 20
-158.7655028899961
 10
98.48890649664514
 20
-158.888148289271
 10
98.5657321259662
 20
-159.0066595739636
 10
98.75572914197774
 20
-159.0066595739636
 10
98.945553903215
 20
-159.0066595739636
 10
99.02237953253608
 20
-158.888148289271
 10
99.02237953253608
 20
-158.7655028899961
 10
99.02237953253608
 20
-158.6301106374258
 10
98.92970646398285
 20
-158.5350260020329
 10
98.75572914197774
 20
-158.5350260020329
 97
        0
 97
        0
 75
     2
 76
     1
 98
        0
  0
ENDBLK
  5
CD
330
CA
100
AcDbEntity
  8
0
100
AcDbBlockEnd
  0
BLOCK
  5
DC
330
DA
100
AcDbEntity
  8
0
100
AcDbBlockBegin
  2
block 6
 70
     0
 10
0.0
 20
0.0
 30
0.0
  3
block 6
  1

  0
SPLINE
  5
DE
330
DA
100
AcDbEntity
  8
_U+30EC_U+30A4_U+30E4_U+30FC 1
370
     0
100
AcDbSpline
210
0.0
220
0.0
230
1.0
 70
    11
 71
     3
 72
    62
 73
    58
 74
     0
 42
0.0000000001
 43
0.0000000001
 12
1.0
 22
0.0
 32
0.0
 13
1.0
 23
0.0
 33
0.0
 40
0.0
 40
0.0
 40
0.0
 40
0.0
 40
1.0
 40
1.0
 40
1.0
 40
2.0
 40
2.0
 40
2.0
 40
3.0
 40
3.0
 40
3.0
 40
4.0
 40
4.0
 40
4.0
 40
5.0
 40
5.0
 40
5.0
 40
6.0
 40
6.0
 40
6.0
 40
7.0
 40
7.0
 40
7.0
 40
8.0
 40
8.0
 40
8.0
 40
9.0
 40
9.0
 40
9.0
 40
10.0
 40
10.0
 40
10.0
 40
11.0
 40
11.0
 40
11.0
 40
12.0
 40
12.0
 40
12.0
 40
13.0
 40
13.0
 40
13.0
 40
14.0
 40
14.0
 40
14.0
 40
15.0
 40
15.0
 40
15.0
 40
16.0
 40
16.0
 40
16.0
 40
17.0
 40
17.0
 40
17.0
 40
18.0
 40
18.0
 40
18.0
 40
19.0
 40
19.0
 40
19.0
 40
19.0
 10
93.24667695151473
 20
-159.9861002204202
 30
0.0
 10
93.14504663469985
 20
-159.9861002204202
 30
0.0
 10
92.91215817989696
 20
-159.9650851379601
 30
0.0
 10
92.77866072984354
 20
-159.7790499817566
 30
0.0
 10
92.69959578845705
 20
-159.6667398689375
 30
0.0
 10
92.69511716432622
 20
-159.5675211189623
 30
0.0
 10
92.6906385401954
 20
-159.4827717700252
 30
0.0
 10
92.6906385401954
 20
-159.4827717700252
 30
0.0
 10
92.92559405228944
 20
-159.4827717700252
 30
0.0
 10
92.92559405228944
 20
-159.4827717700252
 30
0.0
 10
92.92800561912911
 20
-159.556841322958
 30
0.0
 10
92.93920217945617
 20
-159.7914523255035
 30
0.0
 10
93.2421983273839
 20
-159.7914523255035
 30
0.0
 10
93.3891316498298
 20
-159.7914523255035
 30
0.0
 10
93.55191241150786
 20
-159.7218613967015
 30
0.0
 10
93.55191241150786
 20
-159.4934515660294
 30
0.0
 10
93.55191241150786
 20
-159.377007338628
 30
0.0
 10
93.51126028478191
 20
-159.3284314922859
 30
0.0
 10
93.4773260942522
 20
-159.2967366138217
 30
0.0
 10
93.39826115286571
 20
-159.2226670608888
 30
0.0
 10
93.2738932058482
 20
-159.2099202075934
 30
0.0
 10
93.21498207305042
 20
-159.2099202075934
 30
0.0
 10
93.19465600968745
 20
-159.2099202075934
 30
0.0
 10
93.15624319502692
 20
-159.2119872648845
 30
0.0
 10
93.1269598834023
 20
-159.2161213794668
 30
0.0
 10
93.1269598834023
 20
-159.2161213794668
 30
0.0
 10
93.1269598834023
 20
-159.0214734845502
 30
0.0
 10
93.1269598834023
 20
-159.0214734845502
 30
0.0
 10
93.16761201012824
 20
-159.0280191659722
 30
0.0
 10
93.21274276098501
 20
-159.0300862232633
 30
0.0
 10
93.21963295195552
 20
-159.0300862232633
 30
0.0
 10
93.28974064508034
 20
-159.0300862232633
 30
0.0
 10
93.502130781746
 20
-159.0087266312548
 30
0.0
 10
93.502130781746
 20
-158.7720485714181
 30
0.0
 10
93.502130781746
 20
-158.5942816443792
 30
0.0
 10
93.3620876502706
 20
-158.5391601166152
 30
0.0
 10
93.24443763944932
 20
-158.5391601166152
 30
0.0
 10
92.96176755488456
 20
-158.5391601166152
 30
0.0
 10
92.95281030662291
 20
-158.7720485714181
 30
0.0
 10
92.94833168249208
 20
-158.8437065575113
 30
0.0
 10
92.94833168249208
 20
-158.8437065575113
 30
0.0
 10
92.73129066692135
 20
-158.8437065575113
 30
0.0
 10
92.73129066692135
 20
-158.8437065575113
 30
0.0
 10
92.74024791518299
 20
-158.7189941009453
 30
0.0
 10
92.76970348158189
 20
-158.3424451644075
 30
0.0
 10
93.25804576661605
 20
-158.3424451644075
 30
0.0
 10
93.49765215761518
 20
-158.3424451644075
 30
0.0
 10
93.75534529991187
 20
-158.4695691878132
 30
0.0
 10
93.75534529991187
 20
-158.7655028899961
 30
0.0
 10
93.75534529991187
 20
-158.9518825557481
 30
0.0
 10
93.65371498309699
 20
-159.0342203378456
 30
0.0
 10
93.54743378737703
 20
-159.0955430374831
 30
0.0
 10
93.61289060159679
 20
-159.1231038013651
 30
0.0
 10
93.80736624173913
 20
-159.2033745261714
 30
0.0
 10
93.80736624173913
 20
-159.480704712734
 30
0.0
 10
93.80736624173913
 20
-159.8190130893855
 30
0.0
 10
93.5429551632462
 20
-159.9861002204202
 30
0.0
 10
93.24667695151473
 20
-159.9861002204202
 30
0.0
  0
HATCH
  5
DF
330
DA
100
AcDbEntity
  8
_U+30EC_U+30A4_U+30E4_U+30FC 1
 62
   179
420
  2234388
100
AcDbHatch
 10
0.0
 20
0.0
 30
0.0
210
0.0
220
0.0
230
1.0
  2
SOLID
 70
     1
 71
     0
 91
        1
 92
        1
 93
        1
 72
     4
 94
        3
 73
     0
 74
     1
 95
       62
 96
       58
 40
0.0
 40
0.0
 40
0.0
 40
0.0
 40
1.0
 40
1.0
 40
1.0
 40
2.0
 40
2.0
 40
2.0
 40
3.0
 40
3.0
 40
3.0
 40
4.0
 40
4.0
 40
4.0
 40
5.0
 40
5.0
 40
5.0
 40
6.0
 40
6.0
 40
6.0
 40
7.0
 40
7.0
 40
7.0
 40
8.0
 40
8.0
 40
8.0
 40
9.0
 40
9.0
 40
9.0
 40
10.0
 40
10.0
 40
10.0
 40
11.0
 40
11.0
 40
11.0
 40
12.0
 40
12.0
 40
12.0
 40
13.0
 40
13.0
 40
13.0
 40
14.0
 40
14.0
 40
14.0
 40
15.0
 40
15.0
 40
15.0
 40
16.0
 40
16.0
 40
16.0
 40
17.0
 40
17.0
 40
17.0
 40
18.0
 40
18.0
 40
18.0
 40
19.0
 40
19.0
 40
19.0
 40
19.0
 10
93.24667695151473
 20
-159.9861002204202
 10
93.14504663469985
 20
-159.9861002204202
 10
92.91215817989696
 20
-159.9650851379601
 10
92.77866072984354
 20
-159.7790499817566
 10
92.69959578845705
 20
-159.6667398689375
 10
92.69511716432622
 20
-159.5675211189623
 10
92.6906385401954
 20
-159.4827717700252
 10
92.6906385401954
 20
-159.4827717700252
 10
92.92559405228944
 20
-159.4827717700252
 10
92.92559405228944
 20
-159.4827717700252
 10
92.92800561912911
 20
-159.556841322958
 10
92.93920217945617
 20
-159.7914523255035
 10
93.2421983273839
 20
-159.7914523255035
 10
93.3891316498298
 20
-159.7914523255035
 10
93.55191241150786
 20
-159.7218613967015
 10
93.55191241150786
 20
-159.4934515660294
 10
93.55191241150786
 20
-159.377007338628
 10
93.51126028478191
 20
-159.3284314922859
 10
93.4773260942522
 20
-159.2967366138217
 10
93.39826115286571
 20
-159.2226670608888
 10
93.2738932058482
 20
-159.2099202075934
 10
93.21498207305042
 20
-159.2099202075934
 10
93.19465600968745
 20
-159.2099202075934
 10
93.15624319502692
 20
-159.2119872648845
 10
93.1269598834023
 20
-159.2161213794668
 10
93.1269598834023
 20
-159.2161213794668
 10
93.1269598834023
 20
-159.0214734845502
 10
93.1269598834023
 20
-159.0214734845502
 10
93.16761201012824
 20
-159.0280191659722
 10
93.21274276098501
 20
-159.0300862232633
 10
93.21963295195552
 20
-159.0300862232633
 10
93.28974064508034
 20
-159.0300862232633
 10
93.502130781746
 20
-159.0087266312548
 10
93.502130781746
 20
-158.7720485714181
 10
93.502130781746
 20
-158.5942816443792
 10
93.3620876502706
 20
-158.5391601166152
 10
93.24443763944932
 20
-158.5391601166152
 10
92.96176755488456
 20
-158.5391601166152
 10
92.95281030662291
 20
-158.7720485714181
 10
92.94833168249208
 20
-158.8437065575113
 10
92.94833168249208
 20
-158.8437065575113
 10
92.73129066692135
 20
-158.8437065575113
 10
92.73129066692135
 20
-158.8437065575113
 10
92.74024791518299
 20
-158.7189941009453
 10
92.76970348158189
 20
-158.3424451644075
 10
93.25804576661605
 20
-158.3424451644075
 10
93.49765215761518
 20
-158.3424451644075
 10
93.75534529991187
 20
-158.4695691878132
 10
93.75534529991187
 20
-158.7655028899961
 10
93.75534529991187
 20
-158.9518825557481
 10
93.65371498309699
 20
-159.0342203378456
 10
93.54743378737703
 20
-159.0955430374831
 10
93.61289060159679
 20
-159.1231038013651
 10
93.80736624173913
 20
-159.2033745261714
 10
93.80736624173913
 20
-159.480704712734
 10
93.80736624173913
 20
-159.8190130893855
 10
93.5429551632462
 20
-159.9861002204202
 10
93.24667695151473
 20
-159.9861002204202
 97
        0
 97
        0
 75
     2
 76
     1
 98
        0
  0
ENDBLK
  5
DD
330
DA
100
AcDbEntity
  8
0
100
AcDbBlockEnd
  0
BLOCK
  5
EA
330
E8
100
AcDbEntity
  8
0
100
AcDbBlockBegin
  2
block 7
 70
     0
 10
0.0
 20
0.0
 30
0.0
  3
block 7
  1

  0
SPLINE
  5
EC
330
E8
100
AcDbEntity
  8
_U+30EC_U+30A4_U+30E4_U+30FC 1
370
     0
100
AcDbSpline
210
0.0
220
0.0
230
1.0
 70
    11
 71
     3
 72
    26
 73
    22
 74
     0
 42
0.0000000001
 43
0.0000000001
 12
1.0
 22
0.0
 32
0.0
 13
1.0
 23
0.0
 33
0.0
 40
0.0
 40
0.0
 40
0.0
 40
0.0
 40
1.0
 40
1.0
 40
1.0
 40
2.0
 40
2.0
 40
2.0
 40
3.0
 40
3.0
 40
3.0
 40
4.0
 40
4.0
 40
4.0
 40
5.0
 40
5.0
 40
5.0
 40
6.0
 40
6.0
 40
6.0
 40
7.0
 40
7.0
 40
7.0
 40
7.0
 10
116.4118435038832
 20
-150.4139024146535
 30
0.0
 10
116.4118435038832
 20
-150.4139024146535
 30
0.0
 10
115.3076904008606
 20
-150.4139024146535
 30
0.0
 10
115.3076904008606
 20
-150.4139024146535
 30
0.0
 10
115.3076904008606
 20
-150.4139024146535
 30
0.0
 10
115.3076904008606
 20
-150.7663356827945
 30
0.0
 10
115.3076904008606
 20
-150.7663356827945
 30
0.0
 10
115.3076904008606
 20
-150.7663356827945
 30
0.0
 10
115.1595512949948
 20
-150.7663356827945
 30
0.0
 10
115.1595512949948
 20
-150.7663356827945
 30
0.0
 10
115.1447373844083
 20
-150.4114908478138
 30
0.0
 10
114.981784367956
 20
-150.3618814728262
 30
0.0
 10
114.8674071978457
 20
-150.3301865943619
 30
0.0
 10
114.8674071978457
 20
-150.3301865943619
 30
0.0
 10
114.8674071978457
 20
-150.1741237688801
 30
0.0
 10
114.8674071978457
 20
-150.1741237688801
 30
0.0
 10
114.8674071978457
 20
-150.1741237688801
 30
0.0
 10
116.4118435038832
 20
-150.1741237688801
 30
0.0
 10
116.4118435038832
 20
-150.1741237688801
 30
0.0
 10
116.4118435038832
 20
-150.1741237688801
 30
0.0
 10
116.4118435038832
 20
-150.4139024146535
 30
0.0
 10
116.4118435038832
 20
-150.4139024146535
 30
0.0
  0
HATCH
  5
ED
330
E8
100
AcDbEntity
  8
_U+30EC_U+30A4_U+30E4_U+30FC 1
 62
   179
420
  2234388
100
AcDbHatch
 10
0.0
 20
0.0
 30
0.0
210
0.0
220
0.0
230
1.0
  2
SOLID
 70
     1
 71
     0
 91
        1
 92
        1
 93
        1
 72
     4
 94
        3
 73
     0
 74
     1
 95
       26
 96
       22
 40
0.0
 40
0.0
 40
0.0
 40
0.0
 40
1.0
 40
1.0
 40
1.0
 40
2.0
 40
2.0
 40
2.0
 40
3.0
 40
3.0
 40
3.0
 40
4.0
 40
4.0
 40
4.0
 40
5.0
 40
5.0
 40
5.0
 40
6.0
 40
6.0
 40
6.0
 40
7.0
 40
7.0
 40
7.0
 40
7.0
 10
116.4118435038832
 20
-150.4139024146535
 10
116.4118435038832
 20
-150.4139024146535
 10
115.3076904008606
 20
-150.4139024146535
 10
115.3076904008606
 20
-150.4139024146535
 10
115.3076904008606
 20
-150.4139024146535
 10
115.3076904008606
 20
-150.7663356827945
 10
115.3076904008606
 20
-150.7663356827945
 10
115.3076904008606
 20
-150.7663356827945
 10
115.1595512949948
 20
-150.7663356827945
 10
115.1595512949948
 20
-150.7663356827945
 10
115.1447373844083
 20
-150.4114908478138
 10
114.981784367956
 20
-150.3618814728262
 10
114.8674071978457
 20
-150.3301865943619
 10
114.8674071978457
 20
-150.3301865943619
 10
114.8674071978457
 20
-150.1741237688801
 10
114.8674071978457
 20
-150.1741237688801
 10
114.8674071978457
 20
-150.1741237688801
 10
116.4118435038832
 20
-150.1741237688801
 10
116.4118435038832
 20
-150.1741237688801
 10
116.4118435038832
 20
-150.1741237688801
 10
116.4118435038832
 20
-150.4139024146535
 10
116.4118435038832
 20
-150.4139024146535
 97
        0
 97
        0
 75
     2
 76
     1
 98
        0
  0
SPLINE
  5
EE
330
E8
100
AcDbEntity
  8
_U+30EC_U+30A4_U+30E4_U+30FC 1
370
     0
100
AcDbSpline
210
0.0
220
0.0
230
1.0
 70
    11
 71
     3
 72
    62
 73
    58
 74
     0
 42
0.0000000001
 43
0.0000000001
 12
1.0
 22
0.0
 32
0.0
 13
1.0
 23
0.0
 33
0.0
 40
0.0
 40
0.0
 40
0.0
 40
0.0
 40
1.0
 40
1.0
 40
1.0
 40
2.0
 40
2.0
 40
2.0
 40
3.0
 40
3.0
 40
3.0
 40
4.0
 40
4.0
 40
4.0
 40
5.0
 40
5.0
 40
5.0
 40
6.0
 40
6.0
 40
6.0
 40
7.0
 40
7.0
 40
7.0
 40
8.0
 40
8.0
 40
8.0
 40
9.0
 40
9.0
 40
9.0
 40
10.0
 40
10.0
 40
10.0
 40
11.0
 40
11.0
 40
11.0
 40
12.0
 40
12.0
 40
12.0
 40
13.0
 40
13.0
 40
13.0
 40
14.0
 40
14.0
 40
14.0
 40
15.0
 40
15.0
 40
15.0
 40
16.0
 40
16.0
 40
16.0
 40
17.0
 40
17.0
 40
17.0
 40
18.0
 40
18.0
 40
18.0
 40
19.0
 40
19.0
 40
19.0
 40
19.0
 10
116.4624864075163
 20
-149.1130343594231
 30
0.0
 10
116.4624864075163
 20
-149.214664676238
 30
0.0
 10
116.4414713250563
 20
-149.4475531310409
 30
0.0
 10
116.2554361688528
 20
-149.5808783263201
 30
0.0
 10
116.1431260560337
 20
-149.6601155224808
 30
0.0
 10
116.0439073060585
 20
-149.6645941466116
 30
0.0
 10
115.9591579571213
 20
-149.6690727707425
 30
0.0
 10
115.9591579571213
 20
-149.6690727707425
 30
0.0
 10
115.9591579571213
 20
-149.4341172586484
 30
0.0
 10
115.9591579571213
 20
-149.4341172586484
 30
0.0
 10
116.0332275100542
 20
-149.4317056918088
 30
0.0
 10
116.2678385125997
 20
-149.4203368767074
 30
0.0
 10
116.2678385125997
 20
-149.117512983554
 30
0.0
 10
116.2678385125997
 20
-148.9704074063338
 30
0.0
 10
116.1982475837977
 20
-148.80779889943
 30
0.0
 10
115.9698377531256
 20
-148.80779889943
 30
0.0
 10
115.8533935257242
 20
-148.80779889943
 30
0.0
 10
115.8048176793821
 20
-148.8484510261559
 30
0.0
 10
115.7731228009178
 20
-148.8825574714599
 30
0.0
 10
115.699053247985
 20
-148.9614501580722
 30
0.0
 10
115.6863063946895
 20
-149.0858181050897
 30
0.0
 10
115.6863063946895
 20
-149.1447292378874
 30
0.0
 10
115.6863063946895
 20
-149.1650553012504
 30
0.0
 10
115.6883734519807
 20
-149.2032958611367
 30
0.0
 10
115.692507566563
 20
-149.2329236823098
 30
0.0
 10
115.692507566563
 20
-149.2329236823098
 30
0.0
 10
115.4978596716464
 20
-149.2329236823098
 30
0.0
 10
115.4978596716464
 20
-149.2329236823098
 30
0.0
 10
115.5044053530683
 20
-149.1922715555839
 30
0.0
 10
115.5064724103595
 20
-149.1467962951786
 30
0.0
 10
115.5064724103595
 20
-149.1402506137566
 30
0.0
 10
115.5064724103595
 20
-149.0699706658575
 30
0.0
 10
115.485112818351
 20
-148.8574082744176
 30
0.0
 10
115.2484347585143
 20
-148.8574082744176
 30
0.0
 10
115.0706678314754
 20
-148.8574082744176
 30
0.0
 10
115.0155463037114
 20
-148.9976236606673
 30
0.0
 10
115.0155463037114
 20
-149.1151014167143
 30
0.0
 10
115.0155463037114
 20
-149.3979437560533
 30
0.0
 10
115.2484347585143
 20
-149.406901004315
 30
0.0
 10
115.3200927446075
 20
-149.4113796284458
 30
0.0
 10
115.3200927446075
 20
-149.4113796284458
 30
0.0
 10
115.3200927446075
 20
-149.6284206440165
 30
0.0
 10
115.3200927446075
 20
-149.6284206440165
 30
0.0
 10
115.1953802880414
 20
-149.6194633957549
 30
0.0
 10
114.8188313515036
 20
-149.5901800841303
 30
0.0
 10
114.8188313515036
 20
-149.1016655443218
 30
0.0
 10
114.8188313515036
 20
-148.8618868985484
 30
0.0
 10
114.9459553749093
 20
-148.6041937562517
 30
0.0
 10
115.2418890770923
 20
-148.6041937562517
 30
0.0
 10
115.4282687428443
 20
-148.6041937562517
 30
0.0
 10
115.5106065249418
 20
-148.7061685826151
 30
0.0
 10
115.5719292245793
 20
-148.8122775235608
 30
0.0
 10
115.5994899884612
 20
-148.7468207093411
 30
0.0
 10
115.6797607132676
 20
-148.5521728144245
 30
0.0
 10
115.9570908998302
 20
-148.5521728144245
 30
0.0
 10
116.2953992764817
 20
-148.5521728144245
 30
0.0
 10
116.4624864075163
 20
-148.8167561476916
 30
0.0
 10
116.4624864075163
 20
-149.1130343594231
 30
0.0
  0
HATCH
  5
EF
330
E8
100
AcDbEntity
  8
_U+30EC_U+30A4_U+30E4_U+30FC 1
 62
   179
420
  2234388
100
AcDbHatch
 10
0.0
 20
0.0
 30
0.0
210
0.0
220
0.0
230
1.0
  2
SOLID
 70
     1
 71
     0
 91
        1
 92
        1
 93
        1
 72
     4
 94
        3
 73
     0
 74
     1
 95
       62
 96
       58
 40
0.0
 40
0.0
 40
0.0
 40
0.0
 40
1.0
 40
1.0
 40
1.0
 40
2.0
 40
2.0
 40
2.0
 40
3.0
 40
3.0
 40
3.0
 40
4.0
 40
4.0
 40
4.0
 40
5.0
 40
5.0
 40
5.0
 40
6.0
 40
6.0
 40
6.0
 40
7.0
 40
7.0
 40
7.0
 40
8.0
 40
8.0
 40
8.0
 40
9.0
 40
9.0
 40
9.0
 40
10.0
 40
10.0
 40
10.0
 40
11.0
 40
11.0
 40
11.0
 40
12.0
 40
12.0
 40
12.0
 40
13.0
 40
13.0
 40
13.0
 40
14.0
 40
14.0
 40
14.0
 40
15.0
 40
15.0
 40
15.0
 40
16.0
 40
16.0
 40
16.0
 40
17.0
 40
17.0
 40
17.0
 40
18.0
 40
18.0
 40
18.0
 40
19.0
 40
19.0
 40
19.0
 40
19.0
 10
116.4624864075163
 20
-149.1130343594231
 10
116.4624864075163
 20
-149.214664676238
 10
116.4414713250563
 20
-149.4475531310409
 10
116.2554361688528
 20
-149.5808783263201
 10
116.1431260560337
 20
-149.6601155224808
 10
116.0439073060585
 20
-149.6645941466116
 10
115.9591579571213
 20
-149.6690727707425
 10
115.9591579571213
 20
-149.6690727707425
 10
115.9591579571213
 20
-149.4341172586484
 10
115.9591579571213
 20
-149.4341172586484
 10
116.0332275100542
 20
-149.4317056918088
 10
116.2678385125997
 20
-149.4203368767074
 10
116.2678385125997
 20
-149.117512983554
 10
116.2678385125997
 20
-148.9704074063338
 10
116.1982475837977
 20
-148.80779889943
 10
115.9698377531256
 20
-148.80779889943
 10
115.8533935257242
 20
-148.80779889943
 10
115.8048176793821
 20
-148.8484510261559
 10
115.7731228009178
 20
-148.8825574714599
 10
115.699053247985
 20
-148.9614501580722
 10
115.6863063946895
 20
-149.0858181050897
 10
115.6863063946895
 20
-149.1447292378874
 10
115.6863063946895
 20
-149.1650553012504
 10
115.6883734519807
 20
-149.2032958611367
 10
115.692507566563
 20
-149.2329236823098
 10
115.692507566563
 20
-149.2329236823098
 10
115.4978596716464
 20
-149.2329236823098
 10
115.4978596716464
 20
-149.2329236823098
 10
115.5044053530683
 20
-149.1922715555839
 10
115.5064724103595
 20
-149.1467962951786
 10
115.5064724103595
 20
-149.1402506137566
 10
115.5064724103595
 20
-149.0699706658575
 10
115.485112818351
 20
-148.8574082744176
 10
115.2484347585143
 20
-148.8574082744176
 10
115.0706678314754
 20
-148.8574082744176
 10
115.0155463037114
 20
-148.9976236606673
 10
115.0155463037114
 20
-149.1151014167143
 10
115.0155463037114
 20
-149.3979437560533
 10
115.2484347585143
 20
-149.406901004315
 10
115.3200927446075
 20
-149.4113796284458
 10
115.3200927446075
 20
-149.4113796284458
 10
115.3200927446075
 20
-149.6284206440165
 10
115.3200927446075
 20
-149.6284206440165
 10
115.1953802880414
 20
-149.6194633957549
 10
114.8188313515036
 20
-149.5901800841303
 10
114.8188313515036
 20
-149.1016655443218
 10
114.8188313515036
 20
-148.8618868985484
 10
114.9459553749093
 20
-148.6041937562517
 10
115.2418890770923
 20
-148.6041937562517
 10
115.4282687428443
 20
-148.6041937562517
 10
115.5106065249418
 20
-148.7061685826151
 10
115.5719292245793
 20
-148.8122775235608
 10
115.5994899884612
 20
-148.7468207093411
 10
115.6797607132676
 20
-148.5521728144245
 10
115.9570908998302
 20
-148.5521728144245
 10
116.2953992764817
 20
-148.5521728144245
 10
116.4624864075163
 20
-148.8167561476916
 10
116.4624864075163
 20
-149.1130343594231
 97
        0
 97
        0
 75
     2
 76
     1
 98
        0
  0
ENDBLK
  5
EB
330
E8
100
AcDbEntity
  8
0
100
AcDbBlockEnd
  0
ENDSEC
  0
SECTION
  2
ENTITIES
  0
POLYLINE
  5
41
330
1F
100
AcDbEntity
  8
_U+30EC_U+30A4_U+30E4_U+30FC 1
 62
   179
420
  2234388
370
    25
100
AcDb2dPolyline
 66
     1
 10
0.0
 20
0.0
 30
0.0
  0
VERTEX
  5
42
330
41
100
AcDbEntity
  8
_U+30EC_U+30A4_U+30E4_U+30FC 1
 62
   179
420
  2234388
370
    25
100
AcDbVertex
100
AcDb2dVertex
 10
91.71325932686649
 20
-142.2376716311073
 30
0.0
  0
VERTEX
  5
43
330
41
100
AcDbEntity
  8
_U+30EC_U+30A4_U+30E4_U+30FC 1
 62
   179
420
  2234388
370
    25
100
AcDbVertex
100
AcDb2dVertex
 10
113.7136451544788
 20
-142.2376716311073
 30
0.0
  0
SEQEND
  5
44
330
41
100
AcDbEntity
  8
_U+30EC_U+30A4_U+30E4_U+30FC 1
 62
   179
420
  2234388
370
    25
  0
POLYLINE
  5
45
330
1F
100
AcDbEntity
  8
_U+30EC_U+30A4_U+30E4_U+30FC 1
 62
   179
420
  2234388
370
    25
100
AcDb2dPolyline
 66
     1
 10
0.0
 20
0.0
 30
0.0
  0
VERTEX
  5
46
330
45
100
AcDbEntity
  8
_U+30EC_U+30A4_U+30E4_U+30FC 1
 62
   179
420
  2234388
370
    25
100
AcDbVertex
100
AcDb2dVertex
 10
91.71325932686649
 20
-143.2374085753017
 30
0.0
  0
VERTEX
  5
47
330
45
100
AcDbEntity
  8
_U+30EC_U+30A4_U+30E4_U+30FC 1
 62
   179
420
  2234388
370
    25
100
AcDbVertex
100
AcDb2dVertex
 10
94.7132461947749
 20
-143.2374085753017
 30
0.0
  0
SEQEND
  5
48
330
45
100
AcDbEntity
  8
_U+30EC_U+30A4_U+30E4_U+30FC 1
 62
   179
420
  2234388
370
    25
  0
POLYLINE
  5
49
330
1F
100
AcDbEntity
  8
_U+30EC_U+30A4_U+30E4_U+30FC 1
 62
   179
420
  2234388
370
    25
100
AcDb2dPolyline
 66
     1
 10
0.0
 20
0.0
 30
0.0
  0
VERTEX
  5
4A
330
49
100
AcDbEntity
  8
_U+30EC_U+30A4_U+30E4_U+30FC 1
 62
   179
420
  2234388
370
    25
100
AcDbVertex
100
AcDb2dVertex
 10
95.71319719829397
 20
-143.2374085753017
 30
0.0
  0
VERTEX
  5
4B
330
49
100
AcDbEntity
  8
_U+30EC_U+30A4_U+30E4_U+30FC 1
 62
   179
420
  2234388
370
    25
100
AcDbVertex
100
AcDb2dVertex
 10
113.7136451544788
 20
-143.2374085753017
 30
0.0
  0
SEQEND
  5
4C
330
49
100
AcDbEntity
  8
_U+30EC_U+30A4_U+30E4_U+30FC 1
 62
   179
420
  2234388
370
    25
  0
POLYLINE
  5
4D
330
1F
100
AcDbEntity
  8
_U+30EC_U+30A4_U+30E4_U+30FC 1
 62
   179
420
  2234388
370
    25
100
AcDb2dPolyline
 66
     1
 10
0.0
 20
0.0
 30
0.0
  0
VERTEX
  5
4E
330
4D
100
AcDbEntity
  8
_U+30EC_U+30A4_U+30E4_U+30FC 1
 62
   179
420
  2234388
370
    25
100
AcDbVertex
100
AcDb2dVertex
 10
91.71325932686649
 20
-142.2376716311073
 30
0.0
  0
VERTEX
  5
4F
330
4D
100
AcDbEntity
  8
_U+30EC_U+30A4_U+30E4_U+30FC 1
 62
   179
420
  2234388
370
    25
100
AcDbVertex
100
AcDb2dVertex
 10
91.71325932686649
 20
-143.2374085753017
 30
0.0
  0
SEQEND
  5
50
330
4D
100
AcDbEntity
  8
_U+30EC_U+30A4_U+30E4_U+30FC 1
 62
   179
420
  2234388
370
    25
  0
POLYLINE
  5
51
330
1F
100
AcDbEntity
  8
_U+30EC_U+30A4_U+30E4_U+30FC 1
 62
   179
420
  2234388
370
    25
100
AcDb2dPolyline
 66
     1
 10
0.0
 20
0.0
 30
0.0
  0
VERTEX
  5
52
330
51
100
AcDbEntity
  8
_U+30EC_U+30A4_U+30E4_U+30FC 1
 62
   179
420
  2234388
370
    25
100
AcDbVertex
100
AcDb2dVertex
 10
113.7136451544788
 20
-142.2376716311073
 30
0.0
  0
VERTEX
  5
53
330
51
100
AcDbEntity
  8
_U+30EC_U+30A4_U+30E4_U+30FC 1
 62
   179
420
  2234388
370
    25
100
AcDbVertex
100
AcDb2dVertex
 10
113.7136451544788
 20
-143.2374085753017
 30
0.0
  0
SEQEND
  5
54
330
51
100
AcDbEntity
  8
_U+30EC_U+30A4_U+30E4_U+30FC 1
 62
   179
420
  2234388
370
    25
  0
POLYLINE
  5
55
330
1F
100
AcDbEntity
  8
_U+30EC_U+30A4_U+30E4_U+30FC 1
 62
   179
420
  2234388
370
    25
100
AcDb2dPolyline
 66
     1
 10
0.0
 20
0.0
 30
0.0
  0
VERTEX
  5
56
330
55
100
AcDbEntity
  8
_U+30EC_U+30A4_U+30E4_U+30FC 1
 62
   179
420
  2234388
370
    25
100
AcDbVertex
100
AcDb2dVertex
 10
95.71319719829397
 20
-156.2374813498294
 30
0.0
  0
VERTEX
  5
57
330
55
100
AcDbEntity
  8
_U+30EC_U+30A4_U+30E4_U+30FC 1
 62
   179
420
  2234388
370
    25
100
AcDbVertex
100
AcDb2dVertex
 10
102.7132934906767
 20
-156.2374813498294
 30
0.0
  0
SEQEND
  5
58
330
55
100
AcDbEntity
  8
_U+30EC_U+30A4_U+30E4_U+30FC 1
 62
   179
420
  2234388
370
    25
  0
POLYLINE
  5
59
330
1F
100
AcDbEntity
  8
_U+30EC_U+30A4_U+30E4_U+30FC 1
 62
   179
420
  2234388
370
    25
100
AcDb2dPolyline
 66
     1
 10
0.0
 20
0.0
 30
0.0
  0
VERTEX
  5
5A
330
59
100
AcDbEntity
  8
_U+30EC_U+30A4_U+30E4_U+30FC 1
 62
   179
420
  2234388
370
    25
100
AcDbVertex
100
AcDb2dVertex
 10
94.7132461947749
 20
-143.2374085753017
 30
0.0
  0
VERTEX
  5
5B
330
59
100
AcDbEntity
  8
_U+30EC_U+30A4_U+30E4_U+30FC 1
 62
   179
420
  2234388
370
    25
100
AcDbVertex
100
AcDb2dVertex
 10
94.7132461947749
 20
-157.2376063495797
 30
0.0
  0
SEQEND
  5
5C
330
59
100
AcDbEntity
  8
_U+30EC_U+30A4_U+30E4_U+30FC 1
 62
   179
420
  2234388
370
    25
  0
POLYLINE
  5
5D
330
1F
100
AcDbEntity
  8
_U+30EC_U+30A4_U+30E4_U+30FC 1
 62
   179
420
  2234388
370
    25
100
AcDb2dPolyline
 66
     1
 10
0.0
 20
0.0
 30
0.0
  0
VERTEX
  5
5E
330
5D
100
AcDbEntity
  8
_U+30EC_U+30A4_U+30E4_U+30FC 1
 62
   179
420
  2234388
370
    25
100
AcDbVertex
100
AcDb2dVertex
 10
95.71319719829397
 20
-143.2374085753017
 30
0.0
  0
VERTEX
  5
5F
330
5D
100
AcDbEntity
  8
_U+30EC_U+30A4_U+30E4_U+30FC 1
 62
   179
420
  2234388
370
    25
100
AcDbVertex
100
AcDb2dVertex
 10
95.71319719829397
 20
-156.2374813498294
 30
0.0
  0
SEQEND
  5
60
330
5D
100
AcDbEntity
  8
_U+30EC_U+30A4_U+30E4_U+30FC 1
 62
   179
420
  2234388
370
    25
  0
POLYLINE
  5
61
330
1F
100
AcDbEntity
  8
_U+30EC_U+30A4_U+30E4_U+30FC 1
 62
   179
420
  2234388
370
    25
100
AcDb2dPolyline
 66
     1
 10
0.0
 20
0.0
 30
0.0
  0
VERTEX
  5
62
330
61
100
AcDbEntity
  8
_U+30EC_U+30A4_U+30E4_U+30FC 1
 62
   179
420
  2234388
370
    25
100
AcDbVertex
100
AcDb2dVertex
 10
102.7132934906767
 20
-156.2374813498294
 30
0.0
  0
VERTEX
  5
63
330
61
100
AcDbEntity
  8
_U+30EC_U+30A4_U+30E4_U+30FC 1
 62
   179
420
  2234388
370
    25
100
AcDbVertex
100
AcDb2dVertex
 10
102.7132934906767
 20
-156.7373674608159
 30
0.0
  0
SEQEND
  5
64
330
61
100
AcDbEntity
  8
_U+30EC_U+30A4_U+30E4_U+30FC 1
 62
   179
420
  2234388
370
    25
  0
POLYLINE
  5
65
330
1F
100
AcDbEntity
  8
_U+30EC_U+30A4_U+30E4_U+30FC 1
 62
   179
420
  2234388
370
    25
100
AcDb2dPolyline
 66
     1
 10
0.0
 20
0.0
 30
0.0
  0
VERTEX
  5
66
330
65
100
AcDbEntity
  8
_U+30EC_U+30A4_U+30E4_U+30FC 1
 62
   179
420
  2234388
370
    25
100
AcDbVertex
100
AcDb2dVertex
 10
94.7132461947749
 20
-157.2376063495797
 30
0.0
  0
VERTEX
  5
67
330
65
100
AcDbEntity
  8
_U+30EC_U+30A4_U+30E4_U+30FC 1
 62
   179
420
  2234388
370
    25
100
AcDbVertex
100
AcDb2dVertex
 10
102.7132934906767
 20
-156.7373674608159
 30
0.0
  0
SEQEND
  5
68
330
65
100
AcDbEntity
  8
_U+30EC_U+30A4_U+30E4_U+30FC 1
 62
   179
420
  2234388
370
    25
  0
SPLINE
  5
69
330
1F
100
AcDbEntity
  8
_U+30EC_U+30A4_U+30E4_U+30FC 1
 62
   179
420
  2234388
370
     9
100
AcDbSpline
210
0.0
220
0.0
230
1.0
 70
    11
 71
     3
 72
    17
 73
    13
 74
     0
 42
0.0000000001
 43
0.0000000001
 12
1.0
 22
0.0
 32
0.0
 13
1.0
 23
0.0
 33
0.0
 40
0.0
 40
0.0
 40
0.0
 40
0.0
 40
1.0
 40
1.0
 40
1.0
 40
2.0
 40
2.0
 40
2.0
 40
3.0
 40
3.0
 40
3.0
 40
4.0
 40
4.0
 40
4.0
 40
4.0
 10
117.8133138594358
 20
-142.2376716311073
 30
0.0
 10
117.8133138594358
 20
-142.1821796866768
 30
0.0
 10
117.7685110816691
 20
-142.1374121866879
 30
0.0
 10
117.7134042191031
 20
-142.1374121866879
 30
0.0
 10
117.6582650538431
 20
-142.1374121866879
 30
0.0
 10
117.6134975549853
 20
-142.1821796866768
 30
0.0
 10
117.6134975549853
 20
-142.2376716311073
 30
0.0
 10
117.6134975549853
 20
-142.2927755199822
 30
0.0
 10
117.6582650538431
 20
-142.3375782977489
 30
0.0
 10
117.7134042191031
 20
-142.3375782977489
 30
0.0
 10
117.7685110816691
 20
-142.3375782977489
 30
0.0
 10
117.8133138594358
 20
-142.2927755199822
 30
0.0
 10
117.8133138594358
 20
-142.2376716311073
 30
0.0
  0
SPLINE
  5
6A
330
1F
100
AcDbEntity
  8
_U+30EC_U+30A4_U+30E4_U+30FC 1
 62
   179
420
  2234388
370
     9
100
AcDbSpline
210
0.0
220
0.0
230
1.0
 70
    11
 71
     3
 72
    17
 73
    13
 74
     0
 42
0.0000000001
 43
0.0000000001
 12
1.0
 22
0.0
 32
0.0
 13
1.0
 23
0.0
 33
0.0
 40
0.0
 40
0.0
 40
0.0
 40
0.0
 40
1.0
 40
1.0
 40
1.0
 40
2.0
 40
2.0
 40
2.0
 40
3.0
 40
3.0
 40
3.0
 40
4.0
 40
4.0
 40
4.0
 40
4.0
 10
117.8133138594358
 20
-143.2374085753017
 30
0.0
 10
117.8133138594358
 20
-143.1823046864268
 30
0.0
 10
117.7685110816691
 20
-143.13750190866
 30
0.0
 10
117.7134042191031
 20
-143.13750190866
 30
0.0
 10
117.6582650538431
 20
-143.13750190866
 30
0.0
 10
117.6134975549853
 20
-143.1823046864268
 30
0.0
 10
117.6134975549853
 20
-143.2374085753017
 30
0.0
 10
117.6134975549853
 20
-143.2925477419548
 30
0.0
 10
117.6582650538431
 20
-143.3373152419433
 30
0.0
 10
117.7134042191031
 20
-143.3373152419433
 30
0.0
 10
117.7685110816691
 20
-143.3373152419433
 30
0.0
 10
117.8133138594358
 20
-143.2925477419548
 30
0.0
 10
117.8133138594358
 20
-143.2374085753017
 30
0.0
  0
SPLINE
  5
6B
330
1F
100
AcDbEntity
  8
_U+30EC_U+30A4_U+30E4_U+30FC 1
 62
   179
420
  2234388
370
     9
100
AcDbSpline
210
0.0
220
0.0
230
1.0
 70
    11
 71
     3
 72
    17
 73
    13
 74
     0
 42
0.0000000001
 43
0.0000000001
 12
1.0
 22
0.0
 32
0.0
 13
1.0
 23
0.0
 33
0.0
 40
0.0
 40
0.0
 40
0.0
 40
0.0
 40
1.0
 40
1.0
 40
1.0
 40
2.0
 40
2.0
 40
2.0
 40
3.0
 40
3.0
 40
3.0
 40
4.0
 40
4.0
 40
4.0
 40
4.0
 10
113.8135518185966
 20
-138.2373832987741
 30
0.0
 10
113.8135518185966
 20
-138.1822794098989
 30
0.0
 10
113.7687490419619
 20
-138.1374766321325
 30
0.0
 10
113.7136451544788
 20
-138.1374766321325
 30
0.0
 10
113.6578357114581
 20
-138.1374766321325
 30
0.0
 10
113.6130329348234
 20
-138.1822794098989
 30
0.0
 10
113.6130329348234
 20
-138.2373832987741
 30
0.0
 10
113.6130329348234
 20
-138.2926635765379
 30
0.0
 10
113.6578357114581
 20
-138.3374663543046
 30
0.0
 10
113.7136451544788
 20
-138.3374663543046
 30
0.0
 10
113.7687490419619
 20
-138.3374663543046
 30
0.0
 10
113.8135518185966
 20
-138.2926635765379
 30
0.0
 10
113.8135518185966
 20
-138.2373832987741
 30
0.0
  0
SPLINE
  5
6C
330
1F
100
AcDbEntity
  8
_U+30EC_U+30A4_U+30E4_U+30FC 1
 62
   179
420
  2234388
370
     9
100
AcDbSpline
210
0.0
220
0.0
230
1.0
 70
    11
 71
     3
 72
    17
 73
    13
 74
     0
 42
0.0000000001
 43
0.0000000001
 12
1.0
 22
0.0
 32
0.0
 13
1.0
 23
0.0
 33
0.0
 40
0.0
 40
0.0
 40
0.0
 40
0.0
 40
1.0
 40
1.0
 40
1.0
 40
2.0
 40
2.0
 40
2.0
 40
3.0
 40
3.0
 40
3.0
 40
4.0
 40
4.0
 40
4.0
 40
4.0
 10
91.81334237986871
 20
-138.2373832987741
 30
0.0
 10
91.81334237986871
 20
-138.1822794098989
 30
0.0
 10
91.76853960323395
 20
-138.1374766321325
 30
0.0
 10
91.71325932686649
 20
-138.1374766321325
 30
0.0
 10
91.65815543938342
 20
-138.1374766321325
 30
0.0
 10
91.61335266274865
 20
-138.1822794098989
 30
0.0
 10
91.61335266274865
 20
-138.2373832987741
 30
0.0
 10
91.61335266274865
 20
-138.2926635765379
 30
0.0
 10
91.65815543938342
 20
-138.3374663543046
 30
0.0
 10
91.71325932686649
 20
-138.3374663543046
 30
0.0
 10
91.76853960323395
 20
-138.3374663543046
 30
0.0
 10
91.81334237986871
 20
-138.2926635765379
 30
0.0
 10
91.81334237986871
 20
-138.2373832987741
 30
0.0
  0
SPLINE
  5
6D
330
1F
100
AcDbEntity
  8
_U+30EC_U+30A4_U+30E4_U+30FC 1
 62
   179
420
  2234388
370
     9
100
AcDbSpline
210
0.0
220
0.0
230
1.0
 70
    11
 71
     3
 72
    17
 73
    13
 74
     0
 42
0.0000000001
 43
0.0000000001
 12
1.0
 22
0.0
 32
0.0
 13
1.0
 23
0.0
 33
0.0
 40
0.0
 40
0.0
 40
0.0
 40
0.0
 40
1.0
 40
1.0
 40
1.0
 40
2.0
 40
2.0
 40
2.0
 40
3.0
 40
3.0
 40
3.0
 40
4.0
 40
4.0
 40
4.0
 40
4.0
 10
117.8133138594358
 20
-156.2374813498294
 30
0.0
 10
117.8133138594358
 20
-156.1823774609544
 30
0.0
 10
117.7685110816691
 20
-156.1375746831877
 30
0.0
 10
117.7134042191031
 20
-156.1375746831877
 30
0.0
 10
117.6582650538431
 20
-156.1375746831877
 30
0.0
 10
117.6134975549853
 20
-156.1823774609544
 30
0.0
 10
117.6134975549853
 20
-156.2374813498294
 30
0.0
 10
117.6134975549853
 20
-156.2926205164824
 30
0.0
 10
117.6582650538431
 20
-156.337388016471
 30
0.0
 10
117.7134042191031
 20
-156.337388016471
 30
0.0
 10
117.7685110816691
 20
-156.337388016471
 30
0.0
 10
117.8133138594358
 20
-156.2926205164824
 30
0.0
 10
117.8133138594358
 20
-156.2374813498294
 30
0.0
  0
SPLINE
  5
6E
330
1F
100
AcDbEntity
  8
_U+30EC_U+30A4_U+30E4_U+30FC 1
 62
   179
420
  2234388
370
     9
100
AcDbSpline
210
0.0
220
0.0
230
1.0
 70
    11
 71
     3
 72
    17
 73
    13
 74
     0
 42
0.0000000001
 43
0.0000000001
 12
1.0
 22
0.0
 32
0.0
 13
1.0
 23
0.0
 33
0.0
 40
0.0
 40
0.0
 40
0.0
 40
0.0
 40
1.0
 40
1.0
 40
1.0
 40
2.0
 40
2.0
 40
2.0
 40
3.0
 40
3.0
 40
3.0
 40
4.0
 40
4.0
 40
4.0
 40
4.0
 10
106.8131003305263
 20
-156.2374813498294
 30
0.0
 10
106.8131003305263
 20
-156.1823774609544
 30
0.0
 10
106.7683328316685
 20
-156.1375746831877
 30
0.0
 10
106.7131936664085
 20
-156.1375746831877
 30
0.0
 10
106.6580897789254
 20
-156.1375746831877
 30
0.0
 10
106.6132870022907
 20
-156.1823774609544
 30
0.0
 10
106.6132870022907
 20
-156.2374813498294
 30
0.0
 10
106.6132870022907
 20
-156.2926205164824
 30
0.0
 10
106.6580897789254
 20
-156.337388016471
 30
0.0
 10
106.7131936664085
 20
-156.337388016471
 30
0.0
 10
106.7683328316685
 20
-156.337388016471
 30
0.0
 10
106.8131003305263
 20
-156.2926205164824
 30
0.0
 10
106.8131003305263
 20
-156.2374813498294
 30
0.0
  0
SPLINE
  5
6F
330
1F
100
AcDbEntity
  8
_U+30EC_U+30A4_U+30E4_U+30FC 1
 62
   179
420
  2234388
370
     9
100
AcDbSpline
210
0.0
220
0.0
230
1.0
 70
    11
 71
     3
 72
    17
 73
    13
 74
     0
 42
0.0000000001
 43
0.0000000001
 12
1.0
 22
0.0
 32
0.0
 13
1.0
 23
0.0
 33
0.0
 40
0.0
 40
0.0
 40
0.0
 40
0.0
 40
1.0
 40
1.0
 40
1.0
 40
2.0
 40
2.0
 40
2.0
 40
3.0
 40
3.0
 40
3.0
 40
4.0
 40
4.0
 40
4.0
 40
4.0
 10
106.8131003305263
 20
-156.7373674608159
 30
0.0
 10
106.8131003305263
 20
-156.6822635719404
 30
0.0
 10
106.7683328316685
 20
-156.6374607941736
 30
0.0
 10
106.7131936664085
 20
-156.6374607941736
 30
0.0
 10
106.6580897789254
 20
-156.6374607941736
 30
0.0
 10
106.6132870022907
 20
-156.6822635719404
 30
0.0
 10
106.6132870022907
 20
-156.7373674608159
 30
0.0
 10
106.6132870022907
 20
-156.7928241274686
 30
0.0
 10
106.6580897789254
 20
-156.8372741274576
 30
0.0
 10
106.7131936664085
 20
-156.8372741274576
 30
0.0
 10
106.7683328316685
 20
-156.8372741274576
 30
0.0
 10
106.8131003305263
 20
-156.7928241274686
 30
0.0
 10
106.8131003305263
 20
-156.7373674608159
 30
0.0
  0
SPLINE
  5
70
330
1F
100
AcDbEntity
  8
_U+30EC_U+30A4_U+30E4_U+30FC 1
 62
   179
420
  2234388
370
     9
100
AcDbSpline
210
0.0
220
0.0
230
1.0
 70
    11
 71
     3
 72
    17
 73
    13
 74
     0
 42
0.0000000001
 43
0.0000000001
 12
1.0
 22
0.0
 32
0.0
 13
1.0
 23
0.0
 33
0.0
 40
0.0
 40
0.0
 40
0.0
 40
0.0
 40
1.0
 40
1.0
 40
1.0
 40
2.0
 40
2.0
 40
2.0
 40
3.0
 40
3.0
 40
3.0
 40
4.0
 40
4.0
 40
4.0
 40
4.0
 10
102.8135176547864
 20
-161.2373655152465
 30
0.0
 10
102.8135176547864
 20
-161.1822263485934
 30
0.0
 10
102.7687527520856
 20
-161.1374588486043
 30
0.0
 10
102.7132934906767
 20
-161.1374588486043
 30
0.0
 10
102.6581543254167
 20
-161.1374588486043
 30
0.0
 10
102.6133868265589
 20
-161.1822263485934
 30
0.0
 10
102.6133868265589
 20
-161.2373655152465
 30
0.0
 10
102.6133868265589
 20
-161.2928221818992
 30
0.0
 10
102.6581543254167
 20
-161.3376249596653
 30
0.0
 10
102.7132934906767
 20
-161.3376249596653
 30
0.0
 10
102.7687527520856
 20
-161.3376249596653
 30
0.0
 10
102.8135176547864
 20
-161.2928221818992
 30
0.0
 10
102.8135176547864
 20
-161.2373655152465
 30
0.0
  0
SPLINE
  5
71
330
1F
100
AcDbEntity
  8
_U+30EC_U+30A4_U+30E4_U+30FC 1
 62
   179
420
  2234388
370
     9
100
AcDbSpline
210
0.0
220
0.0
230
1.0
 70
    11
 71
     3
 72
    17
 73
    13
 74
     0
 42
0.0000000001
 43
0.0000000001
 12
1.0
 22
0.0
 32
0.0
 13
1.0
 23
0.0
 33
0.0
 40
0.0
 40
0.0
 40
0.0
 40
0.0
 40
1.0
 40
1.0
 40
1.0
 40
2.0
 40
2.0
 40
2.0
 40
3.0
 40
3.0
 40
3.0
 40
4.0
 40
4.0
 40
4.0
 40
4.0
 10
94.81332924777712
 20
-161.2373655152465
 30
0.0
 10
94.81332924777712
 20
-161.1822263485934
 30
0.0
 10
94.76856174891923
 20
-161.1374588486043
 30
0.0
 10
94.7132461947749
 20
-161.1374588486043
 30
0.0
 10
94.65814230729183
 20
-161.1374588486043
 30
0.0
 10
94.61333953065706
 20
-161.1822263485934
 30
0.0
 10
94.61333953065706
 20
-161.2373655152465
 30
0.0
 10
94.61333953065706
 20
-161.2928221818992
 30
0.0
 10
94.65814230729183
 20
-161.3376249596653
 30
0.0
 10
94.7132461947749
 20
-161.3376249596653
 30
0.0
 10
94.76856174891923
 20
-161.3376249596653
 30
0.0
 10
94.81332924777712
 20
-161.2928221818992
 30
0.0
 10
94.81332924777712
 20
-161.2373655152465
 30
0.0
  0
SPLINE
  5
72
330
1F
100
AcDbEntity
  8
_U+30EC_U+30A4_U+30E4_U+30FC 1
 62
   179
420
  2234388
370
     9
100
AcDbSpline
210
0.0
220
0.0
230
1.0
 70
    11
 71
     3
 72
    17
 73
    13
 74
     0
 42
0.0000000001
 43
0.0000000001
 12
1.0
 22
0.0
 32
0.0
 13
1.0
 23
0.0
 33
0.0
 40
0.0
 40
0.0
 40
0.0
 40
0.0
 40
1.0
 40
1.0
 40
1.0
 40
2.0
 40
2.0
 40
2.0
 40
3.0
 40
3.0
 40
3.0
 40
4.0
 40
4.0
 40
4.0
 40
4.0
 10
91.81334237986871
 20
-161.2373655152465
 30
0.0
 10
91.81334237986871
 20
-161.1822263485934
 30
0.0
 10
91.76853960323395
 20
-161.1374588486043
 30
0.0
 10
91.71325932686649
 20
-161.1374588486043
 30
0.0
 10
91.65815543938342
 20
-161.1374588486043
 30
0.0
 10
91.61335266274865
 20
-161.1822263485934
 30
0.0
 10
91.61335266274865
 20
-161.2373655152465
 30
0.0
 10
91.61335266274865
 20
-161.2928221818992
 30
0.0
 10
91.65815543938342
 20
-161.3376249596653
 30
0.0
 10
91.71325932686649
 20
-161.3376249596653
 30
0.0
 10
91.76853960323395
 20
-161.3376249596653
 30
0.0
 10
91.81334237986871
 20
-161.2928221818992
 30
0.0
 10
91.81334237986871
 20
-161.2373655152465
 30
0.0
  0
POLYLINE
  5
73
330
1F
100
AcDbEntity
  8
_U+30EC_U+30A4_U+30E4_U+30FC 1
 62
   179
420
  2234388
370
     9
100
AcDb2dPolyline
 66
     1
 10
0.0
 20
0.0
 30
0.0
  0
VERTEX
  5
74
330
73
100
AcDbEntity
  8
_U+30EC_U+30A4_U+30E4_U+30FC 1
 62
   179
420
  2234388
370
     9
100
AcDbVertex
100
AcDb2dVertex
 10
117.7134042191031
 20
-142.2376716311073
 30
0.0
  0
VERTEX
  5
75
330
73
100
AcDbEntity
  8
_U+30EC_U+30A4_U+30E4_U+30FC 1
 62
   179
420
  2234388
370
     9
100
AcDbVertex
100
AcDb2dVertex
 10
117.7134042191031
 20
-138.4673591320499
 30
0.0
  0
SEQEND
  5
76
330
73
100
AcDbEntity
  8
_U+30EC_U+30A4_U+30E4_U+30FC 1
 62
   179
420
  2234388
370
     9
  0
POLYLINE
  5
77
330
1F
100
AcDbEntity
  8
_U+30EC_U+30A4_U+30E4_U+30FC 1
 62
   179
420
  2234388
370
     9
100
AcDb2dPolyline
 66
     1
 10
0.0
 20
0.0
 30
0.0
  0
VERTEX
  5
78
330
77
100
AcDbEntity
  8
_U+30EC_U+30A4_U+30E4_U+30FC 1
 62
   179
420
  2234388
370
     9
100
AcDbVertex
100
AcDb2dVertex
 10
117.7134042191031
 20
-142.2376716311073
 30
0.0
  0
VERTEX
  5
79
330
77
100
AcDbEntity
  8
_U+30EC_U+30A4_U+30E4_U+30FC 1
 62
   179
420
  2234388
370
     9
100
AcDbVertex
100
AcDb2dVertex
 10
117.7134042191031
 20
-143.2374085753017
 30
0.0
  0
SEQEND
  5
7A
330
77
100
AcDbEntity
  8
_U+30EC_U+30A4_U+30E4_U+30FC 1
 62
   179
420
  2234388
370
     9
  0
POLYLINE
  5
7B
330
1F
100
AcDbEntity
  8
_U+30EC_U+30A4_U+30E4_U+30FC 1
 62
   179
420
  2234388
370
     9
100
AcDb2dPolyline
 66
     1
 10
0.0
 20
0.0
 30
0.0
  0
VERTEX
  5
7C
330
7B
100
AcDbEntity
  8
_U+30EC_U+30A4_U+30E4_U+30FC 1
 62
   179
420
  2234388
370
     9
100
AcDbVertex
100
AcDb2dVertex
 10
116.253362867463
 20
-142.2376716311073
 30
0.0
  0
VERTEX
  5
7D
330
7B
100
AcDbEntity
  8
_U+30EC_U+30A4_U+30E4_U+30FC 1
 62
   179
420
  2234388
370
     9
100
AcDbVertex
100
AcDb2dVertex
 10
118.713176415819
 20
-142.2376716311073
 30
0.0
  0
SEQEND
  5
7E
330
7B
100
AcDbEntity
  8
_U+30EC_U+30A4_U+30E4_U+30FC 1
 62
   179
420
  2234388
370
     9
  0
POLYLINE
  5
7F
330
1F
100
AcDbEntity
  8
_U+30EC_U+30A4_U+30E4_U+30FC 1
 62
   179
420
  2234388
370
     9
100
AcDb2dPolyline
 66
     1
 10
0.0
 20
0.0
 30
0.0
  0
VERTEX
  5
80
330
7F
100
AcDbEntity
  8
_U+30EC_U+30A4_U+30E4_U+30FC 1
 62
   179
420
  2234388
370
     9
100
AcDbVertex
100
AcDb2dVertex
 10
116.253362867463
 20
-143.2374085753017
 30
0.0
  0
VERTEX
  5
81
330
7F
100
AcDbEntity
  8
_U+30EC_U+30A4_U+30E4_U+30FC 1
 62
   179
420
  2234388
370
     9
100
AcDbVertex
100
AcDb2dVertex
 10
118.713176415819
 20
-143.2374085753017
 30
0.0
  0
SEQEND
  5
82
330
7F
100
AcDbEntity
  8
_U+30EC_U+30A4_U+30E4_U+30FC 1
 62
   179
420
  2234388
370
     9
  0
INSERT
  5
84
330
1F
100
AcDbEntity
  8
_U+30EC_U+30A4_U+30E4_U+30FC 1
100
AcDbBlockReference
  2
block 2
 10
0.0
 20
0.0
 30
0.0
  0
POLYLINE
  5
89
330
1F
100
AcDbEntity
  8
_U+30EC_U+30A4_U+30E4_U+30FC 1
 62
   179
420
  2234388
370
     9
100
AcDb2dPolyline
 66
     1
 10
0.0
 20
0.0
 30
0.0
  0
VERTEX
  5
8A
330
89
100
AcDbEntity
  8
_U+30EC_U+30A4_U+30E4_U+30FC 1
 62
   179
420
  2234388
370
     9
100
AcDbVertex
100
AcDb2dVertex
 10
91.71325932686649
 20
-138.2373832987741
 30
0.0
  0
VERTEX
  5
8B
330
89
100
AcDbEntity
  8
_U+30EC_U+30A4_U+30E4_U+30FC 1
 62
   179
420
  2234388
370
     9
100
AcDbVertex
100
AcDb2dVertex
 10
113.7136451544788
 20
-138.2373832987741
 30
0.0
  0
SEQEND
  5
8C
330
89
100
AcDbEntity
  8
_U+30EC_U+30A4_U+30E4_U+30FC 1
 62
   179
420
  2234388
370
     9
  0
POLYLINE
  5
8D
330
1F
100
AcDbEntity
  8
_U+30EC_U+30A4_U+30E4_U+30FC 1
 62
   179
420
  2234388
370
     9
100
AcDb2dPolyline
 66
     1
 10
0.0
 20
0.0
 30
0.0
  0
VERTEX
  5
8E
330
8D
100
AcDbEntity
  8
_U+30EC_U+30A4_U+30E4_U+30FC 1
 62
   179
420
  2234388
370
     9
100
AcDbVertex
100
AcDb2dVertex
 10
91.71325932686649
 20
-139.6972482984089
 30
0.0
  0
VERTEX
  5
8F
330
8D
100
AcDbEntity
  8
_U+30EC_U+30A4_U+30E4_U+30FC 1
 62
   179
420
  2234388
370
     9
100
AcDbVertex
100
AcDb2dVertex
 10
91.71325932686649
 20
-137.237434687913
 30
0.0
  0
SEQEND
  5
90
330
8D
100
AcDbEntity
  8
_U+30EC_U+30A4_U+30E4_U+30FC 1
 62
   179
420
  2234388
370
     9
  0
POLYLINE
  5
91
330
1F
100
AcDbEntity
  8
_U+30EC_U+30A4_U+30E4_U+30FC 1
 62
   179
420
  2234388
370
     9
100
AcDb2dPolyline
 66
     1
 10
0.0
 20
0.0
 30
0.0
  0
VERTEX
  5
92
330
91
100
AcDbEntity
  8
_U+30EC_U+30A4_U+30E4_U+30FC 1
 62
   179
420
  2234388
370
     9
100
AcDbVertex
100
AcDb2dVertex
 10
113.7136451544788
 20
-139.6972482984089
 30
0.0
  0
VERTEX
  5
93
330
91
100
AcDbEntity
  8
_U+30EC_U+30A4_U+30E4_U+30FC 1
 62
   179
420
  2234388
370
     9
100
AcDbVertex
100
AcDb2dVertex
 10
113.7136451544788
 20
-137.237434687913
 30
0.0
  0
SEQEND
  5
94
330
91
100
AcDbEntity
  8
_U+30EC_U+30A4_U+30E4_U+30FC 1
 62
   179
420
  2234388
370
     9
  0
INSERT
  5
96
330
1F
100
AcDbEntity
  8
_U+30EC_U+30A4_U+30E4_U+30FC 1
100
AcDbBlockReference
  2
block 3
 10
0.0
 20
0.0
 30
0.0
  0
POLYLINE
  5
9D
330
1F
100
AcDbEntity
  8
_U+30EC_U+30A4_U+30E4_U+30FC 1
 62
   179
420
  2234388
370
     9
100
AcDb2dPolyline
 66
     1
 10
0.0
 20
0.0
 30
0.0
  0
VERTEX
  5
9E
330
9D
100
AcDbEntity
  8
_U+30EC_U+30A4_U+30E4_U+30FC 1
 62
   179
420
  2234388
370
     9
100
AcDbVertex
100
AcDb2dVertex
 10
106.7131936664085
 20
-156.2374813498294
 30
0.0
  0
VERTEX
  5
9F
330
9D
100
AcDbEntity
  8
_U+30EC_U+30A4_U+30E4_U+30FC 1
 62
   179
420
  2234388
370
     9
100
AcDbVertex
100
AcDb2dVertex
 10
106.7131936664085
 20
-150.9795755178104
 30
0.0
  0
SEQEND
  5
A0
330
9D
100
AcDbEntity
  8
_U+30EC_U+30A4_U+30E4_U+30FC 1
 62
   179
420
  2234388
370
     9
  0
POLYLINE
  5
A1
330
1F
100
AcDbEntity
  8
_U+30EC_U+30A4_U+30E4_U+30FC 1
 62
   179
420
  2234388
370
     9
100
AcDb2dPolyline
 66
     1
 10
0.0
 20
0.0
 30
0.0
  0
VERTEX
  5
A2
330
A1
100
AcDbEntity
  8
_U+30EC_U+30A4_U+30E4_U+30FC 1
 62
   179
420
  2234388
370
     9
100
AcDbVertex
100
AcDb2dVertex
 10
106.7131936664085
 20
-156.2374813498294
 30
0.0
  0
VERTEX
  5
A3
330
A1
100
AcDbEntity
  8
_U+30EC_U+30A4_U+30E4_U+30FC 1
 62
   179
420
  2234388
370
     9
100
AcDbVertex
100
AcDb2dVertex
 10
106.7131936664085
 20
-157.7374924605656
 30
0.0
  0
SEQEND
  5
A4
330
A1
100
AcDbEntity
  8
_U+30EC_U+30A4_U+30E4_U+30FC 1
 62
   179
420
  2234388
370
     9
  0
POLYLINE
  5
A5
330
1F
100
AcDbEntity
  8
_U+30EC_U+30A4_U+30E4_U+30FC 1
 62
   179
420
  2234388
370
     9
100
AcDb2dPolyline
 66
     1
 10
0.0
 20
0.0
 30
0.0
  0
VERTEX
  5
A6
330
A5
100
AcDbEntity
  8
_U+30EC_U+30A4_U+30E4_U+30FC 1
 62
   179
420
  2234388
370
     9
100
AcDbVertex
100
AcDb2dVertex
 10
105.2533666403532
 20
-156.2374813498294
 30
0.0
  0
VERTEX
  5
A7
330
A5
100
AcDbEntity
  8
_U+30EC_U+30A4_U+30E4_U+30FC 1
 62
   179
420
  2234388
370
     9
100
AcDbVertex
100
AcDb2dVertex
 10
107.7129658631244
 20
-156.2374813498294
 30
0.0
  0
SEQEND
  5
A8
330
A5
100
AcDbEntity
  8
_U+30EC_U+30A4_U+30E4_U+30FC 1
 62
   179
420
  2234388
370
     9
  0
POLYLINE
  5
A9
330
1F
100
AcDbEntity
  8
_U+30EC_U+30A4_U+30E4_U+30FC 1
 62
   179
420
  2234388
370
     9
100
AcDb2dPolyline
 66
     1
 10
0.0
 20
0.0
 30
0.0
  0
VERTEX
  5
AA
330
A9
100
AcDbEntity
  8
_U+30EC_U+30A4_U+30E4_U+30FC 1
 62
   179
420
  2234388
370
     9
100
AcDbVertex
100
AcDb2dVertex
 10
105.2533666403532
 20
-156.7373674608159
 30
0.0
  0
VERTEX
  5
AB
330
A9
100
AcDbEntity
  8
_U+30EC_U+30A4_U+30E4_U+30FC 1
 62
   179
420
  2234388
370
     9
100
AcDbVertex
100
AcDb2dVertex
 10
107.7129658631244
 20
-156.7373674608159
 30
0.0
  0
SEQEND
  5
AC
330
A9
100
AcDbEntity
  8
_U+30EC_U+30A4_U+30E4_U+30FC 1
 62
   179
420
  2234388
370
     9
  0
INSERT
  5
AE
330
1F
100
AcDbEntity
  8
_U+30EC_U+30A4_U+30E4_U+30FC 1
100
AcDbBlockReference
  2
block 4
 10
0.0
 20
0.0
 30
0.0
  0
POLYLINE
  5
BE
330
1F
100
AcDbEntity
  8
_U+30EC_U+30A4_U+30E4_U+30FC 1
 62
   179
420
  2234388
370
     9
100
AcDb2dPolyline
 66
     1
 10
0.0
 20
0.0
 30
0.0
  0
VERTEX
  5
BF
330
BE
100
AcDbEntity
  8
_U+30EC_U+30A4_U+30E4_U+30FC 1
 62
   179
420
  2234388
370
     9
100
AcDbVertex
100
AcDb2dVertex
 10
94.7132461947749
 20
-161.2373655152465
 30
0.0
  0
VERTEX
  5
C0
330
BE
100
AcDbEntity
  8
_U+30EC_U+30A4_U+30E4_U+30FC 1
 62
   179
420
  2234388
370
     9
100
AcDbVertex
100
AcDb2dVertex
 10
102.7132934906767
 20
-161.2373655152465
 30
0.0
  0
SEQEND
  5
C1
330
BE
100
AcDbEntity
  8
_U+30EC_U+30A4_U+30E4_U+30FC 1
 62
   179
420
  2234388
370
     9
  0
POLYLINE
  5
C2
330
1F
100
AcDbEntity
  8
_U+30EC_U+30A4_U+30E4_U+30FC 1
 62
   179
420
  2234388
370
     9
100
AcDb2dPolyline
 66
     1
 10
0.0
 20
0.0
 30
0.0
  0
VERTEX
  5
C3
330
C2
100
AcDbEntity
  8
_U+30EC_U+30A4_U+30E4_U+30FC 1
 62
   179
420
  2234388
370
     9
100
AcDbVertex
100
AcDb2dVertex
 10
94.7132461947749
 20
-159.7773241267222
 30
0.0
  0
VERTEX
  5
C4
330
C2
100
AcDbEntity
  8
_U+30EC_U+30A4_U+30E4_U+30FC 1
 62
   179
420
  2234388
370
     9
100
AcDbVertex
100
AcDb2dVertex
 10
94.7132461947749
 20
-162.2374552372187
 30
0.0
  0
SEQEND
  5
C5
330
C2
100
AcDbEntity
  8
_U+30EC_U+30A4_U+30E4_U+30FC 1
 62
   179
420
  2234388
370
     9
  0
POLYLINE
  5
C6
330
1F
100
AcDbEntity
  8
_U+30EC_U+30A4_U+30E4_U+30FC 1
 62
   179
420
  2234388
370
     9
100
AcDb2dPolyline
 66
     1
 10
0.0
 20
0.0
 30
0.0
  0
VERTEX
  5
C7
330
C6
100
AcDbEntity
  8
_U+30EC_U+30A4_U+30E4_U+30FC 1
 62
   179
420
  2234388
370
     9
100
AcDbVertex
100
AcDb2dVertex
 10
102.7132934906767
 20
-159.2774380157362
 30
0.0
  0
VERTEX
  5
C8
330
C6
100
AcDbEntity
  8
_U+30EC_U+30A4_U+30E4_U+30FC 1
 62
   179
420
  2234388
370
     9
100
AcDbVertex
100
AcDb2dVertex
 10
102.7132934906767
 20
-162.2374552372187
 30
0.0
  0
SEQEND
  5
C9
330
C6
100
AcDbEntity
  8
_U+30EC_U+30A4_U+30E4_U+30FC 1
 62
   179
420
  2234388
370
     9
  0
INSERT
  5
CB
330
1F
100
AcDbEntity
  8
_U+30EC_U+30A4_U+30E4_U+30FC 1
100
AcDbBlockReference
  2
block 5
 10
0.0
 20
0.0
 30
0.0
  0
POLYLINE
  5
D2
330
1F
100
AcDbEntity
  8
_U+30EC_U+30A4_U+30E4_U+30FC 1
 62
   179
420
  2234388
370
     9
100
AcDb2dPolyline
 66
     1
 10
0.0
 20
0.0
 30
0.0
  0
VERTEX
  5
D3
330
D2
100
AcDbEntity
  8
_U+30EC_U+30A4_U+30E4_U+30FC 1
 62
   179
420
  2234388
370
     9
100
AcDbVertex
100
AcDb2dVertex
 10
91.71325932686649
 20
-161.2373655152465
 30
0.0
  0
VERTEX
  5
D4
330
D2
100
AcDbEntity
  8
_U+30EC_U+30A4_U+30E4_U+30FC 1
 62
   179
420
  2234388
370
     9
100
AcDbVertex
100
AcDb2dVertex
 10
94.7132461947749
 20
-161.2373655152465
 30
0.0
  0
SEQEND
  5
D5
330
D2
100
AcDbEntity
  8
_U+30EC_U+30A4_U+30E4_U+30FC 1
 62
   179
420
  2234388
370
     9
  0
POLYLINE
  5
D6
330
1F
100
AcDbEntity
  8
_U+30EC_U+30A4_U+30E4_U+30FC 1
 62
   179
420
  2234388
370
     9
100
AcDb2dPolyline
 66
     1
 10
0.0
 20
0.0
 30
0.0
  0
VERTEX
  5
D7
330
D6
100
AcDbEntity
  8
_U+30EC_U+30A4_U+30E4_U+30FC 1
 62
   179
420
  2234388
370
     9
100
AcDbVertex
100
AcDb2dVertex
 10
91.71325932686649
 20
-145.7774791302223
 30
0.0
  0
VERTEX
  5
D8
330
D6
100
AcDbEntity
  8
_U+30EC_U+30A4_U+30E4_U+30FC 1
 62
   179
420
  2234388
370
     9
100
AcDbVertex
100
AcDb2dVertex
 10
91.71325932686649
 20
-162.2374552372187
 30
0.0
  0
SEQEND
  5
D9
330
D6
100
AcDbEntity
  8
_U+30EC_U+30A4_U+30E4_U+30FC 1
 62
   179
420
  2234388
370
     9
  0
INSERT
  5
DB
330
1F
100
AcDbEntity
  8
_U+30EC_U+30A4_U+30E4_U+30FC 1
100
AcDbBlockReference
  2
block 6
 10
0.0
 20
0.0
 30
0.0
  0
POLYLINE
  5
E0
330
1F
100
AcDbEntity
  8
_U+30EC_U+30A4_U+30E4_U+30FC 1
 62
   179
420
  2234388
370
     9
100
AcDb2dPolyline
 66
     1
 10
0.0
 20
0.0
 30
0.0
  0
VERTEX
  5
E1
330
E0
100
AcDbEntity
  8
_U+30EC_U+30A4_U+30E4_U+30FC 1
 62
   179
420
  2234388
370
     9
100
AcDbVertex
100
AcDb2dVertex
 10
117.7134042191031
 20
-143.2374085753017
 30
0.0
  0
VERTEX
  5
E2
330
E0
100
AcDbEntity
  8
_U+30EC_U+30A4_U+30E4_U+30FC 1
 62
   179
420
  2234388
370
     9
100
AcDbVertex
100
AcDb2dVertex
 10
117.7134042191031
 20
-156.2374813498294
 30
0.0
  0
SEQEND
  5
E3
330
E0
100
AcDbEntity
  8
_U+30EC_U+30A4_U+30E4_U+30FC 1
 62
   179
420
  2234388
370
     9
  0
POLYLINE
  5
E4
330
1F
100
AcDbEntity
  8
_U+30EC_U+30A4_U+30E4_U+30FC 1
 62
   179
420
  2234388
370
     9
100
AcDb2dPolyline
 66
     1
 10
0.0
 20
0.0
 30
0.0
  0
VERTEX
  5
E5
330
E4
100
AcDbEntity
  8
_U+30EC_U+30A4_U+30E4_U+30FC 1
 62
   179
420
  2234388
370
     9
100
AcDbVertex
100
AcDb2dVertex
 10
105.2533666403532
 20
-156.2374813498294
 30
0.0
  0
VERTEX
  5
E6
330
E4
100
AcDbEntity
  8
_U+30EC_U+30A4_U+30E4_U+30FC 1
 62
   179
420
  2234388
370
     9
100
AcDbVertex
100
AcDb2dVertex
 10
118.713176415819
 20
-156.2374813498294
 30
0.0
  0
SEQEND
  5
E7
330
E4
100
AcDbEntity
  8
_U+30EC_U+30A4_U+30E4_U+30FC 1
 62
   179
420
  2234388
370
     9
  0
INSERT
  5
E9
330
1F
100
AcDbEntity
  8
_U+30EC_U+30A4_U+30E4_U+30FC 1
100
AcDbBlockReference
  2
block 7
 10
0.0
 20
0.0
 30
0.0
  0
ENDSEC
  0
SECTION
  2
OBJECTS
  0
DICTIONARY
  5
C
330
0
100
AcDbDictionary
281
     1
  3
ACAD_GROUP
350
D
  3
ACAD_LAYOUT
350
1A
  3
ACAD_MATERIAL
350
3B
  3
ACAD_MLEADERSTYLE
350
F1
  3
ACAD_MLINESTYLE
350
17
  3
ACAD_PLOTSETTINGS
350
19
  3
ACAD_PLOTSTYLENAME
350
E
  3
ACAD_TABLESTYLE
350
F0
  3
ACAD_VISUALSTYLE
350
2A
  0
SUN
  5
3F
330
29
100
AcDbSun
 90
        1
290
     0
 63
     7
421
 16777215
 40
1.0
291
     1
 91
  2455826
 92
 54000000
292
     0
 70
     2
 71
   256
280
     1
  0
DICTIONARY
  5
D
102
{ACAD_REACTORS
330
C
102
}
330
C
100
AcDbDictionary
281
     1
  0
DICTIONARY
  5
1A
102
{ACAD_REACTORS
330
C
102
}
330
C
100
AcDbDictionary
281
     1
  3
Layout1
350
1E
  3
Layout2
350
26
  3
Model
350
22
  0
DICTIONARY
  5
3B
102
{ACAD_REACTORS
330
C
102
}
330
C
100
AcDbDictionary
281
     1
  3
ByBlock
350
3D
  3
ByLayer
350
3C
  3
Global
350
3E
  0
DICTIONARY
  5
F1
102
{ACAD_REACTORS
330
C
102
}
330
C
100
AcDbDictionary
281
     1
  0
DICTIONARY
  5
17
102
{ACAD_REACTORS
330
C
102
}
330
C
100
AcDbDictionary
281
     1
  3
Standard
350
18
  0
DICTIONARY
  5
19
102
{ACAD_REACTORS
330
C
102
}
330
C
100
AcDbDictionary
281
     1
  0
ACDBDICTIONARYWDFLT
  5
E
102
{ACAD_REACTORS
330
C
102
}
330
C
100
AcDbDictionary
281
     1
  3
Normal
350
F
100
AcDbDictionaryWithDefault
340
F
  0
DICTIONARY
  5
F0
102
{ACAD_REACTORS
330
C
102
}
330
C
100
AcDbDictionary
281
     1
  0
DICTIONARY
  5
2A
102
{ACAD_REACTORS
330
C
102
}
330
C
100
AcDbDictionary
281
     1
  3
2dWireframe
350
2F
  3
3D Hidden
350
31
  3
3dWireframe
350
30
  3
Basic
350
32
  3
Brighten
350
36
  3
ColorChange
350
3A
  3
Conceptual
350
34
  3
Dim
350
35
  3
Facepattern
350
39
  3
Flat
350
2B
  3
FlatWithEdges
350
2C
  3
Gouraud
350
2D
  3
GouraudWithEdges
350
2E
  3
Linepattern
350
38
  3
Realistic
350
33
  3
Thicken
350
37
  0
LAYOUT
  5
1E
102
{ACAD_REACTORS
330
1A
102
}
330
1A
100
AcDbPlotSettings
  1

  2
none_device
  4

  6

 40
0.0
 41
0.0
 42
0.0
 43
0.0
 44
0.0
 45
0.0
 46
0.0
 47
0.0
 48
0.0
 49
0.0
140
0.0
141
0.0
142
1.0
143
1.0
 70
   688
 72
     0
 73
     0
 74
     5
  7

 75
    16
 76
     0
 77
     2
 78
   300
147
1.0
148
0.0
149
0.0
100
AcDbLayout
  1
Layout1
 70
     1
 71
     1
 10
0.0
 20
0.0
 11
12.0
 21
9.0
 12
0.0
 22
0.0
 32
0.0
 14
1.000000000000000E+20
 24
1.000000000000000E+20
 34
1.000000000000000E+20
 15
-1.000000000000000E+20
 25
-1.000000000000000E+20
 35
-1.000000000000000E+20
146
0.0
 13
0.0
 23
0.0
 33
0.0
 16
1.0
 26
0.0
 36
0.0
 17
0.0
 27
1.0
 37
0.0
 76
     0
330
1B
  0
LAYOUT
  5
26
102
{ACAD_REACTORS
330
1A
102
}
330
1A
100
AcDbPlotSettings
  1

  2
none_device
  4

  6

 40
0.0
 41
0.0
 42
0.0
 43
0.0
 44
0.0
 45
0.0
 46
0.0
 47
0.0
 48
0.0
 49
0.0
140
0.0
141
0.0
142
1.0
143
1.0
 70
   688
 72
     0
 73
     0
 74
     5
  7

 75
    16
 76
     0
 77
     2
 78
   300
147
1.0
148
0.0
149
0.0
100
AcDbLayout
  1
Layout2
 70
     1
 71
     2
 10
0.0
 20
0.0
 11
0.0
 21
0.0
 12
0.0
 22
0.0
 32
0.0
 14
0.0
 24
0.0
 34
0.0
 15
0.0
 25
0.0
 35
0.0
146
0.0
 13
0.0
 23
0.0
 33
0.0
 16
1.0
 26
0.0
 36
0.0
 17
0.0
 27
1.0
 37
0.0
 76
     0
330
23
  0
LAYOUT
  5
22
102
{ACAD_REACTORS
330
1A
102
}
330
1A
100
AcDbPlotSettings
  1

  2
none_device
  4

  6

 40
0.0
 41
0.0
 42
0.0
 43
0.0
 44
0.0
 45
0.0
 46
0.0
 47
0.0
 48
0.0
 49
0.0
140
0.0
141
0.0
142
1.0
143
1.0
 70
  1712
 72
     0
 73
     0
 74
     0
  7

 75
     0
 76
     0
 77
     2
 78
   300
147
1.0
148
0.0
149
0.0
100
AcDbLayout
  1
Model
 70
     1
 71
     0
 10
0.0
 20
0.0
 11
12.0
 21
9.0
 12
0.0
 22
0.0
 32
0.0
 14
1.000000000000000E+20
 24
1.000000000000000E+20
 34
1.000000000000000E+20
 15
-1.000000000000000E+20
 25
-1.000000000000000E+20
 35
-1.000000000000000E+20
146
0.0
 13
0.0
 23
0.0
 33
0.0
 16
1.0
 26
0.0
 36
0.0
 17
0.0
 27
1.0
 37
0.0
 76
     0
330
1F
331
29
  0
MATERIAL
  5
3D
102
{ACAD_REACTORS
330
3B
102
}
330
3B
100
AcDbMaterial
  1
ByBlock
 72
     1
 94
      127
  0
MATERIAL
  5
3C
102
{ACAD_REACTORS
330
3B
102
}
330
3B
100
AcDbMaterial
  1
ByLayer
 72
     1
 94
      127
  0
MATERIAL
  5
3E
102
{ACAD_REACTORS
330
3B
102
}
330
3B
100
AcDbMaterial
  1
Global
 72
     1
 94
      127
  0
MLINESTYLE
  5
18
102
{ACAD_REACTORS
330
17
102
}
330
17
100
AcDbMlineStyle
  2
Standard
 70
     0
  3

 62
   256
 51
90.0
 52
90.0
 71
     2
 49
0.5
 62
   256
  6
BYLAYER
 49
-0.5
 62
   256
  6
BYLAYER
  0
ACDBPLACEHOLDER
  5
F
102
{ACAD_REACTORS
330
E
102
}
330
E
  0
VISUALSTYLE
  5
2F
102
{ACAD_REACTORS
330
2A
102
}
330
2A
100
AcDbVisualStyle
  2
2dWireframe
 70
     4
177
     2
291
     0
 71
     0
176
     1
 72
     2
176
     1
 73
     0
176
     1
 90
        0
176
     1
 40
-0.6
176
     1
 41
-30.0
176
     1
 62
     5
 63
     7
421
 16777215
176
     1
 74
     1
176
     1
 91
        4
176
     1
 64
     7
176
     1
 65
   257
176
     1
 75
     1
176
     1
175
     1
176
     1
 42
1.0
176
     1
 92
        0
176
     1
 66
   257
176
     1
 43
1.0
176
     1
 76
     1
176
     1
 77
     6
176
     1
 78
     2
176
     1
 67
     7
176
     1
 79
     5
176
     1
170
     0
176
     1
171
     0
176
     1
290
     0
176
     1
 93
        1
176
     1
 44
0.0
176
     1
173
     0
176
     1
  0
VISUALSTYLE
  5
31
102
{ACAD_REACTORS
330
2A
102
}
330
2A
100
AcDbVisualStyle
  2
3D Hidden
 70
     6
177
     2
291
     0
 71
     1
176
     1
 72
     2
176
     1
 73
     2
176
     1
 90
        0
176
     1
 40
-0.6
176
     1
 41
-30.0
176
     1
 62
     5
 63
     7
421
 16777215
176
     1
 74
     2
176
     1
 91
        2
176
     1
 64
     7
176
     1
 65
   257
176
     1
 75
     2
176
     1
175
     1
176
     1
 42
40.0
176
     1
 92
        0
176
     1
 66
   257
176
     1
 43
1.0
176
     1
 76
     1
176
     1
 77
     6
176
     1
 78
     2
176
     1
 67
     7
176
     1
 79
     3
176
     1
170
     0
176
     1
171
     0
176
     1
290
     0
176
     1
 93
        1
176
     1
 44
0.0
176
     1
173
     0
176
     1
  0
VISUALSTYLE
  5
30
102
{ACAD_REACTORS
330
2A
102
}
330
2A
100
AcDbVisualStyle
  2
3dWireframe
 70
     5
177
     2
291
     0
 71
     0
176
     1
 72
     2
176
     1
 73
     0
176
     1
 90
        0
176
     1
 40
-0.6
176
     1
 41
-30.0
176
     1
 62
     5
 63
     7
421
 16777215
176
     1
 74
     1
176
     1
 91
        4
176
     1
 64
     7
176
     1
 65
   257
176
     1
 75
     1
176
     1
175
     1
176
     1
 42
1.0
176
     1
 92
        0
176
     1
 66
   257
176
     1
 43
1.0
176
     1
 76
     1
176
     1
 77
     6
176
     1
 78
     2
176
     1
 67
     7
176
     1
 79
     5
176
     1
170
     0
176
     1
171
     0
176
     1
290
     0
176
     1
 93
        1
176
     1
 44
0.0
176
     1
173
     0
176
     1
  0
VISUALSTYLE
  5
32
102
{ACAD_REACTORS
330
2A
102
}
330
2A
100
AcDbVisualStyle
  2
Basic
 70
     7
177
     2
291
     1
 71
     1
176
     1
 72
     0
176
     1
 73
     1
176
     1
 90
        0
176
     1
 40
-0.6
176
     1
 41
-30.0
176
     1
 62
     5
 63
     7
421
 16777215
176
     1
 74
     0
176
     1
 91
        4
176
     1
 64
     7
176
     1
 65
   257
176
     1
 75
     1
176
     1
175
     1
176
     1
 42
1.0
176
     1
 92
        8
176
     1
 66
     7
176
     1
 43
1.0
176
     1
 76
     1
176
     1
 77
     6
176
     1
 78
     2
176
     1
 67
     7
176
     1
 79
     5
176
     1
170
     0
176
     1
171
     0
176
     1
290
     0
176
     1
 93
        1
176
     1
 44
0.0
176
     1
173
     0
176
     1
  0
VISUALSTYLE
  5
36
102
{ACAD_REACTORS
330
2A
102
}
330
2A
100
AcDbVisualStyle
  2
Brighten
 70
    12
177
     2
291
     1
 71
     2
176
     1
 72
     2
176
     1
 73
     0
176
     1
 90
        0
176
     1
 40
-0.6
176
     1
 41
-30.0
176
     1
 62
     5
 63
     7
421
 16777215
176
     1
 74
     1
176
     1
 91
        4
176
     1
 64
     7
176
     1
 65
   257
176
     1
 75
     1
176
     1
175
     1
176
     1
 42
1.0
176
     1
 92
        8
176
     1
 66
     7
176
     1
 43
1.0
176
     1
 76
     1
176
     1
 77
     6
176
     1
 78
     2
176
     1
 67
     7
176
     1
 79
     5
176
     1
170
     0
176
     1
171
     0
176
     1
290
     0
176
     1
 93
        1
176
     1
 44
50.0
176
     1
173
     0
176
     1
  0
VISUALSTYLE
  5
3A
102
{ACAD_REACTORS
330
2A
102
}
330
2A
100
AcDbVisualStyle
  2
ColorChange
 70
    16
177
     2
291
     1
 71
     2
176
     1
 72
     2
176
     1
 73
     3
176
     1
 90
        0
176
     1
 40
-0.6
176
     1
 41
-30.0
176
     1
 62
     5
 63
     8
421
  8421504
176
     1
 74
     1
176
     1
 91
        4
176
     1
 64
     7
176
     1
 65
   257
176
     1
 75
     1
176
     1
175
     1
176
     1
 42
1.0
176
     1
 92
        8
176
     1
 66
     8
424
  8421504
176
     1
 43
1.0
176
     1
 76
     1
176
     1
 77
     6
176
     1
 78
     2
176
     1
 67
     7
176
     1
 79
     5
176
     1
170
     0
176
     1
171
     0
176
     1
290
     0
176
     1
 93
        1
176
     1
 44
0.0
176
     1
173
     0
176
     1
  0
VISUALSTYLE
  5
34
102
{ACAD_REACTORS
330
2A
102
}
330
2A
100
AcDbVisualStyle
  2
Conceptual
 70
     9
177
     2
291
     0
 71
     3
176
     1
 72
     2
176
     1
 73
     0
176
     1
 90
        0
176
     1
 40
-0.6
176
     1
 41
-30.0
176
     1
 62
     5
 63
     7
421
 16777215
176
     1
 74
     2
176
     1
 91
        2
176
     1
 64
     7
176
     1
 65
   257
176
     1
 75
     1
176
     1
175
     1
176
     1
 42
40.0
176
     1
 92
        8
176
     1
 66
     7
176
     1
 43
1.0
176
     1
 76
     1
176
     1
 77
     6
176
     1
 78
     2
176
     1
 67
     7
176
     1
 79
     3
176
     1
170
     0
176
     1
171
     0
176
     1
290
     0
176
     1
 93
        1
176
     1
 44
0.0
176
     1
173
     0
176
     1
  0
VISUALSTYLE
  5
35
102
{ACAD_REACTORS
330
2A
102
}
330
2A
100
AcDbVisualStyle
  2
Dim
 70
    11
177
     2
291
     1
 71
     2
176
     1
 72
     2
176
     1
 73
     0
176
     1
 90
        0
176
     1
 40
-0.6
176
     1
 41
-30.0
176
     1
 62
     5
 63
     7
421
 16777215
176
     1
 74
     1
176
     1
 91
        4
176
     1
 64
     7
176
     1
 65
   257
176
     1
 75
     1
176
     1
175
     1
176
     1
 42
1.0
176
     1
 92
        8
176
     1
 66
     7
176
     1
 43
1.0
176
     1
 76
     1
176
     1
 77
     6
176
     1
 78
     2
176
     1
 67
     7
176
     1
 79
     5
176
     1
170
     0
176
     1
171
     0
176
     1
290
     0
176
     1
 93
        1
176
     1
 44
-50.0
176
     1
173
     0
176
     1
  0
VISUALSTYLE
  5
39
102
{ACAD_REACTORS
330
2A
102
}
330
2A
100
AcDbVisualStyle
  2
Facepattern
 70
    15
177
     2
291
     1
 71
     2
176
     1
 72
     2
176
     1
 73
     0
176
     1
 90
        0
176
     1
 40
-0.6
176
     1
 41
-30.0
176
     1
 62
     5
 63
     7
421
 16777215
176
     1
 74
     1
176
     1
 91
        4
176
     1
 64
     7
176
     1
 65
   257
176
     1
 75
     1
176
     1
175
     1
176
     1
 42
1.0
176
     1
 92
        8
176
     1
 66
     7
176
     1
 43
1.0
176
     1
 76
     1
176
     1
 77
     6
176
     1
 78
     2
176
     1
 67
     7
176
     1
 79
     5
176
     1
170
     0
176
     1
171
     0
176
     1
290
     0
176
     1
 93
        1
176
     1
 44
0.0
176
     1
173
     0
176
     1
  0
VISUALSTYLE
  5
2B
102
{ACAD_REACTORS
330
2A
102
}
330
2A
100
AcDbVisualStyle
  2
Flat
 70
     0
177
     2
291
     1
 71
     2
176
     1
 72
     1
176
     1
 73
     1
176
     1
 90
        2
176
     1
 40
-0.6
176
     1
 41
30.0
176
     1
 62
     5
 63
     7
421
 16777215
176
     1
 74
     0
176
     1
 91
        4
176
     1
 64
     7
176
     1
 65
   257
176
     1
 75
     1
176
     1
175
     1
176
     1
 42
1.0
176
     1
 92
        8
176
     1
 66
     7
176
     1
 43
1.0
176
     1
 76
     1
176
     1
 77
     6
176
     1
 78
     2
176
     1
 67
     7
176
     1
 79
     5
176
     1
170
     0
176
     1
171
     0
176
     1
290
     0
176
     1
 93
       13
176
     1
 44
0.0
176
     1
173
     0
176
     1
  0
VISUALSTYLE
  5
2C
102
{ACAD_REACTORS
330
2A
102
}
330
2A
100
AcDbVisualStyle
  2
FlatWithEdges
 70
     1
177
     2
291
     1
 71
     2
176
     1
 72
     1
176
     1
 73
     1
176
     1
 90
        2
176
     1
 40
-0.6
176
     1
 41
30.0
176
     1
 62
     5
 63
     7
421
 16777215
176
     1
 74
     1
176
     1
 91
        4
176
     1
 64
     7
176
     1
 65
   257
176
     1
 75
     1
176
     1
175
     1
176
     1
 42
1.0
176
     1
 92
        0
176
     1
 66
   257
176
     1
 43
1.0
176
     1
 76
     1
176
     1
 77
     6
176
     1
 78
     2
176
     1
 67
     7
176
     1
 79
     5
176
     1
170
     0
176
     1
171
     0
176
     1
290
     0
176
     1
 93
       13
176
     1
 44
0.0
176
     1
173
     0
176
     1
  0
VISUALSTYLE
  5
2D
102
{ACAD_REACTORS
330
2A
102
}
330
2A
100
AcDbVisualStyle
  2
Gouraud
 70
     2
177
     2
291
     1
 71
     2
176
     1
 72
     2
176
     1
 73
     1
176
     1
 90
        2
176
     1
 40
-0.6
176
     1
 41
30.0
176
     1
 62
     5
 63
     7
421
 16777215
176
     1
 74
     0
176
     1
 91
        4
176
     1
 64
     7
176
     1
 65
   257
176
     1
 75
     1
176
     1
175
     1
176
     1
 42
1.0
176
     1
 92
        0
176
     1
 66
     7
176
     1
 43
1.0
176
     1
 76
     1
176
     1
 77
     6
176
     1
 78
     2
176
     1
 67
     7
176
     1
 79
     5
176
     1
170
     0
176
     1
171
     0
176
     1
290
     0
176
     1
 93
       13
176
     1
 44
0.0
176
     1
173
     0
176
     1
  0
VISUALSTYLE
  5
2E
102
{ACAD_REACTORS
330
2A
102
}
330
2A
100
AcDbVisualStyle
  2
GouraudWithEdges
 70
     3
177
     2
291
     1
 71
     2
176
     1
 72
     2
176
     1
 73
     1
176
     1
 90
        2
176
     1
 40
-0.6
176
     1
 41
30.0
176
     1
 62
     5
 63
     7
421
 16777215
176
     1
 74
     1
176
     1
 91
        4
176
     1
 64
     7
176
     1
 65
   257
176
     1
 75
     1
176
     1
175
     1
176
     1
 42
1.0
176
     1
 92
        0
176
     1
 66
   257
176
     1
 43
1.0
176
     1
 76
     1
176
     1
 77
     6
176
     1
 78
     2
176
     1
 67
     7
176
     1
 79
     5
176
     1
170
     0
176
     1
171
     0
176
     1
290
     0
176
     1
 93
       13
176
     1
 44
0.0
176
     1
173
     0
176
     1
  0
VISUALSTYLE
  5
38
102
{ACAD_REACTORS
330
2A
102
}
330
2A
100
AcDbVisualStyle
  2
Linepattern
 70
    14
177
     2
291
     1
 71
     2
176
     1
 72
     2
176
     1
 73
     0
176
     1
 90
        0
176
     1
 40
-0.6
176
     1
 41
-30.0
176
     1
 62
     5
 63
     7
421
 16777215
176
     1
 74
     1
176
     1
 91
        4
176
     1
 64
     7
176
     1
 65
   257
176
     1
 75
     7
176
     1
175
     7
176
     1
 42
1.0
176
     1
 92
        8
176
     1
 66
     7
176
     1
 43
1.0
176
     1
 76
     1
176
     1
 77
     6
176
     1
 78
     2
176
     1
 67
     7
176
     1
 79
     5
176
     1
170
     0
176
     1
171
     0
176
     1
290
     0
176
     1
 93
        1
176
     1
 44
0.0
176
     1
173
     0
176
     1
  0
VISUALSTYLE
  5
33
102
{ACAD_REACTORS
330
2A
102
}
330
2A
100
AcDbVisualStyle
  2
Realistic
 70
     8
177
     2
291
     0
 71
     2
176
     1
 72
     2
176
     1
 73
     0
176
     1
 90
        0
176
     1
 40
-0.6
176
     1
 41
-30.0
176
     1
 62
     5
 63
     7
421
 16777215
176
     1
 74
     1
176
     1
 91
        0
176
     1
 64
     7
176
     1
 65
   257
176
     1
 75
     1
176
     1
175
     1
176
     1
 42
1.0
176
     1
 92
        8
176
     1
 66
     8
424
  7895160
176
     1
 43
1.0
176
     1
 76
     1
176
     1
 77
     6
176
     1
 78
     2
176
     1
 67
     7
176
     1
 79
     5
176
     1
170
     0
176
     1
171
     0
176
     1
290
     0
176
     1
 93
       13
176
     1
 44
0.0
176
     1
173
     0
176
     1
  0
VISUALSTYLE
  5
37
102
{ACAD_REACTORS
330
2A
102
}
330
2A
100
AcDbVisualStyle
  2
Thicken
 70
    13
177
     2
291
     1
 71
     2
176
     1
 72
     2
176
     1
 73
     0
176
     1
 90
        0
176
     1
 40
-0.6
176
     1
 41
-30.0
176
     1
 62
     5
 63
     7
421
 16777215
176
     1
 74
     1
176
     1
 91
        4
176
     1
 64
     7
176
     1
 65
   257
176
     1
 75
     1
176
     1
175
     1
176
     1
 42
1.0
176
     1
 92
       12
176
     1
 66
     7
176
     1
 43
1.0
176
     1
 76
     1
176
     1
 77
     6
176
     1
 78
     2
176
     1
 67
     7
176
     1
 79
     5
176
     1
170
     0
176
     1
171
     0
176
     1
290
     0
176
     1
 93
        1
176
     1
 44
0.0
176
     1
173
     0
176
     1
  0
ENDSEC
  0
EOF
