  0
SECTION
  2
HEADER
  9
$ACADVER
  1
AC1024
  9
$ACADMAINTVER
 70
     6
  9
$DWGCODEPAGE
  3
UNDEFINED
  9
$INSBASE
 10
0.0
 20
0.0
 30
0.0
  9
$EXTMIN
 10
1.000000000000000E+20
 20
1.000000000000000E+20
 30
1.000000000000000E+20
  9
$EXTMAX
 10
-1.000000000000000E+20
 20
-1.000000000000000E+20
 30
-1.000000000000000E+20
  9
$LIMMIN
 10
0.0
 20
0.0
  9
$LIMMAX
 10
12.0
 20
9.0
  9
$ORTHOMODE
 70
     0
  9
$REGENMODE
 70
     1
  9
$FILLMODE
 70
     1
  9
$QTEXTMODE
 70
     0
  9
$MIRRTEXT
 70
     1
  9
$LTSCALE
 40
1.0
  9
$ATTMODE
 70
     1
  9
$TEXTSIZE
 40
0.2
  9
$TRACEWID
 40
0.05
  9
$TEXTSTYLE
  7
Standard
  9
$CLAYER
  8
0
  9
$CELTYPE
  6
ByLayer
  9
$CECOLOR
 62
   256
  9
$CELTSCALE
 40
1.0
  9
$DISPSILH
 70
     0
  9
$DIMSCALE
 40
1.0
  9
$DIMASZ
 40
0.18
  9
$DIMEXO
 40
0.0625
  9
$DIMDLI
 40
0.38
  9
$DIMRND
 40
0.0
  9
$DIMDLE
 40
0.0
  9
$DIMEXE
 40
0.18
  9
$DIMTP
 40
0.0
  9
$DIMTM
 40
0.0
  9
$DIMTXT
 40
0.18
  9
$DIMCEN
 40
0.09
  9
$DIMTSZ
 40
0.0
  9
$DIMTOL
 70
     0
  9
$DIMLIM
 70
     0
  9
$DIMTIH
 70
     1
  9
$DIMTOH
 70
     1
  9
$DIMSE1
 70
     0
  9
$DIMSE2
 70
     0
  9
$DIMTAD
 70
     0
  9
$DIMZIN
 70
     0
  9
$DIMBLK
  1

  9
$DIMASO
 70
     1
  9
$DIMSHO
 70
     1
  9
$DIMPOST
  1

  9
$DIMAPOST
  1

  9
$DIMALT
 70
     0
  9
$DIMALTD
 70
     2
  9
$DIMALTF
 40
25.4
  9
$DIMLFAC
 40
1.0
  9
$DIMTOFL
 70
     0
  9
$DIMTVP
 40
0.0
  9
$DIMTIX
 70
     0
  9
$DIMSOXD
 70
     0
  9
$DIMSAH
 70
     0
  9
$DIMBLK1
  1

  9
$DIMBLK2
  1

  9
$DIMSTYLE
  2
Standard
  9
$DIMCLRD
 70
     0
  9
$DIMCLRE
 70
     0
  9
$DIMCLRT
 70
     0
  9
$DIMTFAC
 40
1.0
  9
$DIMGAP
 40
0.09
  9
$DIMJUST
 70
     0
  9
$DIMSD1
 70
     0
  9
$DIMSD2
 70
     0
  9
$DIMTOLJ
 70
     1
  9
$DIMTZIN
 70
     0
  9
$DIMALTZ
 70
     0
  9
$DIMALTTZ
 70
     0
  9
$DIMUPT
 70
     0
  9
$DIMDEC
 70
     4
  9
$DIMTDEC
 70
     4
  9
$DIMALTU
 70
     2
  9
$DIMALTTD
 70
     2
  9
$DIMTXSTY
  7
Standard
  9
$DIMAUNIT
 70
     0
  9
$DIMADEC
 70
     0
  9
$DIMALTRND
 40
0.0
  9
$DIMAZIN
 70
     0
  9
$DIMDSEP
 70
    46
  9
$DIMATFIT
 70
     3
  9
$DIMFRAC
 70
     0
  9
$DIMLDRBLK
  1

  9
$DIMLUNIT
 70
     2
  9
$DIMLWD
 70
    -2
  9
$DIMLWE
 70
    -2
  9
$DIMTMOVE
 70
     0
  9
$DIMFXL
 40
1.0
  9
$DIMFXLON
 70
     0
  9
$DIMJOGANG
 40
0.7853981633974483
  9
$DIMTFILL
 70
     0
  9
$DIMTFILLCLR
 70
     0
  9
$DIMARCSYM
 70
     0
  9
$DIMLTYPE
  6

  9
$DIMLTEX1
  6

  9
$DIMLTEX2
  6

  9
$DIMTXTDIRECTION
 70
     0
  9
$LUNITS
 70
     2
  9
$LUPREC
 70
     4
  9
$SKETCHINC
 40
0.1
  9
$FILLETRAD
 40
0.5
  9
$AUNITS
 70
     0
  9
$AUPREC
 70
     0
  9
$MENU
  1
.
  9
$ELEVATION
 40
0.0
  9
$PELEVATION
 40
0.0
  9
$THICKNESS
 40
0.0
  9
$LIMCHECK
 70
     0
  9
$CHAMFERA
 40
0.5
  9
$CHAMFERB
 40
0.5
  9
$CHAMFERC
 40
1.0
  9
$CHAMFERD
 40
0.0
  9
$SKPOLY
 70
     0
  9
$TDCREATE
 40
2457917.586597222
  9
$TDUCREATE
 40
2457917.211597222
  9
$TDUPDATE
 40
2457917.586597222
  9
$TDUUPDATE
 40
2457917.211597222
  9
$TDINDWG
 40
0.0000000116
  9
$TDUSRTIMER
 40
0.0000000116
  9
$USRTIMER
 70
     1
  9
$ANGBASE
 50
0.0
  9
$ANGDIR
 70
     0
  9
$PDMODE
 70
     0
  9
$PDSIZE
 40
0.0
  9
$PLINEWID
 40
0.0
  9
$SPLFRAME
 70
     0
  9
$SPLINETYPE
 70
     6
  9
$SPLINESEGS
 70
     8
  9
$HANDSEED
  5
F3
  9
$SURFTAB1
 70
     6
  9
$SURFTAB2
 70
     6
  9
$SURFTYPE
 70
     6
  9
$SURFU
 70
     6
  9
$SURFV
 70
     6
  9
$UCSBASE
  2

  9
$UCSNAME
  2

  9
$UCSORG
 10
0.0
 20
0.0
 30
0.0
  9
$UCSXDIR
 10
1.0
 20
0.0
 30
0.0
  9
$UCSYDIR
 10
0.0
 20
1.0
 30
0.0
  9
$UCSORTHOREF
  2

  9
$UCSORTHOVIEW
 70
     0
  9
$UCSORGTOP
 10
0.0
 20
0.0
 30
0.0
  9
$UCSORGBOTTOM
 10
0.0
 20
0.0
 30
0.0
  9
$UCSORGLEFT
 10
0.0
 20
0.0
 30
0.0
  9
$UCSORGRIGHT
 10
0.0
 20
0.0
 30
0.0
  9
$UCSORGFRONT
 10
0.0
 20
0.0
 30
0.0
  9
$UCSORGBACK
 10
0.0
 20
0.0
 30
0.0
  9
$PUCSBASE
  2

  9
$PUCSNAME
  2

  9
$PUCSORG
 10
0.0
 20
0.0
 30
0.0
  9
$PUCSXDIR
 10
1.0
 20
0.0
 30
0.0
  9
$PUCSYDIR
 10
0.0
 20
1.0
 30
0.0
  9
$PUCSORTHOREF
  2

  9
$PUCSORTHOVIEW
 70
     0
  9
$PUCSORGTOP
 10
0.0
 20
0.0
 30
0.0
  9
$PUCSORGBOTTOM
 10
0.0
 20
0.0
 30
0.0
  9
$PUCSORGLEFT
 10
0.0
 20
0.0
 30
0.0
  9
$PUCSORGRIGHT
 10
0.0
 20
0.0
 30
0.0
  9
$PUCSORGFRONT
 10
0.0
 20
0.0
 30
0.0
  9
$PUCSORGBACK
 10
0.0
 20
0.0
 30
0.0
  9
$USERI1
 70
     0
  9
$USERI2
 70
     0
  9
$USERI3
 70
     0
  9
$USERI4
 70
     0
  9
$USERI5
 70
     0
  9
$USERR1
 40
0.0
  9
$USERR2
 40
0.0
  9
$USERR3
 40
0.0
  9
$USERR4
 40
0.0
  9
$USERR5
 40
0.0
  9
$WORLDVIEW
 70
     1
  9
$SHADEDGE
 70
     3
  9
$SHADEDIF
 70
    70
  9
$TILEMODE
 70
     1
  9
$MAXACTVP
 70
    64
  9
$PINSBASE
 10
0.0
 20
0.0
 30
0.0
  9
$PLIMCHECK
 70
     0
  9
$PEXTMIN
 10
1.000000000000000E+20
 20
1.000000000000000E+20
 30
1.000000000000000E+20
  9
$PEXTMAX
 10
-1.000000000000000E+20
 20
-1.000000000000000E+20
 30
-1.000000000000000E+20
  9
$PLIMMIN
 10
0.0
 20
0.0
  9
$PLIMMAX
 10
12.0
 20
9.0
  9
$UNITMODE
 70
     0
  9
$VISRETAIN
 70
     1
  9
$PLINEGEN
 70
     0
  9
$PSLTSCALE
 70
     1
  9
$TREEDEPTH
 70
  3020
  9
$CMLSTYLE
  2
Standard
  9
$CMLJUST
 70
     0
  9
$CMLSCALE
 40
1.0
  9
$PROXYGRAPHICS
 70
     1
  9
$MEASUREMENT
 70
     0
  9
$CELWEIGHT
370
    -1
  9
$ENDCAPS
280
     0
  9
$JOINSTYLE
280
     0
  9
$LWDISPLAY
290
     1
  9
$INSUNITS
 70
     1
  9
$HYPERLINKBASE
  1

  9
$STYLESHEET
  1

  9
$XEDIT
290
     1
  9
$CEPSNTYPE
380
     0
  9
$PSTYLEMODE
290
     1
  9
$FINGERPRINTGUID
  2
{9E6B6A76-E5D9-CFE4-E6E8-FDE0ED713073}
  9
$VERSIONGUID
  2
{FAEB1C32-E019-11D5-929B-00C0DF256EC4}
  9
$EXTNAMES
290
     1
  9
$PSVPSCALE
 40
0.0
  9
$OLESTARTUP
290
     0
  9
$SORTENTS
280
   127
  9
$INDEXCTL
280
     0
  9
$HIDETEXT
280
     1
  9
$XCLIPFRAME
280
     2
  9
$HALOGAP
280
     0
  9
$OBSCOLOR
 70
   257
  9
$OBSLTYPE
280
     0
  9
$INTERSECTIONDISPLAY
280
     0
  9
$INTERSECTIONCOLOR
 70
   257
  9
$DIMASSOC
280
     2
  9
$PROJECTNAME
  1

  9
$CAMERADISPLAY
290
     0
  9
$LENSLENGTH
 40
50.0
  9
$CAMERAHEIGHT
 40
0.0
  9
$STEPSPERSEC
 40
2.0
  9
$STEPSIZE
 40
6.0
  9
$3DDWFPREC
 40
2.0
  9
$PSOLWIDTH
 40
0.25
  9
$PSOLHEIGHT
 40
4.0
  9
$LOFTANG1
 40
1.570796326794897
  9
$LOFTANG2
 40
1.570796326794897
  9
$LOFTMAG1
 40
0.0
  9
$LOFTMAG2
 40
0.0
  9
$LOFTPARAM
 70
     7
  9
$LOFTNORMALS
280
     1
  9
$LATITUDE
 40
37.795
  9
$LONGITUDE
 40
-122.394
  9
$NORTHDIRECTION
 40
0.0
  9
$TIMEZONE
 70
 -8000
  9
$LIGHTGLYPHDISPLAY
280
     1
  9
$TILEMODELIGHTSYNCH
280
     1
  9
$CMATERIAL
347
3C
  9
$SOLIDHIST
280
     1
  9
$SHOWHIST
280
     1
  9
$DWFFRAME
280
     2
  9
$DGNFRAME
280
     2
  9
$REALWORLDSCALE
290
     1
  9
$INTERFERECOLOR
 62
   256
  9
$CSHADOW
280
     0
  9
$SHADOWPLANELOCATION
 40
0.0
  0
ENDSEC
  0
SECTION
  2
CLASSES
  0
CLASS
  1
ACDBDICTIONARYWDFLT
  2
AcDbDictionaryWithDefault
  3
ObjectDBX Classes
 90
        0
 91
        4
280
     0
281
     0
  0
CLASS
  1
VISUALSTYLE
  2
AcDbVisualStyle
  3
ObjectDBX Classes
 90
     4095
 91
        4
280
     0
281
     0
  0
CLASS
  1
MATERIAL
  2
AcDbMaterial
  3
ObjectDBX Classes
 90
     1153
 91
        4
280
     0
281
     0
  0
CLASS
  1
SUN
  2
AcDbSun
  3
SCENEOE
 90
     1024
 91
        4
280
     0
281
     0
  0
ENDSEC
  0
SECTION
  2
TABLES
  0
TABLE
  2
VPORT
  5
8
330
0
100
AcDbSymbolTable
 70
     1
  0
VPORT
  5
29
330
8
100
AcDbSymbolTableRecord
100
AcDbViewportTableRecord
  2
*Active
 70
     0
 10
0.0
 20
0.0
 11
1.0
 21
1.0
 12
0.0
 22
0.0
 13
0.0
 23
0.0
 14
0.5
 24
0.5
 15
0.5
 25
0.5
 16
0.0
 26
0.0
 36
1.0
 17
105.0008280156501
 27
-148.4999710739862
 37
0.0
 40
296.9999421479724
 41
0.7070764206636528
 42
50.0
 43
0.0
 44
0.0
 50
0.0
 51
0.0
 71
     0
 72
   100
 73
     1
 74
     3
 75
     0
 76
     0
 77
     0
 78
     0
281
     0
 65
     1
110
0.0
120
0.0
130
0.0
111
1.0
121
0.0
131
0.0
112
0.0
122
1.0
132
0.0
 79
     0
146
0.0
 60
     3
 61
     5
292
     1
282
     1
141
0.0
142
0.0
 63
   250
361
3F
  0
ENDTAB
  0
TABLE
  2
LTYPE
  5
5
330
0
100
AcDbSymbolTable
 70
     1
  0
LTYPE
  5
14
330
5
100
AcDbSymbolTableRecord
100
AcDbLinetypeTableRecord
  2
ByBlock
 70
     0
  3

 72
    65
 73
     0
 40
0.0
  0
LTYPE
  5
15
330
5
100
AcDbSymbolTableRecord
100
AcDbLinetypeTableRecord
  2
ByLayer
 70
     0
  3

 72
    65
 73
     0
 40
0.0
  0
LTYPE
  5
16
330
5
100
AcDbSymbolTableRecord
100
AcDbLinetypeTableRecord
  2
Continuous
 70
     0
  3
Solid line
 72
    65
 73
     0
 40
0.0
  0
ENDTAB
  0
TABLE
  2
LAYER
  5
2
330
0
100
AcDbSymbolTable
 70
     2
  0
LAYER
  5
10
330
2
100
AcDbSymbolTableRecord
100
AcDbLayerTableRecord
  2
0
 70
     0
 62
     7
  6
Continuous
370
    -3
390
F
347
3E
  0
LAYER
  5
40
330
2
100
AcDbSymbolTableRecord
100
AcDbLayerTableRecord
  2
_U+30EC_U+30A4_U+30E4_U+30FC 1
 70
     0
 62
     7
  6
Continuous
370
    -3
390
F
347
3E
  0
ENDTAB
  0
TABLE
  2
STYLE
  5
3
330
0
100
AcDbSymbolTable
 70
     1
  0
STYLE
  5
11
330
3
100
AcDbSymbolTableRecord
100
AcDbTextStyleTableRecord
  2
Standard
 70
     0
 40
0.0
 41
1.0
 50
0.0
 71
     0
 42
0.2
  3
txt
  4

  0
ENDTAB
  0
TABLE
  2
VIEW
  5
6
330
0
100
AcDbSymbolTable
 70
     0
  0
ENDTAB
  0
TABLE
  2
UCS
  5
7
330
0
100
AcDbSymbolTable
 70
     0
  0
ENDTAB
  0
TABLE
  2
APPID
  5
9
330
0
100
AcDbSymbolTable
 70
     1
  0
APPID
  5
12
330
9
100
AcDbSymbolTableRecord
100
AcDbRegAppTableRecord
  2
ACAD
 70
     0
  0
ENDTAB
  0
TABLE
  2
DIMSTYLE
  5
A
330
0
100
AcDbSymbolTable
 70
     1
100
AcDbDimStyleTable
  0
DIMSTYLE
105
27
330
A
100
AcDbSymbolTableRecord
100
AcDbDimStyleTableRecord
  2
Standard
 70
     0
178
     0
340
11
  0
ENDTAB
  0
TABLE
  2
BLOCK_RECORD
  5
1
330
0
100
AcDbSymbolTable
 70
     7
  0
BLOCK_RECORD
  5
1F
330
1
100
AcDbSymbolTableRecord
100
AcDbBlockTableRecord
  2
*Model_Space
340
22
 70
     0
280
     1
281
     0
  0
BLOCK_RECORD
  5
1B
330
1
100
AcDbSymbolTableRecord
100
AcDbBlockTableRecord
  2
*Paper_Space
340
1E
 70
     0
280
     1
281
     0
  0
BLOCK_RECORD
  5
23
330
1
100
AcDbSymbolTableRecord
100
AcDbBlockTableRecord
  2
*Paper_Space0
340
26
 70
     0
280
     1
281
     0
  0
BLOCK_RECORD
  5
83
330
1
100
AcDbSymbolTableRecord
100
AcDbBlockTableRecord
  2
block 2
340
0
102
{BLKREFS
331
84
102
}
 70
     0
280
     1
281
     0
  0
BLOCK_RECORD
  5
95
330
1
100
AcDbSymbolTableRecord
100
AcDbBlockTableRecord
  2
block 3
340
0
102
{BLKREFS
331
96
102
}
 70
     0
280
     1
281
     0
  0
BLOCK_RECORD
  5
A5
330
1
100
AcDbSymbolTableRecord
100
AcDbBlockTableRecord
  2
block 4
340
0
102
{BLKREFS
331
A6
102
}
 70
     0
280
     1
281
     0
  0
BLOCK_RECORD
  5
BE
330
1
100
AcDbSymbolTableRecord
100
AcDbBlockTableRecord
  2
block 5
340
0
102
{BLKREFS
331
BF
102
}
 70
     0
280
     1
281
     0
  0
BLOCK_RECORD
  5
DB
330
1
100
AcDbSymbolTableRecord
100
AcDbBlockTableRecord
  2
block 6
340
0
102
{BLKREFS
331
DC
102
}
 70
     0
280
     1
281
     0
  0
BLOCK_RECORD
  5
EB
330
1
100
AcDbSymbolTableRecord
100
AcDbBlockTableRecord
  2
block 7
340
0
102
{BLKREFS
331
EC
102
}
 70
     0
280
     1
281
     0
  0
ENDTAB
  0
ENDSEC
  0
SECTION
  2
BLOCKS
  0
BLOCK
  5
20
330
1F
100
AcDbEntity
  8
0
100
AcDbBlockBegin
  2
*Model_Space
 70
     0
 10
0.0
 20
0.0
 30
0.0
  3
*Model_Space
  1

  0
ENDBLK
  5
21
330
1F
100
AcDbEntity
  8
0
100
AcDbBlockEnd
  0
BLOCK
  5
1C
330
1B
100
AcDbEntity
 67
     1
  8
0
100
AcDbBlockBegin
  2
*Paper_Space
 70
     0
 10
0.0
 20
0.0
 30
0.0
  3
*Paper_Space
  1

  0
ENDBLK
  5
1D
330
1B
100
AcDbEntity
 67
     1
  8
0
100
AcDbBlockEnd
  0
BLOCK
  5
24
330
23
100
AcDbEntity
  8
0
100
AcDbBlockBegin
  2
*Paper_Space0
 70
     0
 10
0.0
 20
0.0
 30
0.0
  3
*Paper_Space0
  1

  0
ENDBLK
  5
25
330
23
100
AcDbEntity
  8
0
100
AcDbBlockEnd
  0
BLOCK
  5
85
330
83
100
AcDbEntity
  8
0
100
AcDbBlockBegin
  2
block 2
 70
     0
 10
0.0
 20
0.0
 30
0.0
  3
block 2
  1

  0
SPLINE
  5
87
330
83
100
AcDbEntity
  8
_U+30EC_U+30A4_U+30E4_U+30FC 1
370
     0
100
AcDbSpline
210
0.0
220
0.0
230
1.0
 70
    11
 71
     3
 72
    26
 73
    22
 74
     0
 42
0.0000000001
 43
0.0000000001
 12
1.0
 22
0.0
 32
0.0
 13
1.0
 23
0.0
 33
0.0
 40
0.0
 40
0.0
 40
0.0
 40
0.0
 40
1.0
 40
1.0
 40
1.0
 40
2.0
 40
2.0
 40
2.0
 40
3.0
 40
3.0
 40
3.0
 40
4.0
 40
4.0
 40
4.0
 40
5.0
 40
5.0
 40
5.0
 40
6.0
 40
6.0
 40
6.0
 40
7.0
 40
7.0
 40
7.0
 40
7.0
 10
116.4297580004065
 20
-140.8361924561104
 30
0.0
 10
116.4297580004065
 20
-140.8361924561104
 30
0.0
 10
115.3256048973839
 20
-140.8361924561104
 30
0.0
 10
115.3256048973839
 20
-140.8361924561104
 30
0.0
 10
115.3256048973839
 20
-140.8361924561104
 30
0.0
 10
115.3256048973839
 20
-141.1889702338
 30
0.0
 10
115.3256048973839
 20
-141.1889702338
 30
0.0
 10
115.3256048973839
 20
-141.1889702338
 30
0.0
 10
115.1774657915181
 20
-141.1889702338
 30
0.0
 10
115.1774657915181
 20
-141.1889702338
 30
0.0
 10
115.1626518809316
 20
-140.833953144045
 30
0.0
 10
114.9996988644792
 20
-140.7841715142831
 30
0.0
 10
114.885321694369
 20
-140.7524766358188
 30
0.0
 10
114.885321694369
 20
-140.7524766358188
 30
0.0
 10
114.885321694369
 20
-140.5965860651113
 30
0.0
 10
114.885321694369
 20
-140.5965860651113
 30
0.0
 10
114.885321694369
 20
-140.5965860651113
 30
0.0
 10
116.4297580004065
 20
-140.5965860651113
 30
0.0
 10
116.4297580004065
 20
-140.5965860651113
 30
0.0
 10
116.4297580004065
 20
-140.5965860651113
 30
0.0
 10
116.4297580004065
 20
-140.8361924561104
 30
0.0
 10
116.4297580004065
 20
-140.8361924561104
 30
0.0
  0
HATCH
  5
88
330
83
100
AcDbEntity
  8
_U+30EC_U+30A4_U+30E4_U+30FC 1
 62
   179
420
  2234388
100
AcDbHatch
 10
0.0
 20
0.0
 30
0.0
210
0.0
220
0.0
230
1.0
  2
SOLID
 70
     1
 71
     0
 91
        1
 92
        1
 93
        1
 72
     4
 94
        3
 73
     0
 74
     1
 95
       26
 96
       22
 40
0.0
 40
0.0
 40
0.0
 40
0.0
 40
1.0
 40
1.0
 40
1.0
 40
2.0
 40
2.0
 40
2.0
 40
3.0
 40
3.0
 40
3.0
 40
4.0
 40
4.0
 40
4.0
 40
5.0
 40
5.0
 40
5.0
 40
6.0
 40
6.0
 40
6.0
 40
7.0
 40
7.0
 40
7.0
 40
7.0
 10
116.4297580004065
 20
-140.8361924561104
 10
116.4297580004065
 20
-140.8361924561104
 10
115.3256048973839
 20
-140.8361924561104
 10
115.3256048973839
 20
-140.8361924561104
 10
115.3256048973839
 20
-140.8361924561104
 10
115.3256048973839
 20
-141.1889702338
 10
115.3256048973839
 20
-141.1889702338
 10
115.3256048973839
 20
-141.1889702338
 10
115.1774657915181
 20
-141.1889702338
 10
115.1774657915181
 20
-141.1889702338
 10
115.1626518809316
 20
-140.833953144045
 10
114.9996988644792
 20
-140.7841715142831
 10
114.885321694369
 20
-140.7524766358188
 10
114.885321694369
 20
-140.7524766358188
 10
114.885321694369
 20
-140.5965860651113
 10
114.885321694369
 20
-140.5965860651113
 10
114.885321694369
 20
-140.5965860651113
 10
116.4297580004065
 20
-140.5965860651113
 10
116.4297580004065
 20
-140.5965860651113
 10
116.4297580004065
 20
-140.5965860651113
 10
116.4297580004065
 20
-140.8361924561104
 10
116.4297580004065
 20
-140.8361924561104
 97
        0
 97
        0
 75
     2
 76
     1
 98
        0
  0
ENDBLK
  5
86
330
83
100
AcDbEntity
  8
0
100
AcDbBlockEnd
  0
BLOCK
  5
97
330
95
100
AcDbEntity
  8
0
100
AcDbBlockBegin
  2
block 3
 70
     0
 10
0.0
 20
0.0
 30
0.0
  3
block 3
  1

  0
SPLINE
  5
99
330
95
100
AcDbEntity
  8
_U+30EC_U+30A4_U+30E4_U+30FC 1
370
     0
100
AcDbSpline
210
0.0
220
0.0
230
1.0
 70
    11
 71
     3
 72
    44
 73
    40
 74
     0
 42
0.0000000001
 43
0.0000000001
 12
1.0
 22
0.0
 32
0.0
 13
1.0
 23
0.0
 33
0.0
 40
0.0
 40
0.0
 40
0.0
 40
0.0
 40
1.0
 40
1.0
 40
1.0
 40
2.0
 40
2.0
 40
2.0
 40
3.0
 40
3.0
 40
3.0
 40
4.0
 40
4.0
 40
4.0
 40
5.0
 40
5.0
 40
5.0
 40
6.0
 40
6.0
 40
6.0
 40
7.0
 40
7.0
 40
7.0
 40
8.0
 40
8.0
 40
8.0
 40
9.0
 40
9.0
 40
9.0
 40
10.0
 40
10.0
 40
10.0
 40
11.0
 40
11.0
 40
11.0
 40
12.0
 40
12.0
 40
12.0
 40
13.0
 40
13.0
 40
13.0
 40
13.0
 10
102.2071980538753
 20
-137.9433457771461
 30
0.0
 10
101.9743095990724
 20
-138.1019924242419
 30
0.0
 10
101.8747463395487
 20
-138.1760619771748
 30
0.0
 10
101.8227253977214
 20
-138.3198947136839
 30
0.0
 10
101.8227253977214
 20
-138.3198947136839
 30
0.0
 10
102.6550604669578
 20
-138.3198947136839
 30
0.0
 10
102.6550604669578
 20
-138.3198947136839
 30
0.0
 10
102.6550604669578
 20
-138.3198947136839
 30
0.0
 10
102.6550604669578
 20
-138.5250501498305
 30
0.0
 10
102.6550604669578
 20
-138.5250501498305
 30
0.0
 10
102.6550604669578
 20
-138.5250501498305
 30
0.0
 10
101.5560750071631
 20
-138.5250501498305
 30
0.0
 10
101.5560750071631
 20
-138.5250501498305
 30
0.0
 10
101.590181452467
 20
-138.1674492384616
 30
0.0
 10
101.6601168908176
 20
-138.0892455709464
 30
0.0
 10
102.0714612917564
 20
-137.7909003019238
 30
0.0
 10
102.3450018732853
 20
-137.5921182924249
 30
0.0
 10
102.4152818211844
 20
-137.5244221661397
 30
0.0
 10
102.4152818211844
 20
-137.3869628562783
 30
0.0
 10
102.4152818211844
 20
-137.2684515715857
 30
0.0
 10
102.3384561918633
 20
-137.1371934335976
 30
0.0
 10
102.1279608577145
 20
-137.1371934335976
 30
0.0
 10
101.8499416520549
 20
-137.1371934335976
 30
0.0
 10
101.8409844037932
 20
-137.3678425763351
 30
0.0
 10
101.8365057796624
 20
-137.4842868037366
 30
0.0
 10
101.8365057796624
 20
-137.4842868037366
 30
0.0
 10
101.596727133889
 20
-137.4842868037366
 30
0.0
 10
101.596727133889
 20
-137.4842868037366
 30
0.0
 10
101.6056843821507
 20
-137.3573350351051
 30
0.0
 10
101.617053197252
 20
-137.2451971770602
 30
0.0
 10
101.7031805843832
 20
-137.1266858923676
 30
0.0
 10
101.8206583404303
 20
-136.9659721879807
 30
0.0
 10
102.0194403499292
 20
-136.932037997451
 30
0.0
 10
102.1438082969467
 20
-136.932037997451
 30
0.0
 10
102.4400865086782
 20
-136.932037997451
 30
0.0
 10
102.6616061483797
 20
-137.1161783511376
 30
0.0
 10
102.6616061483797
 20
-137.3890299135694
 30
0.0
 10
102.6616061483797
 20
-137.6174397442415
 30
0.0
 10
102.5372382013622
 20
-137.7170030037652
 30
0.0
 10
102.2071980538753
 20
-137.9433457771461
 30
0.0
  0
HATCH
  5
9A
330
95
100
AcDbEntity
  8
_U+30EC_U+30A4_U+30E4_U+30FC 1
 62
   179
420
  2234388
100
AcDbHatch
 10
0.0
 20
0.0
 30
0.0
210
0.0
220
0.0
230
1.0
  2
SOLID
 70
     1
 71
     0
 91
        1
 92
        1
 93
        1
 72
     4
 94
        3
 73
     0
 74
     1
 95
       44
 96
       40
 40
0.0
 40
0.0
 40
0.0
 40
0.0
 40
1.0
 40
1.0
 40
1.0
 40
2.0
 40
2.0
 40
2.0
 40
3.0
 40
3.0
 40
3.0
 40
4.0
 40
4.0
 40
4.0
 40
5.0
 40
5.0
 40
5.0
 40
6.0
 40
6.0
 40
6.0
 40
7.0
 40
7.0
 40
7.0
 40
8.0
 40
8.0
 40
8.0
 40
9.0
 40
9.0
 40
9.0
 40
10.0
 40
10.0
 40
10.0
 40
11.0
 40
11.0
 40
11.0
 40
12.0
 40
12.0
 40
12.0
 40
13.0
 40
13.0
 40
13.0
 40
13.0
 10
102.2071980538753
 20
-137.9433457771461
 10
101.9743095990724
 20
-138.1019924242419
 10
101.8747463395487
 20
-138.1760619771748
 10
101.8227253977214
 20
-138.3198947136839
 10
101.8227253977214
 20
-138.3198947136839
 10
102.6550604669578
 20
-138.3198947136839
 10
102.6550604669578
 20
-138.3198947136839
 10
102.6550604669578
 20
-138.3198947136839
 10
102.6550604669578
 20
-138.5250501498305
 10
102.6550604669578
 20
-138.5250501498305
 10
102.6550604669578
 20
-138.5250501498305
 10
101.5560750071631
 20
-138.5250501498305
 10
101.5560750071631
 20
-138.5250501498305
 10
101.590181452467
 20
-138.1674492384616
 10
101.6601168908176
 20
-138.0892455709464
 10
102.0714612917564
 20
-137.7909003019238
 10
102.3450018732853
 20
-137.5921182924249
 10
102.4152818211844
 20
-137.5244221661397
 10
102.4152818211844
 20
-137.3869628562783
 10
102.4152818211844
 20
-137.2684515715857
 10
102.3384561918633
 20
-137.1371934335976
 10
102.1279608577145
 20
-137.1371934335976
 10
101.8499416520549
 20
-137.1371934335976
 10
101.8409844037932
 20
-137.3678425763351
 10
101.8365057796624
 20
-137.4842868037366
 10
101.8365057796624
 20
-137.4842868037366
 10
101.596727133889
 20
-137.4842868037366
 10
101.596727133889
 20
-137.4842868037366
 10
101.6056843821507
 20
-137.3573350351051
 10
101.617053197252
 20
-137.2451971770602
 10
101.7031805843832
 20
-137.1266858923676
 10
101.8206583404303
 20
-136.9659721879807
 10
102.0194403499292
 20
-136.932037997451
 10
102.1438082969467
 20
-136.932037997451
 10
102.4400865086782
 20
-136.932037997451
 10
102.6616061483797
 20
-137.1161783511376
 10
102.6616061483797
 20
-137.3890299135694
 10
102.6616061483797
 20
-137.6174397442415
 10
102.5372382013622
 20
-137.7170030037652
 10
102.2071980538753
 20
-137.9433457771461
 97
        0
 97
        0
 75
     2
 76
     1
 98
        0
  0
SPLINE
  5
9B
330
95
100
AcDbEntity
  8
_U+30EC_U+30A4_U+30E4_U+30FC 1
370
     0
100
AcDbSpline
210
0.0
220
0.0
230
1.0
 70
    11
 71
     3
 72
    44
 73
    40
 74
     0
 42
0.0000000001
 43
0.0000000001
 12
1.0
 22
0.0
 32
0.0
 13
1.0
 23
0.0
 33
0.0
 40
0.0
 40
0.0
 40
0.0
 40
0.0
 40
1.0
 40
1.0
 40
1.0
 40
2.0
 40
2.0
 40
2.0
 40
3.0
 40
3.0
 40
3.0
 40
4.0
 40
4.0
 40
4.0
 40
5.0
 40
5.0
 40
5.0
 40
6.0
 40
6.0
 40
6.0
 40
7.0
 40
7.0
 40
7.0
 40
8.0
 40
8.0
 40
8.0
 40
9.0
 40
9.0
 40
9.0
 40
10.0
 40
10.0
 40
10.0
 40
11.0
 40
11.0
 40
11.0
 40
12.0
 40
12.0
 40
12.0
 40
13.0
 40
13.0
 40
13.0
 40
13.0
 10
103.46500241554
 20
-137.9433457771461
 30
0.0
 10
103.2321139607371
 20
-138.1019924242419
 30
0.0
 10
103.1325507012134
 20
-138.1760619771748
 30
0.0
 10
103.0808742689347
 20
-138.3198947136839
 30
0.0
 10
103.0808742689347
 20
-138.3198947136839
 30
0.0
 10
103.912520319074
 20
-138.3198947136839
 30
0.0
 10
103.912520319074
 20
-138.3198947136839
 30
0.0
 10
103.912520319074
 20
-138.3198947136839
 30
0.0
 10
103.912520319074
 20
-138.5250501498305
 30
0.0
 10
103.912520319074
 20
-138.5250501498305
 30
0.0
 10
103.912520319074
 20
-138.5250501498305
 30
0.0
 10
102.8138793688278
 20
-138.5250501498305
 30
0.0
 10
102.8138793688278
 20
-138.5250501498305
 30
0.0
 10
102.8479858141318
 20
-138.1674492384616
 30
0.0
 10
102.9179212524823
 20
-138.0892455709464
 30
0.0
 10
103.3292656534212
 20
-137.7909003019238
 30
0.0
 10
103.60280623495
 20
-137.5921182924249
 30
0.0
 10
103.6730861828491
 20
-137.5244221661397
 30
0.0
 10
103.6730861828491
 20
-137.3869628562783
 30
0.0
 10
103.6730861828491
 20
-137.2684515715857
 30
0.0
 10
103.596260553528
 20
-137.1371934335976
 30
0.0
 10
103.3857652193793
 20
-137.1371934335976
 30
0.0
 10
103.1077460137196
 20
-137.1371934335976
 30
0.0
 10
103.0987887654579
 20
-137.3678425763351
 30
0.0
 10
103.0943101413271
 20
-137.4842868037366
 30
0.0
 10
103.0943101413271
 20
-137.4842868037366
 30
0.0
 10
102.8545314955537
 20
-137.4842868037366
 30
0.0
 10
102.8545314955537
 20
-137.4842868037366
 30
0.0
 10
102.8638332533639
 20
-137.3573350351051
 30
0.0
 10
102.8748575589167
 20
-137.2451971770602
 30
0.0
 10
102.960984946048
 20
-137.1266858923676
 30
0.0
 10
103.078462702095
 20
-136.9659721879807
 30
0.0
 10
103.2772447115939
 20
-136.932037997451
 30
0.0
 10
103.4016126586114
 20
-136.932037997451
 30
0.0
 10
103.6978908703429
 20
-136.932037997451
 30
0.0
 10
103.9194105100445
 20
-137.1161783511376
 30
0.0
 10
103.9194105100445
 20
-137.3890299135694
 30
0.0
 10
103.9194105100445
 20
-137.6174397442415
 30
0.0
 10
103.7950425630269
 20
-137.7170030037652
 30
0.0
 10
103.46500241554
 20
-137.9433457771461
 30
0.0
  0
HATCH
  5
9C
330
95
100
AcDbEntity
  8
_U+30EC_U+30A4_U+30E4_U+30FC 1
 62
   179
420
  2234388
100
AcDbHatch
 10
0.0
 20
0.0
 30
0.0
210
0.0
220
0.0
230
1.0
  2
SOLID
 70
     1
 71
     0
 91
        1
 92
        1
 93
        1
 72
     4
 94
        3
 73
     0
 74
     1
 95
       44
 96
       40
 40
0.0
 40
0.0
 40
0.0
 40
0.0
 40
1.0
 40
1.0
 40
1.0
 40
2.0
 40
2.0
 40
2.0
 40
3.0
 40
3.0
 40
3.0
 40
4.0
 40
4.0
 40
4.0
 40
5.0
 40
5.0
 40
5.0
 40
6.0
 40
6.0
 40
6.0
 40
7.0
 40
7.0
 40
7.0
 40
8.0
 40
8.0
 40
8.0
 40
9.0
 40
9.0
 40
9.0
 40
10.0
 40
10.0
 40
10.0
 40
11.0
 40
11.0
 40
11.0
 40
12.0
 40
12.0
 40
12.0
 40
13.0
 40
13.0
 40
13.0
 40
13.0
 10
103.46500241554
 20
-137.9433457771461
 10
103.2321139607371
 20
-138.1019924242419
 10
103.1325507012134
 20
-138.1760619771748
 10
103.0808742689347
 20
-138.3198947136839
 10
103.0808742689347
 20
-138.3198947136839
 10
103.912520319074
 20
-138.3198947136839
 10
103.912520319074
 20
-138.3198947136839
 10
103.912520319074
 20
-138.3198947136839
 10
103.912520319074
 20
-138.5250501498305
 10
103.912520319074
 20
-138.5250501498305
 10
103.912520319074
 20
-138.5250501498305
 10
102.8138793688278
 20
-138.5250501498305
 10
102.8138793688278
 20
-138.5250501498305
 10
102.8479858141318
 20
-138.1674492384616
 10
102.9179212524823
 20
-138.0892455709464
 10
103.3292656534212
 20
-137.7909003019238
 10
103.60280623495
 20
-137.5921182924249
 10
103.6730861828491
 20
-137.5244221661397
 10
103.6730861828491
 20
-137.3869628562783
 10
103.6730861828491
 20
-137.2684515715857
 10
103.596260553528
 20
-137.1371934335976
 10
103.3857652193793
 20
-137.1371934335976
 10
103.1077460137196
 20
-137.1371934335976
 10
103.0987887654579
 20
-137.3678425763351
 10
103.0943101413271
 20
-137.4842868037366
 10
103.0943101413271
 20
-137.4842868037366
 10
102.8545314955537
 20
-137.4842868037366
 10
102.8545314955537
 20
-137.4842868037366
 10
102.8638332533639
 20
-137.3573350351051
 10
102.8748575589167
 20
-137.2451971770602
 10
102.960984946048
 20
-137.1266858923676
 10
103.078462702095
 20
-136.9659721879807
 10
103.2772447115939
 20
-136.932037997451
 10
103.4016126586114
 20
-136.932037997451
 10
103.6978908703429
 20
-136.932037997451
 10
103.9194105100445
 20
-137.1161783511376
 10
103.9194105100445
 20
-137.3890299135694
 10
103.9194105100445
 20
-137.6174397442415
 10
103.7950425630269
 20
-137.7170030037652
 10
103.46500241554
 20
-137.9433457771461
 97
        0
 97
        0
 75
     2
 76
     1
 98
        0
  0
ENDBLK
  5
98
330
95
100
AcDbEntity
  8
0
100
AcDbBlockEnd
  0
BLOCK
  5
A7
330
A5
100
AcDbEntity
  8
0
100
AcDbBlockBegin
  2
block 4
 70
     0
 10
0.0
 20
0.0
 30
0.0
  3
block 4
  1

  0
SPLINE
  5
A9
330
A5
100
AcDbEntity
  8
_U+30EC_U+30A4_U+30E4_U+30FC 1
370
     0
100
AcDbSpline
210
0.0
220
0.0
230
1.0
 70
    11
 71
     3
 72
    26
 73
    22
 74
     0
 42
0.0000000001
 43
0.0000000001
 12
1.0
 22
0.0
 32
0.0
 13
1.0
 23
0.0
 33
0.0
 40
0.0
 40
0.0
 40
0.0
 40
0.0
 40
1.0
 40
1.0
 40
1.0
 40
2.0
 40
2.0
 40
2.0
 40
3.0
 40
3.0
 40
3.0
 40
4.0
 40
4.0
 40
4.0
 40
5.0
 40
5.0
 40
5.0
 40
6.0
 40
6.0
 40
6.0
 40
7.0
 40
7.0
 40
7.0
 40
7.0
 10
116.4304470195035
 20
-150.50347489727
 30
0.0
 10
116.4304470195035
 20
-150.50347489727
 30
0.0
 10
115.3259494069324
 20
-150.50347489727
 30
0.0
 10
115.3259494069324
 20
-150.50347489727
 30
0.0
 10
115.3259494069324
 20
-150.50347489727
 30
0.0
 10
115.3259494069324
 20
-150.855908165411
 30
0.0
 10
115.3259494069324
 20
-150.855908165411
 30
0.0
 10
115.3259494069324
 20
-150.855908165411
 30
0.0
 10
115.1778103010667
 20
-150.855908165411
 30
0.0
 10
115.1778103010667
 20
-150.855908165411
 30
0.0
 10
115.1633409000286
 20
-150.5010633304303
 30
0.0
 10
115.0000433740278
 20
-150.4514539554427
 30
0.0
 10
114.8856662039175
 20
-150.4197590769784
 30
0.0
 10
114.8856662039175
 20
-150.4197590769784
 30
0.0
 10
114.8856662039175
 20
-150.2636962514966
 30
0.0
 10
114.8856662039175
 20
-150.2636962514966
 30
0.0
 10
114.8856662039175
 20
-150.2636962514966
 30
0.0
 10
116.4304470195035
 20
-150.2636962514966
 30
0.0
 10
116.4304470195035
 20
-150.2636962514966
 30
0.0
 10
116.4304470195035
 20
-150.2636962514966
 30
0.0
 10
116.4304470195035
 20
-150.50347489727
 30
0.0
 10
116.4304470195035
 20
-150.50347489727
 30
0.0
  0
HATCH
  5
AA
330
A5
100
AcDbEntity
  8
_U+30EC_U+30A4_U+30E4_U+30FC 1
 62
   179
420
  2234388
100
AcDbHatch
 10
0.0
 20
0.0
 30
0.0
210
0.0
220
0.0
230
1.0
  2
SOLID
 70
     1
 71
     0
 91
        1
 92
        1
 93
        1
 72
     4
 94
        3
 73
     0
 74
     1
 95
       26
 96
       22
 40
0.0
 40
0.0
 40
0.0
 40
0.0
 40
1.0
 40
1.0
 40
1.0
 40
2.0
 40
2.0
 40
2.0
 40
3.0
 40
3.0
 40
3.0
 40
4.0
 40
4.0
 40
4.0
 40
5.0
 40
5.0
 40
5.0
 40
6.0
 40
6.0
 40
6.0
 40
7.0
 40
7.0
 40
7.0
 40
7.0
 10
116.4304470195035
 20
-150.50347489727
 10
116.4304470195035
 20
-150.50347489727
 10
115.3259494069324
 20
-150.50347489727
 10
115.3259494069324
 20
-150.50347489727
 10
115.3259494069324
 20
-150.50347489727
 10
115.3259494069324
 20
-150.855908165411
 10
115.3259494069324
 20
-150.855908165411
 10
115.3259494069324
 20
-150.855908165411
 10
115.1778103010667
 20
-150.855908165411
 10
115.1778103010667
 20
-150.855908165411
 10
115.1633409000286
 20
-150.5010633304303
 10
115.0000433740278
 20
-150.4514539554427
 10
114.8856662039175
 20
-150.4197590769784
 10
114.8856662039175
 20
-150.4197590769784
 10
114.8856662039175
 20
-150.2636962514966
 10
114.8856662039175
 20
-150.2636962514966
 10
114.8856662039175
 20
-150.2636962514966
 10
116.4304470195035
 20
-150.2636962514966
 10
116.4304470195035
 20
-150.2636962514966
 10
116.4304470195035
 20
-150.2636962514966
 10
116.4304470195035
 20
-150.50347489727
 10
116.4304470195035
 20
-150.50347489727
 97
        0
 97
        0
 75
     2
 76
     1
 98
        0
  0
SPLINE
  5
AB
330
A5
100
AcDbEntity
  8
_U+30EC_U+30A4_U+30E4_U+30FC 1
370
     0
100
AcDbSpline
210
0.0
220
0.0
230
1.0
 70
    11
 71
     3
 72
    29
 73
    25
 74
     0
 42
0.0000000001
 43
0.0000000001
 12
1.0
 22
0.0
 32
0.0
 13
1.0
 23
0.0
 33
0.0
 40
0.0
 40
0.0
 40
0.0
 40
0.0
 40
1.0
 40
1.0
 40
1.0
 40
2.0
 40
2.0
 40
2.0
 40
3.0
 40
3.0
 40
3.0
 40
4.0
 40
4.0
 40
4.0
 40
5.0
 40
5.0
 40
5.0
 40
6.0
 40
6.0
 40
6.0
 40
7.0
 40
7.0
 40
7.0
 40
8.0
 40
8.0
 40
8.0
 40
8.0
 10
116.2526800924646
 20
-148.7685248108982
 30
0.0
 10
116.4621418979678
 20
-148.883935509654
 30
0.0
 10
116.4807454135882
 20
-149.0692816467605
 30
0.0
 10
116.4807454135882
 20
-149.193649593778
 30
0.0
 10
116.4807454135882
 20
-149.3652153489434
 30
0.0
 10
116.4345811340858
 20
-149.5167995502944
 30
0.0
 10
116.2526800924646
 20
-149.6184298671093
 30
0.0
 10
116.0576876879995
 20
-149.7293619417343
 30
0.0
 10
115.8206651186143
 20
-149.7496880050973
 30
0.0
 10
115.6580566117105
 20
-149.7496880050973
 30
0.0
 10
115.5140516204271
 20
-149.7496880050973
 30
0.0
 10
115.2625596500038
 20
-149.7314289990255
 30
0.0
 10
115.0634331309564
 20
-149.6184298671093
 30
0.0
 10
114.8608615164237
 20
-149.5033636779019
 30
0.0
 10
114.837434867124
 20
-149.331453413188
 30
0.0
 10
114.837434867124
 20
-149.193649593778
 30
0.0
 10
114.837434867124
 20
-149.0238063863552
 30
0.0
 10
114.8815320893352
 20
-148.870155127713
 30
0.0
 10
115.0634331309564
 20
-148.7685248108982
 30
0.0
 10
115.2563584781304
 20
-148.6620713604039
 30
0.0
 10
115.4844237992539
 20
-148.6372666729101
 30
0.0
 10
115.6580566117105
 20
-148.6372666729101
 30
0.0
 10
115.8296223668759
 20
-148.6372666729101
 30
0.0
 10
116.0597547452906
 20
-148.6600043031128
 30
0.0
 10
116.2526800924646
 20
-148.7685248108982
 30
0.0
  0
SPLINE
  5
AC
330
A5
100
AcDbEntity
  8
_U+30EC_U+30A4_U+30E4_U+30FC 1
370
     0
100
AcDbSpline
210
0.0
220
0.0
230
1.0
 70
    11
 71
     3
 72
    17
 73
    13
 74
     0
 42
0.0000000001
 43
0.0000000001
 12
1.0
 22
0.0
 32
0.0
 13
1.0
 23
0.0
 33
0.0
 40
0.0
 40
0.0
 40
0.0
 40
0.0
 40
1.0
 40
1.0
 40
1.0
 40
2.0
 40
2.0
 40
2.0
 40
3.0
 40
3.0
 40
3.0
 40
4.0
 40
4.0
 40
4.0
 40
4.0
 10
115.0296711952009
 20
-149.193649593778
 30
0.0
 10
115.0296711952009
 20
-149.4602999843363
 30
0.0
 10
115.3135470631855
 20
-149.5099093593239
 30
0.0
 10
115.6580566117105
 20
-149.5099093593239
 30
0.0
 10
115.9777614727417
 20
-149.5099093593239
 30
0.0
 10
116.2864420282201
 20
-149.4716687994377
 30
0.0
 10
116.2864420282201
 20
-149.193649593778
 30
0.0
 10
116.2864420282201
 20
-148.9290662605108
 30
0.0
 10
116.0053222366237
 20
-148.8770453186835
 30
0.0
 10
115.6580566117105
 20
-148.8770453186835
 30
0.0
 10
115.3383517506793
 20
-148.8770453186835
 30
0.0
 10
115.0296711952009
 20
-148.9176974454095
 30
0.0
 10
115.0296711952009
 20
-149.193649593778
 30
0.0
  0
HATCH
  5
AD
330
A5
100
AcDbEntity
  8
_U+30EC_U+30A4_U+30E4_U+30FC 1
 62
   179
420
  2234388
100
AcDbHatch
 10
0.0
 20
0.0
 30
0.0
210
0.0
220
0.0
230
1.0
  2
SOLID
 70
     1
 71
     0
 91
        2
 92
        1
 93
        1
 72
     4
 94
        3
 73
     0
 74
     1
 95
       29
 96
       25
 40
0.0
 40
0.0
 40
0.0
 40
0.0
 40
1.0
 40
1.0
 40
1.0
 40
2.0
 40
2.0
 40
2.0
 40
3.0
 40
3.0
 40
3.0
 40
4.0
 40
4.0
 40
4.0
 40
5.0
 40
5.0
 40
5.0
 40
6.0
 40
6.0
 40
6.0
 40
7.0
 40
7.0
 40
7.0
 40
8.0
 40
8.0
 40
8.0
 40
8.0
 10
116.2526800924646
 20
-148.7685248108982
 10
116.4621418979678
 20
-148.883935509654
 10
116.4807454135882
 20
-149.0692816467605
 10
116.4807454135882
 20
-149.193649593778
 10
116.4807454135882
 20
-149.3652153489434
 10
116.4345811340858
 20
-149.5167995502944
 10
116.2526800924646
 20
-149.6184298671093
 10
116.0576876879995
 20
-149.7293619417343
 10
115.8206651186143
 20
-149.7496880050973
 10
115.6580566117105
 20
-149.7496880050973
 10
115.5140516204271
 20
-149.7496880050973
 10
115.2625596500038
 20
-149.7314289990255
 10
115.0634331309564
 20
-149.6184298671093
 10
114.8608615164237
 20
-149.5033636779019
 10
114.837434867124
 20
-149.331453413188
 10
114.837434867124
 20
-149.193649593778
 10
114.837434867124
 20
-149.0238063863552
 10
114.8815320893352
 20
-148.870155127713
 10
115.0634331309564
 20
-148.7685248108982
 10
115.2563584781304
 20
-148.6620713604039
 10
115.4844237992539
 20
-148.6372666729101
 10
115.6580566117105
 20
-148.6372666729101
 10
115.8296223668759
 20
-148.6372666729101
 10
116.0597547452906
 20
-148.6600043031128
 10
116.2526800924646
 20
-148.7685248108982
 97
        0
 97
        0
 92
        1
 93
        1
 72
     4
 94
        3
 73
     0
 74
     1
 95
       17
 96
       13
 40
0.0
 40
0.0
 40
0.0
 40
0.0
 40
1.0
 40
1.0
 40
1.0
 40
2.0
 40
2.0
 40
2.0
 40
3.0
 40
3.0
 40
3.0
 40
4.0
 40
4.0
 40
4.0
 40
4.0
 10
115.0296711952009
 20
-149.193649593778
 10
115.0296711952009
 20
-149.4602999843363
 10
115.3135470631855
 20
-149.5099093593239
 10
115.6580566117105
 20
-149.5099093593239
 10
115.9777614727417
 20
-149.5099093593239
 10
116.2864420282201
 20
-149.4716687994377
 10
116.2864420282201
 20
-149.193649593778
 10
116.2864420282201
 20
-148.9290662605108
 10
116.0053222366237
 20
-148.8770453186835
 10
115.6580566117105
 20
-148.8770453186835
 10
115.3383517506793
 20
-148.8770453186835
 10
115.0296711952009
 20
-148.9176974454095
 10
115.0296711952009
 20
-149.193649593778
 97
        0
 97
        0
 75
     2
 76
     1
 98
        0
  0
ENDBLK
  5
A8
330
A5
100
AcDbEntity
  8
0
100
AcDbBlockEnd
  0
BLOCK
  5
C0
330
BE
100
AcDbEntity
  8
0
100
AcDbBlockBegin
  2
block 5
 70
     0
 10
0.0
 20
0.0
 30
0.0
  3
block 5
  1

  0
SPLINE
  5
C2
330
BE
100
AcDbEntity
  8
_U+30EC_U+30A4_U+30E4_U+30FC 1
370
     0
100
AcDbSpline
210
0.0
220
0.0
230
1.0
 70
    11
 71
     3
 72
    29
 73
    25
 74
     0
 42
0.0000000001
 43
0.0000000001
 12
1.0
 22
0.0
 32
0.0
 13
1.0
 23
0.0
 33
0.0
 40
0.0
 40
0.0
 40
0.0
 40
0.0
 40
1.0
 40
1.0
 40
1.0
 40
2.0
 40
2.0
 40
2.0
 40
3.0
 40
3.0
 40
3.0
 40
4.0
 40
4.0
 40
4.0
 40
5.0
 40
5.0
 40
5.0
 40
6.0
 40
6.0
 40
6.0
 40
7.0
 40
7.0
 40
7.0
 40
8.0
 40
8.0
 40
8.0
 40
8.0
 10
105.2519734437391
 20
-152.1767577744558
 30
0.0
 10
105.4614352492423
 20
-152.2921684732117
 30
0.0
 10
105.4803832744112
 20
-152.4775146103181
 30
0.0
 10
105.4803832744112
 20
-152.6018825573356
 30
0.0
 10
105.4803832744112
 20
-152.7734483125011
 30
0.0
 10
105.4338744853603
 20
-152.9250325138521
 30
0.0
 10
105.2519734437391
 20
-153.026662830667
 30
0.0
 10
105.0573255488225
 20
-153.137594905292
 30
0.0
 10
104.8206474889858
 20
-153.157920968655
 30
0.0
 10
104.6576944725335
 20
-153.157920968655
 30
0.0
 10
104.5136894812501
 20
-153.157920968655
 30
0.0
 10
104.2618530012783
 20
-153.1400064721317
 30
0.0
 10
104.0630709917794
 20
-153.026662830667
 30
0.0
 10
103.8601548676982
 20
-152.9115966414596
 30
0.0
 10
103.8367282183985
 20
-152.7396863767457
 30
0.0
 10
103.8367282183985
 20
-152.6018825573356
 30
0.0
 10
103.8367282183985
 20
-152.4320393499128
 30
0.0
 10
103.8811699501582
 20
-152.2783880912707
 30
0.0
 10
104.0630709917794
 20
-152.1767577744558
 30
0.0
 10
104.2556518294048
 20
-152.0703043239616
 30
0.0
 10
104.4840616600769
 20
-152.0454996364678
 30
0.0
 10
104.6576944725335
 20
-152.0454996364678
 30
0.0
 10
104.8289157181504
 20
-152.0454996364678
 30
0.0
 10
105.0593926061136
 20
-152.0682372666705
 30
0.0
 10
105.2519734437391
 20
-152.1767577744558
 30
0.0
  0
SPLINE
  5
C3
330
BE
100
AcDbEntity
  8
_U+30EC_U+30A4_U+30E4_U+30FC 1
370
     0
100
AcDbSpline
210
0.0
220
0.0
230
1.0
 70
    11
 71
     3
 72
    17
 73
    13
 74
     0
 42
0.0000000001
 43
0.0000000001
 12
1.0
 22
0.0
 32
0.0
 13
1.0
 23
0.0
 33
0.0
 40
0.0
 40
0.0
 40
0.0
 40
0.0
 40
1.0
 40
1.0
 40
1.0
 40
2.0
 40
2.0
 40
2.0
 40
3.0
 40
3.0
 40
3.0
 40
4.0
 40
4.0
 40
4.0
 40
4.0
 10
104.0293090560239
 20
-152.6018825573356
 30
0.0
 10
104.0293090560239
 20
-152.868532947894
 30
0.0
 10
104.31284041446
 20
-152.9181423228816
 30
0.0
 10
104.6576944725335
 20
-152.9181423228816
 30
0.0
 10
104.9770548240162
 20
-152.9181423228816
 30
0.0
 10
105.2857353794945
 20
-152.8799017629953
 30
0.0
 10
105.2857353794945
 20
-152.6018825573356
 30
0.0
 10
105.2857353794945
 20
-152.3372992240685
 30
0.0
 10
105.0046155878982
 20
-152.2852782822412
 30
0.0
 10
104.6576944725335
 20
-152.2852782822412
 30
0.0
 10
104.3379896115023
 20
-152.2852782822412
 30
0.0
 10
104.0293090560239
 20
-152.3259304089671
 30
0.0
 10
104.0293090560239
 20
-152.6018825573356
 30
0.0
  0
HATCH
  5
C4
330
BE
100
AcDbEntity
  8
_U+30EC_U+30A4_U+30E4_U+30FC 1
 62
   179
420
  2234388
100
AcDbHatch
 10
0.0
 20
0.0
 30
0.0
210
0.0
220
0.0
230
1.0
  2
SOLID
 70
     1
 71
     0
 91
        2
 92
        1
 93
        1
 72
     4
 94
        3
 73
     0
 74
     1
 95
       29
 96
       25
 40
0.0
 40
0.0
 40
0.0
 40
0.0
 40
1.0
 40
1.0
 40
1.0
 40
2.0
 40
2.0
 40
2.0
 40
3.0
 40
3.0
 40
3.0
 40
4.0
 40
4.0
 40
4.0
 40
5.0
 40
5.0
 40
5.0
 40
6.0
 40
6.0
 40
6.0
 40
7.0
 40
7.0
 40
7.0
 40
8.0
 40
8.0
 40
8.0
 40
8.0
 10
105.2519734437391
 20
-152.1767577744558
 10
105.4614352492423
 20
-152.2921684732117
 10
105.4803832744112
 20
-152.4775146103181
 10
105.4803832744112
 20
-152.6018825573356
 10
105.4803832744112
 20
-152.7734483125011
 10
105.4338744853603
 20
-152.9250325138521
 10
105.2519734437391
 20
-153.026662830667
 10
105.0573255488225
 20
-153.137594905292
 10
104.8206474889858
 20
-153.157920968655
 10
104.6576944725335
 20
-153.157920968655
 10
104.5136894812501
 20
-153.157920968655
 10
104.2618530012783
 20
-153.1400064721317
 10
104.0630709917794
 20
-153.026662830667
 10
103.8601548676982
 20
-152.9115966414596
 10
103.8367282183985
 20
-152.7396863767457
 10
103.8367282183985
 20
-152.6018825573356
 10
103.8367282183985
 20
-152.4320393499128
 10
103.8811699501582
 20
-152.2783880912707
 10
104.0630709917794
 20
-152.1767577744558
 10
104.2556518294048
 20
-152.0703043239616
 10
104.4840616600769
 20
-152.0454996364678
 10
104.6576944725335
 20
-152.0454996364678
 10
104.8289157181504
 20
-152.0454996364678
 10
105.0593926061136
 20
-152.0682372666705
 10
105.2519734437391
 20
-152.1767577744558
 97
        0
 97
        0
 92
        1
 93
        1
 72
     4
 94
        3
 73
     0
 74
     1
 95
       17
 96
       13
 40
0.0
 40
0.0
 40
0.0
 40
0.0
 40
1.0
 40
1.0
 40
1.0
 40
2.0
 40
2.0
 40
2.0
 40
3.0
 40
3.0
 40
3.0
 40
4.0
 40
4.0
 40
4.0
 40
4.0
 10
104.0293090560239
 20
-152.6018825573356
 10
104.0293090560239
 20
-152.868532947894
 10
104.31284041446
 20
-152.9181423228816
 10
104.6576944725335
 20
-152.9181423228816
 10
104.9770548240162
 20
-152.9181423228816
 10
105.2857353794945
 20
-152.8799017629953
 10
105.2857353794945
 20
-152.6018825573356
 10
105.2857353794945
 20
-152.3372992240685
 10
105.0046155878982
 20
-152.2852782822412
 10
104.6576944725335
 20
-152.2852782822412
 10
104.3379896115023
 20
-152.2852782822412
 10
104.0293090560239
 20
-152.3259304089671
 10
104.0293090560239
 20
-152.6018825573356
 97
        0
 97
        0
 75
     2
 76
     1
 98
        0
  0
POLYLINE
  5
C5
330
BE
100
AcDbEntity
  8
_U+30EC_U+30A4_U+30E4_U+30FC 1
370
     0
100
AcDb2dPolyline
 66
     1
 10
0.0
 20
0.0
 30
0.0
  0
VERTEX
  5
C6
330
C5
100
AcDbEntity
  8
_U+30EC_U+30A4_U+30E4_U+30FC 1
370
     0
100
AcDbVertex
100
AcDb2dVertex
 10
105.429740370778
 20
-151.8143337294075
 30
0.0
  0
VERTEX
  5
C7
330
C5
100
AcDbEntity
  8
_U+30EC_U+30A4_U+30E4_U+30FC 1
370
     0
100
AcDbVertex
100
AcDb2dVertex
 10
105.1779038908062
 20
-151.8143337294075
 30
0.0
  0
VERTEX
  5
C8
330
C5
100
AcDbEntity
  8
_U+30EC_U+30A4_U+30E4_U+30FC 1
370
     0
100
AcDbVertex
100
AcDb2dVertex
 10
105.1779038908062
 20
-151.5452717720095
 30
0.0
  0
VERTEX
  5
C9
330
C5
100
AcDbEntity
  8
_U+30EC_U+30A4_U+30E4_U+30FC 1
370
     0
100
AcDbVertex
100
AcDb2dVertex
 10
105.429740370778
 20
-151.5452717720095
 30
0.0
  0
VERTEX
  5
CA
330
C5
100
AcDbEntity
  8
_U+30EC_U+30A4_U+30E4_U+30FC 1
370
     0
100
AcDbVertex
100
AcDb2dVertex
 10
105.429740370778
 20
-151.8143337294075
 30
0.0
  0
SEQEND
  5
CB
330
C5
100
AcDbEntity
  8
_U+30EC_U+30A4_U+30E4_U+30FC 1
370
     0
  0
HATCH
  5
CC
330
BE
100
AcDbEntity
  8
_U+30EC_U+30A4_U+30E4_U+30FC 1
 62
   179
420
  2234388
100
AcDbHatch
 10
0.0
 20
0.0
 30
0.0
210
0.0
220
0.0
230
1.0
  2
SOLID
 70
     1
 71
     0
 91
        1
 92
        1
 93
        4
 72
     1
 10
105.429740370778
 20
-151.8143337294075
 11
105.1779038908062
 21
-151.8143337294075
 72
     1
 10
105.1779038908062
 20
-151.8143337294075
 11
105.1779038908062
 21
-151.5452717720095
 72
     1
 10
105.1779038908062
 20
-151.5452717720095
 11
105.429740370778
 21
-151.5452717720095
 72
     1
 10
105.429740370778
 20
-151.5452717720095
 11
105.429740370778
 21
-151.8143337294075
 97
        0
 75
     2
 76
     1
 98
        0
  0
SPLINE
  5
CD
330
BE
100
AcDbEntity
  8
_U+30EC_U+30A4_U+30E4_U+30FC 1
370
     0
100
AcDbSpline
210
0.0
220
0.0
230
1.0
 70
    11
 71
     3
 72
    53
 73
    49
 74
     0
 42
0.0000000001
 43
0.0000000001
 12
1.0
 22
0.0
 32
0.0
 13
1.0
 23
0.0
 33
0.0
 40
0.0
 40
0.0
 40
0.0
 40
0.0
 40
1.0
 40
1.0
 40
1.0
 40
2.0
 40
2.0
 40
2.0
 40
3.0
 40
3.0
 40
3.0
 40
4.0
 40
4.0
 40
4.0
 40
5.0
 40
5.0
 40
5.0
 40
6.0
 40
6.0
 40
6.0
 40
7.0
 40
7.0
 40
7.0
 40
8.0
 40
8.0
 40
8.0
 40
9.0
 40
9.0
 40
9.0
 40
10.0
 40
10.0
 40
10.0
 40
11.0
 40
11.0
 40
11.0
 40
12.0
 40
12.0
 40
12.0
 40
13.0
 40
13.0
 40
13.0
 40
14.0
 40
14.0
 40
14.0
 40
15.0
 40
15.0
 40
15.0
 40
16.0
 40
16.0
 40
16.0
 40
16.0
 10
105.4803832744112
 20
-150.7783935169929
 30
0.0
 10
105.4803832744112
 20
-150.8621093372845
 30
0.0
 10
105.4635023065334
 20
-150.9702853355213
 30
0.0
 10
105.4001125496048
 20
-151.0791503528552
 30
0.0
 10
105.2902140036254
 20
-151.2644964899617
 30
0.0
 10
105.1589558656374
 20
-151.2868896106158
 30
0.0
 10
105.051124376949
 20
-151.3072156739788
 30
0.0
 10
105.051124376949
 20
-151.3072156739788
 30
0.0
 10
105.051124376949
 20
-151.069848595045
 30
0.0
 10
105.051124376949
 20
-151.069848595045
 30
0.0
 10
105.2499063864479
 20
-151.0112819717958
 30
0.0
 10
105.2795342076211
 20
-150.8755452096769
 30
0.0
 10
105.2795342076211
 20
-150.7759819501532
 30
0.0
 10
105.2795342076211
 20
-150.6268093156419
 30
0.0
 10
105.1799709480974
 20
-150.4638562991896
 30
0.0
 10
104.947427002843
 20
-150.4638562991896
 30
0.0
 10
104.6914564082889
 20
-150.4638562991896
 30
0.0
 10
104.6215209699384
 20
-150.6560926272665
 30
0.0
 10
104.6215209699384
 20
-150.7849391984149
 30
0.0
 10
104.6215209699384
 20
-150.8190456437189
 30
0.0
 10
104.6215209699384
 20
-150.9702853355213
 30
0.0
 10
104.7507120506352
 20
-151.0653699709142
 30
0.0
 10
104.7507120506352
 20
-151.0653699709142
 30
0.0
 10
104.7317640254664
 20
-151.2531276748603
 30
0.0
 10
104.7317640254664
 20
-151.2531276748603
 30
0.0
 10
104.7317640254664
 20
-151.2531276748603
 30
0.0
 10
103.8853040647405
 20
-151.124281103712
 30
0.0
 10
103.8853040647405
 20
-151.124281103712
 30
0.0
 10
103.8853040647405
 20
-151.124281103712
 30
0.0
 10
103.8853040647405
 20
-150.2922905440242
 30
0.0
 10
103.8853040647405
 20
-150.2922905440242
 30
0.0
 10
103.8853040647405
 20
-150.2922905440242
 30
0.0
 10
104.0799519596571
 20
-150.2922905440242
 30
0.0
 10
104.0799519596571
 20
-150.2922905440242
 30
0.0
 10
104.0799519596571
 20
-150.2922905440242
 30
0.0
 10
104.0799519596571
 20
-150.9499592721583
 30
0.0
 10
104.0799519596571
 20
-150.9499592721583
 30
0.0
 10
104.0799519596571
 20
-150.9499592721583
 30
0.0
 10
104.5030096852458
 20
-151.0202392200574
 30
0.0
 10
104.5030096852458
 20
-151.0202392200574
 30
0.0
 10
104.4692477494903
 20
-150.9547824058377
 30
0.0
 10
104.4289401323129
 20
-150.8665879614153
 30
0.0
 10
104.4289401323129
 20
-150.7398084475581
 30
0.0
 10
104.4289401323129
 20
-150.468679432869
 30
0.0
 10
104.6153197980649
 20
-150.2154649147031
 30
0.0
 10
104.9284789776741
 20
-150.2154649147031
 30
0.0
 10
105.2457722718656
 20
-150.2154649147031
 30
0.0
 10
105.4803832744112
 20
-150.4548990509279
 30
0.0
 10
105.4803832744112
 20
-150.7783935169929
 30
0.0
  0
HATCH
  5
CE
330
BE
100
AcDbEntity
  8
_U+30EC_U+30A4_U+30E4_U+30FC 1
 62
   179
420
  2234388
100
AcDbHatch
 10
0.0
 20
0.0
 30
0.0
210
0.0
220
0.0
230
1.0
  2
SOLID
 70
     1
 71
     0
 91
        1
 92
        1
 93
        1
 72
     4
 94
        3
 73
     0
 74
     1
 95
       53
 96
       49
 40
0.0
 40
0.0
 40
0.0
 40
0.0
 40
1.0
 40
1.0
 40
1.0
 40
2.0
 40
2.0
 40
2.0
 40
3.0
 40
3.0
 40
3.0
 40
4.0
 40
4.0
 40
4.0
 40
5.0
 40
5.0
 40
5.0
 40
6.0
 40
6.0
 40
6.0
 40
7.0
 40
7.0
 40
7.0
 40
8.0
 40
8.0
 40
8.0
 40
9.0
 40
9.0
 40
9.0
 40
10.0
 40
10.0
 40
10.0
 40
11.0
 40
11.0
 40
11.0
 40
12.0
 40
12.0
 40
12.0
 40
13.0
 40
13.0
 40
13.0
 40
14.0
 40
14.0
 40
14.0
 40
15.0
 40
15.0
 40
15.0
 40
16.0
 40
16.0
 40
16.0
 40
16.0
 10
105.4803832744112
 20
-150.7783935169929
 10
105.4803832744112
 20
-150.8621093372845
 10
105.4635023065334
 20
-150.9702853355213
 10
105.4001125496048
 20
-151.0791503528552
 10
105.2902140036254
 20
-151.2644964899617
 10
105.1589558656374
 20
-151.2868896106158
 10
105.051124376949
 20
-151.3072156739788
 10
105.051124376949
 20
-151.3072156739788
 10
105.051124376949
 20
-151.069848595045
 10
105.051124376949
 20
-151.069848595045
 10
105.2499063864479
 20
-151.0112819717958
 10
105.2795342076211
 20
-150.8755452096769
 10
105.2795342076211
 20
-150.7759819501532
 10
105.2795342076211
 20
-150.6268093156419
 10
105.1799709480974
 20
-150.4638562991896
 10
104.947427002843
 20
-150.4638562991896
 10
104.6914564082889
 20
-150.4638562991896
 10
104.6215209699384
 20
-150.6560926272665
 10
104.6215209699384
 20
-150.7849391984149
 10
104.6215209699384
 20
-150.8190456437189
 10
104.6215209699384
 20
-150.9702853355213
 10
104.7507120506352
 20
-151.0653699709142
 10
104.7507120506352
 20
-151.0653699709142
 10
104.7317640254664
 20
-151.2531276748603
 10
104.7317640254664
 20
-151.2531276748603
 10
104.7317640254664
 20
-151.2531276748603
 10
103.8853040647405
 20
-151.124281103712
 10
103.8853040647405
 20
-151.124281103712
 10
103.8853040647405
 20
-151.124281103712
 10
103.8853040647405
 20
-150.2922905440242
 10
103.8853040647405
 20
-150.2922905440242
 10
103.8853040647405
 20
-150.2922905440242
 10
104.0799519596571
 20
-150.2922905440242
 10
104.0799519596571
 20
-150.2922905440242
 10
104.0799519596571
 20
-150.2922905440242
 10
104.0799519596571
 20
-150.9499592721583
 10
104.0799519596571
 20
-150.9499592721583
 10
104.0799519596571
 20
-150.9499592721583
 10
104.5030096852458
 20
-151.0202392200574
 10
104.5030096852458
 20
-151.0202392200574
 10
104.4692477494903
 20
-150.9547824058377
 10
104.4289401323129
 20
-150.8665879614153
 10
104.4289401323129
 20
-150.7398084475581
 10
104.4289401323129
 20
-150.468679432869
 10
104.6153197980649
 20
-150.2154649147031
 10
104.9284789776741
 20
-150.2154649147031
 10
105.2457722718656
 20
-150.2154649147031
 10
105.4803832744112
 20
-150.4548990509279
 10
105.4803832744112
 20
-150.7783935169929
 97
        0
 97
        0
 75
     2
 76
     1
 98
        0
  0
ENDBLK
  5
C1
330
BE
100
AcDbEntity
  8
0
100
AcDbBlockEnd
  0
BLOCK
  5
DD
330
DB
100
AcDbEntity
  8
0
100
AcDbBlockBegin
  2
block 6
 70
     0
 10
0.0
 20
0.0
 30
0.0
  3
block 6
  1

  0
SPLINE
  5
DF
330
DB
100
AcDbEntity
  8
_U+30EC_U+30A4_U+30E4_U+30FC 1
370
     0
100
AcDbSpline
210
0.0
220
0.0
230
1.0
 70
    11
 71
     3
 72
    29
 73
    25
 74
     0
 42
0.0000000001
 43
0.0000000001
 12
1.0
 22
0.0
 32
0.0
 13
1.0
 23
0.0
 33
0.0
 40
0.0
 40
0.0
 40
0.0
 40
0.0
 40
1.0
 40
1.0
 40
1.0
 40
2.0
 40
2.0
 40
2.0
 40
3.0
 40
3.0
 40
3.0
 40
4.0
 40
4.0
 40
4.0
 40
5.0
 40
5.0
 40
5.0
 40
6.0
 40
6.0
 40
6.0
 40
7.0
 40
7.0
 40
7.0
 40
8.0
 40
8.0
 40
8.0
 40
8.0
 10
98.7743326575981
 20
-158.5753336192103
 30
0.0
 10
98.48942326096792
 20
-158.5753336192103
 30
0.0
 10
98.2181219915045
 20
-158.4378743093489
 30
0.0
 10
98.2181219915045
 20
-158.0888861366931
 30
0.0
 10
98.2181219915045
 20
-157.832915542139
 30
0.0
 10
98.36953393808123
 20
-157.7378309067461
 30
0.0
 10
98.48270532477169
 20
-157.6765082071087
 30
0.0
 10
98.34920787471826
 20
-157.6172525647624
 30
0.0
 10
98.26790362126636
 20
-157.5028753946521
 30
0.0
 10
98.26790362126636
 20
-157.3419894354909
 30
0.0
 10
98.26790362126636
 20
-157.0670708157679
 30
0.0
 10
98.48046601270627
 20
-156.9316785631976
 30
0.0
 10
98.7743326575981
 20
-156.9316785631976
 30
0.0
 10
99.07715655075155
 20
-156.9316785631976
 30
0.0
 10
99.28076169392982
 20
-157.0756835544811
 30
0.0
 10
99.28076169392982
 20
-157.3419894354909
 30
0.0
 10
99.28076169392982
 20
-157.5028753946521
 30
0.0
 10
99.19704587363825
 20
-157.6172525647624
 30
0.0
 10
99.06372067835908
 20
-157.6765082071087
 30
0.0
 10
99.15863305897771
 20
-157.7271511107418
 30
0.0
 10
99.328131756852
 20
-157.8222357461347
 30
0.0
 10
99.328131756852
 20
-158.0847520221108
 30
0.0
 10
99.328131756852
 20
-158.4592339013574
 30
0.0
 10
99.02978648782937
 20
-158.5753336192103
 30
0.0
 10
98.7743326575981
 20
-158.5753336192103
 30
0.0
  0
SPLINE
  5
E0
330
DB
100
AcDbEntity
  8
_U+30EC_U+30A4_U+30E4_U+30FC 1
370
     0
100
AcDbSpline
210
0.0
220
0.0
230
1.0
 70
    11
 71
     3
 72
    17
 73
    13
 74
     0
 42
0.0000000001
 43
0.0000000001
 12
1.0
 22
0.0
 32
0.0
 13
1.0
 23
0.0
 33
0.0
 40
0.0
 40
0.0
 40
0.0
 40
0.0
 40
1.0
 40
1.0
 40
1.0
 40
2.0
 40
2.0
 40
2.0
 40
3.0
 40
3.0
 40
3.0
 40
4.0
 40
4.0
 40
4.0
 40
4.0
 10
98.7743326575981
 20
-157.784339695797
 30
0.0
 10
98.62050914418168
 20
-157.784339695797
 30
0.0
 10
98.45772838250363
 20
-157.8711561020253
 30
0.0
 10
98.45772838250363
 20
-158.0740722261065
 30
0.0
 10
98.45772838250363
 20
-158.2793999170274
 30
0.0
 10
98.59346514462247
 20
-158.3806857242937
 30
0.0
 10
98.7743326575981
 20
-158.3806857242937
 30
0.0
 10
98.97328692187126
 20
-158.3806857242937
 30
0.0
 10
99.09076467791829
 20
-158.2580403250188
 30
0.0
 10
99.09076467791829
 20
-158.0802733979799
 30
0.0
 10
99.09076467791829
 20
-157.8584092487299
 30
0.0
 10
98.91678735591317
 20
-157.784339695797
 30
0.0
 10
98.7743326575981
 20
-157.784339695797
 30
0.0
  0
SPLINE
  5
E1
330
DB
100
AcDbEntity
  8
_U+30EC_U+30A4_U+30E4_U+30FC 1
370
     0
100
AcDbSpline
210
0.0
220
0.0
230
1.0
 70
    11
 71
     3
 72
    17
 73
    13
 74
     0
 42
0.0000000001
 43
0.0000000001
 12
1.0
 22
0.0
 32
0.0
 13
1.0
 23
0.0
 33
0.0
 40
0.0
 40
0.0
 40
0.0
 40
0.0
 40
1.0
 40
1.0
 40
1.0
 40
2.0
 40
2.0
 40
2.0
 40
3.0
 40
3.0
 40
3.0
 40
4.0
 40
4.0
 40
4.0
 40
4.0
 10
98.7743326575981
 20
-157.1242594008231
 30
0.0
 10
98.5979437687533
 20
-157.1242594008231
 30
0.0
 10
98.50751001226548
 20
-157.219344036216
 30
0.0
 10
98.50751001226548
 20
-157.3547362887863
 30
0.0
 10
98.50751001226548
 20
-157.4773816880612
 30
0.0
 10
98.58433564158656
 20
-157.5958929727538
 30
0.0
 10
98.7743326575981
 20
-157.5958929727538
 30
0.0
 10
98.96415741883536
 20
-157.5958929727538
 30
0.0
 10
99.04098304815642
 20
-157.4773816880612
 30
0.0
 10
99.04098304815642
 20
-157.3547362887863
 30
0.0
 10
99.04098304815642
 20
-157.219344036216
 30
0.0
 10
98.94830997960321
 20
-157.1242594008231
 30
0.0
 10
98.7743326575981
 20
-157.1242594008231
 30
0.0
  0
HATCH
  5
E2
330
DB
100
AcDbEntity
  8
_U+30EC_U+30A4_U+30E4_U+30FC 1
 62
   179
420
  2234388
100
AcDbHatch
 10
0.0
 20
0.0
 30
0.0
210
0.0
220
0.0
230
1.0
  2
SOLID
 70
     1
 71
     0
 91
        3
 92
        1
 93
        1
 72
     4
 94
        3
 73
     0
 74
     1
 95
       29
 96
       25
 40
0.0
 40
0.0
 40
0.0
 40
0.0
 40
1.0
 40
1.0
 40
1.0
 40
2.0
 40
2.0
 40
2.0
 40
3.0
 40
3.0
 40
3.0
 40
4.0
 40
4.0
 40
4.0
 40
5.0
 40
5.0
 40
5.0
 40
6.0
 40
6.0
 40
6.0
 40
7.0
 40
7.0
 40
7.0
 40
8.0
 40
8.0
 40
8.0
 40
8.0
 10
98.7743326575981
 20
-158.5753336192103
 10
98.48942326096792
 20
-158.5753336192103
 10
98.2181219915045
 20
-158.4378743093489
 10
98.2181219915045
 20
-158.0888861366931
 10
98.2181219915045
 20
-157.832915542139
 10
98.36953393808123
 20
-157.7378309067461
 10
98.48270532477169
 20
-157.6765082071087
 10
98.34920787471826
 20
-157.6172525647624
 10
98.26790362126636
 20
-157.5028753946521
 10
98.26790362126636
 20
-157.3419894354909
 10
98.26790362126636
 20
-157.0670708157679
 10
98.48046601270627
 20
-156.9316785631976
 10
98.7743326575981
 20
-156.9316785631976
 10
99.07715655075155
 20
-156.9316785631976
 10
99.28076169392982
 20
-157.0756835544811
 10
99.28076169392982
 20
-157.3419894354909
 10
99.28076169392982
 20
-157.5028753946521
 10
99.19704587363825
 20
-157.6172525647624
 10
99.06372067835908
 20
-157.6765082071087
 10
99.15863305897771
 20
-157.7271511107418
 10
99.328131756852
 20
-157.8222357461347
 10
99.328131756852
 20
-158.0847520221108
 10
99.328131756852
 20
-158.4592339013574
 10
99.02978648782937
 20
-158.5753336192103
 10
98.7743326575981
 20
-158.5753336192103
 97
        0
 97
        0
 92
        1
 93
        1
 72
     4
 94
        3
 73
     0
 74
     1
 95
       17
 96
       13
 40
0.0
 40
0.0
 40
0.0
 40
0.0
 40
1.0
 40
1.0
 40
1.0
 40
2.0
 40
2.0
 40
2.0
 40
3.0
 40
3.0
 40
3.0
 40
4.0
 40
4.0
 40
4.0
 40
4.0
 10
98.7743326575981
 20
-157.784339695797
 10
98.62050914418168
 20
-157.784339695797
 10
98.45772838250363
 20
-157.8711561020253
 10
98.45772838250363
 20
-158.0740722261065
 10
98.45772838250363
 20
-158.2793999170274
 10
98.59346514462247
 20
-158.3806857242937
 10
98.7743326575981
 20
-158.3806857242937
 10
98.97328692187126
 20
-158.3806857242937
 10
99.09076467791829
 20
-158.2580403250188
 10
99.09076467791829
 20
-158.0802733979799
 10
99.09076467791829
 20
-157.8584092487299
 10
98.91678735591317
 20
-157.784339695797
 10
98.7743326575981
 20
-157.784339695797
 97
        0
 97
        0
 92
        1
 93
        1
 72
     4
 94
        3
 73
     0
 74
     1
 95
       17
 96
       13
 40
0.0
 40
0.0
 40
0.0
 40
0.0
 40
1.0
 40
1.0
 40
1.0
 40
2.0
 40
2.0
 40
2.0
 40
3.0
 40
3.0
 40
3.0
 40
4.0
 40
4.0
 40
4.0
 40
4.0
 10
98.7743326575981
 20
-157.1242594008231
 10
98.5979437687533
 20
-157.1242594008231
 10
98.50751001226548
 20
-157.219344036216
 10
98.50751001226548
 20
-157.3547362887863
 10
98.50751001226548
 20
-157.4773816880612
 10
98.58433564158656
 20
-157.5958929727538
 10
98.7743326575981
 20
-157.5958929727538
 10
98.96415741883536
 20
-157.5958929727538
 10
99.04098304815642
 20
-157.4773816880612
 10
99.04098304815642
 20
-157.3547362887863
 10
99.04098304815642
 20
-157.219344036216
 10
98.94830997960321
 20
-157.1242594008231
 10
98.7743326575981
 20
-157.1242594008231
 97
        0
 97
        0
 75
     2
 76
     1
 98
        0
  0
ENDBLK
  5
DE
330
DB
100
AcDbEntity
  8
0
100
AcDbBlockEnd
  0
BLOCK
  5
ED
330
EB
100
AcDbEntity
  8
0
100
AcDbBlockBegin
  2
block 7
 70
     0
 10
0.0
 20
0.0
 30
0.0
  3
block 7
  1

  0
SPLINE
  5
EF
330
EB
100
AcDbEntity
  8
_U+30EC_U+30A4_U+30E4_U+30FC 1
370
     0
100
AcDbSpline
210
0.0
220
0.0
230
1.0
 70
    11
 71
     3
 72
    62
 73
    58
 74
     0
 42
0.0000000001
 43
0.0000000001
 12
1.0
 22
0.0
 32
0.0
 13
1.0
 23
0.0
 33
0.0
 40
0.0
 40
0.0
 40
0.0
 40
0.0
 40
1.0
 40
1.0
 40
1.0
 40
2.0
 40
2.0
 40
2.0
 40
3.0
 40
3.0
 40
3.0
 40
4.0
 40
4.0
 40
4.0
 40
5.0
 40
5.0
 40
5.0
 40
6.0
 40
6.0
 40
6.0
 40
7.0
 40
7.0
 40
7.0
 40
8.0
 40
8.0
 40
8.0
 40
9.0
 40
9.0
 40
9.0
 40
10.0
 40
10.0
 40
10.0
 40
11.0
 40
11.0
 40
11.0
 40
12.0
 40
12.0
 40
12.0
 40
13.0
 40
13.0
 40
13.0
 40
14.0
 40
14.0
 40
14.0
 40
15.0
 40
15.0
 40
15.0
 40
16.0
 40
16.0
 40
16.0
 40
17.0
 40
17.0
 40
17.0
 40
18.0
 40
18.0
 40
18.0
 40
19.0
 40
19.0
 40
19.0
 40
19.0
 10
93.26528046713507
 20
-158.5753336192103
 30
0.0
 10
93.16365015032021
 20
-158.5753336192103
 30
0.0
 10
92.93076169551732
 20
-158.5543185367503
 30
0.0
 10
92.79726424546388
 20
-158.3682833805468
 30
0.0
 10
92.7181993040774
 20
-158.2559732677277
 30
0.0
 10
92.71372067994658
 20
-158.1567545177525
 30
0.0
 10
92.70924205581575
 20
-158.0720051688153
 30
0.0
 10
92.70924205581575
 20
-158.0720051688153
 30
0.0
 10
92.94419756790978
 20
-158.0720051688153
 30
0.0
 10
92.94419756790978
 20
-158.0720051688153
 30
0.0
 10
92.94660913474947
 20
-158.1460747217482
 30
0.0
 10
92.95780569507653
 20
-158.3806857242937
 30
0.0
 10
93.26080184300424
 20
-158.3806857242937
 30
0.0
 10
93.40773516545015
 20
-158.3806857242937
 30
0.0
 10
93.57051592712821
 20
-158.3110947954917
 30
0.0
 10
93.57051592712821
 20
-158.0826849648196
 30
0.0
 10
93.57051592712821
 20
-157.9662407374182
 30
0.0
 10
93.52986380040225
 20
-157.9176648910762
 30
0.0
 10
93.49592960987255
 20
-157.8859700126118
 30
0.0
 10
93.41686466848607
 20
-157.811900459679
 30
0.0
 10
93.29249672146855
 20
-157.7991536063836
 30
0.0
 10
93.23358558867078
 20
-157.7991536063836
 30
0.0
 10
93.2132595253078
 20
-157.7991536063836
 30
0.0
 10
93.17484671064726
 20
-157.8012206636747
 30
0.0
 10
93.14556339902263
 20
-157.805354778257
 30
0.0
 10
93.14556339902263
 20
-157.805354778257
 30
0.0
 10
93.14556339902263
 20
-157.6107068833404
 30
0.0
 10
93.14556339902263
 20
-157.6107068833404
 30
0.0
 10
93.1862155257486
 20
-157.6172525647624
 30
0.0
 10
93.23134627660536
 20
-157.6193196220535
 30
0.0
 10
93.23823646757586
 20
-157.6193196220535
 30
0.0
 10
93.3083441607007
 20
-157.6193196220535
 30
0.0
 10
93.52073429736635
 20
-157.597960030045
 30
0.0
 10
93.52073429736635
 20
-157.3612819702083
 30
0.0
 10
93.52073429736635
 20
-157.1835150431694
 30
0.0
 10
93.38069116589094
 20
-157.1283935154054
 30
0.0
 10
93.26304115506966
 20
-157.1283935154054
 30
0.0
 10
92.98037107050492
 20
-157.1283935154054
 30
0.0
 10
92.97141382224326
 20
-157.3612819702083
 30
0.0
 10
92.96693519811244
 20
-157.4329399563015
 30
0.0
 10
92.96693519811244
 20
-157.4329399563015
 30
0.0
 10
92.7498941825417
 20
-157.4329399563015
 30
0.0
 10
92.7498941825417
 20
-157.4329399563015
 30
0.0
 10
92.75885143080335
 20
-157.3082274997354
 30
0.0
 10
92.78830699720223
 20
-156.9316785631976
 30
0.0
 10
93.27664928223639
 20
-156.9316785631976
 30
0.0
 10
93.51625567323552
 20
-156.9316785631976
 30
0.0
 10
93.77394881553221
 20
-157.0588025866033
 30
0.0
 10
93.77394881553221
 20
-157.3547362887863
 30
0.0
 10
93.77394881553221
 20
-157.5411159545383
 30
0.0
 10
93.67231849871735
 20
-157.6234537366358
 30
0.0
 10
93.56603730299739
 20
-157.6847764362733
 30
0.0
 10
93.63149411721713
 20
-157.7123372001552
 30
0.0
 10
93.82596975735949
 20
-157.7926079249616
 30
0.0
 10
93.82596975735949
 20
-158.0699381115242
 30
0.0
 10
93.82596975735949
 20
-158.4082464881757
 30
0.0
 10
93.56155867886656
 20
-158.5753336192103
 30
0.0
 10
93.26528046713507
 20
-158.5753336192103
 30
0.0
  0
HATCH
  5
F0
330
EB
100
AcDbEntity
  8
_U+30EC_U+30A4_U+30E4_U+30FC 1
 62
   179
420
  2234388
100
AcDbHatch
 10
0.0
 20
0.0
 30
0.0
210
0.0
220
0.0
230
1.0
  2
SOLID
 70
     1
 71
     0
 91
        1
 92
        1
 93
        1
 72
     4
 94
        3
 73
     0
 74
     1
 95
       62
 96
       58
 40
0.0
 40
0.0
 40
0.0
 40
0.0
 40
1.0
 40
1.0
 40
1.0
 40
2.0
 40
2.0
 40
2.0
 40
3.0
 40
3.0
 40
3.0
 40
4.0
 40
4.0
 40
4.0
 40
5.0
 40
5.0
 40
5.0
 40
6.0
 40
6.0
 40
6.0
 40
7.0
 40
7.0
 40
7.0
 40
8.0
 40
8.0
 40
8.0
 40
9.0
 40
9.0
 40
9.0
 40
10.0
 40
10.0
 40
10.0
 40
11.0
 40
11.0
 40
11.0
 40
12.0
 40
12.0
 40
12.0
 40
13.0
 40
13.0
 40
13.0
 40
14.0
 40
14.0
 40
14.0
 40
15.0
 40
15.0
 40
15.0
 40
16.0
 40
16.0
 40
16.0
 40
17.0
 40
17.0
 40
17.0
 40
18.0
 40
18.0
 40
18.0
 40
19.0
 40
19.0
 40
19.0
 40
19.0
 10
93.26528046713507
 20
-158.5753336192103
 10
93.16365015032021
 20
-158.5753336192103
 10
92.93076169551732
 20
-158.5543185367503
 10
92.79726424546388
 20
-158.3682833805468
 10
92.7181993040774
 20
-158.2559732677277
 10
92.71372067994658
 20
-158.1567545177525
 10
92.70924205581575
 20
-158.0720051688153
 10
92.70924205581575
 20
-158.0720051688153
 10
92.94419756790978
 20
-158.0720051688153
 10
92.94419756790978
 20
-158.0720051688153
 10
92.94660913474947
 20
-158.1460747217482
 10
92.95780569507653
 20
-158.3806857242937
 10
93.26080184300424
 20
-158.3806857242937
 10
93.40773516545015
 20
-158.3806857242937
 10
93.57051592712821
 20
-158.3110947954917
 10
93.57051592712821
 20
-158.0826849648196
 10
93.57051592712821
 20
-157.9662407374182
 10
93.52986380040225
 20
-157.9176648910762
 10
93.49592960987255
 20
-157.8859700126118
 10
93.41686466848607
 20
-157.811900459679
 10
93.29249672146855
 20
-157.7991536063836
 10
93.23358558867078
 20
-157.7991536063836
 10
93.2132595253078
 20
-157.7991536063836
 10
93.17484671064726
 20
-157.8012206636747
 10
93.14556339902263
 20
-157.805354778257
 10
93.14556339902263
 20
-157.805354778257
 10
93.14556339902263
 20
-157.6107068833404
 10
93.14556339902263
 20
-157.6107068833404
 10
93.1862155257486
 20
-157.6172525647624
 10
93.23134627660536
 20
-157.6193196220535
 10
93.23823646757586
 20
-157.6193196220535
 10
93.3083441607007
 20
-157.6193196220535
 10
93.52073429736635
 20
-157.597960030045
 10
93.52073429736635
 20
-157.3612819702083
 10
93.52073429736635
 20
-157.1835150431694
 10
93.38069116589094
 20
-157.1283935154054
 10
93.26304115506966
 20
-157.1283935154054
 10
92.98037107050492
 20
-157.1283935154054
 10
92.97141382224326
 20
-157.3612819702083
 10
92.96693519811244
 20
-157.4329399563015
 10
92.96693519811244
 20
-157.4329399563015
 10
92.7498941825417
 20
-157.4329399563015
 10
92.7498941825417
 20
-157.4329399563015
 10
92.75885143080335
 20
-157.3082274997354
 10
92.78830699720223
 20
-156.9316785631976
 10
93.27664928223639
 20
-156.9316785631976
 10
93.51625567323552
 20
-156.9316785631976
 10
93.77394881553221
 20
-157.0588025866033
 10
93.77394881553221
 20
-157.3547362887863
 10
93.77394881553221
 20
-157.5411159545383
 10
93.67231849871735
 20
-157.6234537366358
 10
93.56603730299739
 20
-157.6847764362733
 10
93.63149411721713
 20
-157.7123372001552
 10
93.82596975735949
 20
-157.7926079249616
 10
93.82596975735949
 20
-158.0699381115242
 10
93.82596975735949
 20
-158.4082464881757
 10
93.56155867886656
 20
-158.5753336192103
 10
93.26528046713507
 20
-158.5753336192103
 97
        0
 97
        0
 75
     2
 76
     1
 98
        0
  0
ENDBLK
  5
EE
330
EB
100
AcDbEntity
  8
0
100
AcDbBlockEnd
  0
ENDSEC
  0
SECTION
  2
ENTITIES
  0
POLYLINE
  5
41
330
1F
100
AcDbEntity
  8
_U+30EC_U+30A4_U+30E4_U+30FC 1
 62
   179
420
  2234388
370
    25
100
AcDb2dPolyline
 66
     1
 10
0.0
 20
0.0
 30
0.0
  0
VERTEX
  5
42
330
41
100
AcDbEntity
  8
_U+30EC_U+30A4_U+30E4_U+30FC 1
 62
   179
420
  2234388
370
    25
100
AcDbVertex
100
AcDb2dVertex
 10
91.73185071528107
 20
-143.8270413529321
 30
0.0
  0
VERTEX
  5
43
330
41
100
AcDbEntity
  8
_U+30EC_U+30A4_U+30E4_U+30FC 1
 62
   179
420
  2234388
370
    25
100
AcDbVertex
100
AcDb2dVertex
 10
113.7322365428934
 20
-143.8270413529321
 30
0.0
  0
SEQEND
  5
44
330
41
100
AcDbEntity
  8
_U+30EC_U+30A4_U+30E4_U+30FC 1
 62
   179
420
  2234388
370
    25
  0
POLYLINE
  5
45
330
1F
100
AcDbEntity
  8
_U+30EC_U+30A4_U+30E4_U+30FC 1
 62
   179
420
  2234388
370
    25
100
AcDb2dPolyline
 66
     1
 10
0.0
 20
0.0
 30
0.0
  0
VERTEX
  5
46
330
45
100
AcDbEntity
  8
_U+30EC_U+30A4_U+30E4_U+30FC 1
 62
   179
420
  2234388
370
    25
100
AcDbVertex
100
AcDb2dVertex
 10
91.73185071528107
 20
-144.8268135749043
 30
0.0
  0
VERTEX
  5
47
330
45
100
AcDbEntity
  8
_U+30EC_U+30A4_U+30E4_U+30FC 1
 62
   179
420
  2234388
370
    25
100
AcDbVertex
100
AcDb2dVertex
 10
94.73187286096635
 20
-144.8268135749043
 30
0.0
  0
SEQEND
  5
48
330
45
100
AcDbEntity
  8
_U+30EC_U+30A4_U+30E4_U+30FC 1
 62
   179
420
  2234388
370
    25
  0
POLYLINE
  5
49
330
1F
100
AcDbEntity
  8
_U+30EC_U+30A4_U+30E4_U+30FC 1
 62
   179
420
  2234388
370
    25
100
AcDb2dPolyline
 66
     1
 10
0.0
 20
0.0
 30
0.0
  0
VERTEX
  5
4A
330
49
100
AcDbEntity
  8
_U+30EC_U+30A4_U+30E4_U+30FC 1
 62
   179
420
  2234388
370
    25
100
AcDbVertex
100
AcDb2dVertex
 10
95.73178616878977
 20
-144.8268135749043
 30
0.0
  0
VERTEX
  5
4B
330
49
100
AcDbEntity
  8
_U+30EC_U+30A4_U+30E4_U+30FC 1
 62
   179
420
  2234388
370
    25
100
AcDbVertex
100
AcDb2dVertex
 10
113.7322365428934
 20
-144.8268135749043
 30
0.0
  0
SEQEND
  5
4C
330
49
100
AcDbEntity
  8
_U+30EC_U+30A4_U+30E4_U+30FC 1
 62
   179
420
  2234388
370
    25
  0
POLYLINE
  5
4D
330
1F
100
AcDbEntity
  8
_U+30EC_U+30A4_U+30E4_U+30FC 1
 62
   179
420
  2234388
370
    25
100
AcDb2dPolyline
 66
     1
 10
0.0
 20
0.0
 30
0.0
  0
VERTEX
  5
4E
330
4D
100
AcDbEntity
  8
_U+30EC_U+30A4_U+30E4_U+30FC 1
 62
   179
420
  2234388
370
    25
100
AcDbVertex
100
AcDb2dVertex
 10
91.73185071528107
 20
-143.8270413529321
 30
0.0
  0
VERTEX
  5
4F
330
4D
100
AcDbEntity
  8
_U+30EC_U+30A4_U+30E4_U+30FC 1
 62
   179
420
  2234388
370
    25
100
AcDbVertex
100
AcDb2dVertex
 10
91.73185071528107
 20
-144.8268135749043
 30
0.0
  0
SEQEND
  5
50
330
4D
100
AcDbEntity
  8
_U+30EC_U+30A4_U+30E4_U+30FC 1
 62
   179
420
  2234388
370
    25
  0
POLYLINE
  5
51
330
1F
100
AcDbEntity
  8
_U+30EC_U+30A4_U+30E4_U+30FC 1
 62
   179
420
  2234388
370
    25
100
AcDb2dPolyline
 66
     1
 10
0.0
 20
0.0
 30
0.0
  0
VERTEX
  5
52
330
51
100
AcDbEntity
  8
_U+30EC_U+30A4_U+30E4_U+30FC 1
 62
   179
420
  2234388
370
    25
100
AcDbVertex
100
AcDb2dVertex
 10
113.7322365428934
 20
-143.8270413529321
 30
0.0
  0
VERTEX
  5
53
330
51
100
AcDbEntity
  8
_U+30EC_U+30A4_U+30E4_U+30FC 1
 62
   179
420
  2234388
370
    25
100
AcDbVertex
100
AcDb2dVertex
 10
113.7322365428934
 20
-144.8268135749043
 30
0.0
  0
SEQEND
  5
54
330
51
100
AcDbEntity
  8
_U+30EC_U+30A4_U+30E4_U+30FC 1
 62
   179
420
  2234388
370
    25
  0
POLYLINE
  5
55
330
1F
100
AcDbEntity
  8
_U+30EC_U+30A4_U+30E4_U+30FC 1
 62
   179
420
  2234388
370
    25
100
AcDb2dPolyline
 66
     1
 10
0.0
 20
0.0
 30
0.0
  0
VERTEX
  5
56
330
55
100
AcDbEntity
  8
_U+30EC_U+30A4_U+30E4_U+30FC 1
 62
   179
420
  2234388
370
    25
100
AcDbVertex
100
AcDb2dVertex
 10
95.73178616878977
 20
-154.8267230168488
 30
0.0
  0
VERTEX
  5
57
330
55
100
AcDbEntity
  8
_U+30EC_U+30A4_U+30E4_U+30FC 1
 62
   179
420
  2234388
370
    25
100
AcDbVertex
100
AcDb2dVertex
 10
102.7318848790913
 20
-154.8267230168488
 30
0.0
  0
SEQEND
  5
58
330
55
100
AcDbEntity
  8
_U+30EC_U+30A4_U+30E4_U+30FC 1
 62
   179
420
  2234388
370
    25
  0
POLYLINE
  5
59
330
1F
100
AcDbEntity
  8
_U+30EC_U+30A4_U+30E4_U+30FC 1
 62
   179
420
  2234388
370
    25
100
AcDb2dPolyline
 66
     1
 10
0.0
 20
0.0
 30
0.0
  0
VERTEX
  5
5A
330
59
100
AcDbEntity
  8
_U+30EC_U+30A4_U+30E4_U+30FC 1
 62
   179
420
  2234388
370
    25
100
AcDbVertex
100
AcDb2dVertex
 10
94.73187286096635
 20
-144.8268135749043
 30
0.0
  0
VERTEX
  5
5B
330
59
100
AcDbEntity
  8
_U+30EC_U+30A4_U+30E4_U+30FC 1
 62
   179
420
  2234388
370
    25
100
AcDbVertex
100
AcDb2dVertex
 10
94.73187286096635
 20
-155.8271655165987
 30
0.0
  0
SEQEND
  5
5C
330
59
100
AcDbEntity
  8
_U+30EC_U+30A4_U+30E4_U+30FC 1
 62
   179
420
  2234388
370
    25
  0
POLYLINE
  5
5D
330
1F
100
AcDbEntity
  8
_U+30EC_U+30A4_U+30E4_U+30FC 1
 62
   179
420
  2234388
370
    25
100
AcDb2dPolyline
 66
     1
 10
0.0
 20
0.0
 30
0.0
  0
VERTEX
  5
5E
330
5D
100
AcDbEntity
  8
_U+30EC_U+30A4_U+30E4_U+30FC 1
 62
   179
420
  2234388
370
    25
100
AcDbVertex
100
AcDb2dVertex
 10
95.73178616878977
 20
-144.8268135749043
 30
0.0
  0
VERTEX
  5
5F
330
5D
100
AcDbEntity
  8
_U+30EC_U+30A4_U+30E4_U+30FC 1
 62
   179
420
  2234388
370
    25
100
AcDbVertex
100
AcDb2dVertex
 10
95.73178616878977
 20
-154.8267230168488
 30
0.0
  0
SEQEND
  5
60
330
5D
100
AcDbEntity
  8
_U+30EC_U+30A4_U+30E4_U+30FC 1
 62
   179
420
  2234388
370
    25
  0
POLYLINE
  5
61
330
1F
100
AcDbEntity
  8
_U+30EC_U+30A4_U+30E4_U+30FC 1
 62
   179
420
  2234388
370
    25
100
AcDb2dPolyline
 66
     1
 10
0.0
 20
0.0
 30
0.0
  0
VERTEX
  5
62
330
61
100
AcDbEntity
  8
_U+30EC_U+30A4_U+30E4_U+30FC 1
 62
   179
420
  2234388
370
    25
100
AcDbVertex
100
AcDb2dVertex
 10
102.7318848790913
 20
-154.8267230168488
 30
0.0
  0
VERTEX
  5
63
330
61
100
AcDbEntity
  8
_U+30EC_U+30A4_U+30E4_U+30FC 1
 62
   179
420
  2234388
370
    25
100
AcDbVertex
100
AcDb2dVertex
 10
102.7318848790913
 20
-155.3269619056125
 30
0.0
  0
SEQEND
  5
64
330
61
100
AcDbEntity
  8
_U+30EC_U+30A4_U+30E4_U+30FC 1
 62
   179
420
  2234388
370
    25
  0
POLYLINE
  5
65
330
1F
100
AcDbEntity
  8
_U+30EC_U+30A4_U+30E4_U+30FC 1
 62
   179
420
  2234388
370
    25
100
AcDb2dPolyline
 66
     1
 10
0.0
 20
0.0
 30
0.0
  0
VERTEX
  5
66
330
65
100
AcDbEntity
  8
_U+30EC_U+30A4_U+30E4_U+30FC 1
 62
   179
420
  2234388
370
    25
100
AcDbVertex
100
AcDb2dVertex
 10
94.73187286096635
 20
-155.8271655165987
 30
0.0
  0
VERTEX
  5
67
330
65
100
AcDbEntity
  8
_U+30EC_U+30A4_U+30E4_U+30FC 1
 62
   179
420
  2234388
370
    25
100
AcDbVertex
100
AcDb2dVertex
 10
102.7318848790913
 20
-155.3269619056125
 30
0.0
  0
SEQEND
  5
68
330
65
100
AcDbEntity
  8
_U+30EC_U+30A4_U+30E4_U+30FC 1
 62
   179
420
  2234388
370
    25
  0
SPLINE
  5
69
330
1F
100
AcDbEntity
  8
_U+30EC_U+30A4_U+30E4_U+30FC 1
 62
   179
420
  2234388
370
     9
100
AcDbSpline
210
0.0
220
0.0
230
1.0
 70
    11
 71
     3
 72
    17
 73
    13
 74
     0
 42
0.0000000001
 43
0.0000000001
 12
1.0
 22
0.0
 32
0.0
 13
1.0
 23
0.0
 33
0.0
 40
0.0
 40
0.0
 40
0.0
 40
0.0
 40
1.0
 40
1.0
 40
1.0
 40
2.0
 40
2.0
 40
2.0
 40
3.0
 40
3.0
 40
3.0
 40
4.0
 40
4.0
 40
4.0
 40
4.0
 10
117.8319022716355
 20
-143.8270413529321
 30
0.0
 10
117.8319022716355
 20
-143.7715846862794
 30
0.0
 10
117.7871347727776
 20
-143.7268171862906
 30
0.0
 10
117.7319956075177
 20
-143.7268171862906
 30
0.0
 10
117.6768917200346
 20
-143.7268171862906
 30
0.0
 10
117.6320889433998
 20
-143.7715846862794
 30
0.0
 10
117.6320889433998
 20
-143.8270413529321
 30
0.0
 10
117.6320889433998
 20
-143.8821805195849
 30
0.0
 10
117.6768917200346
 20
-143.9269480195738
 30
0.0
 10
117.7319956075177
 20
-143.9269480195738
 30
0.0
 10
117.7871347727776
 20
-143.9269480195738
 30
0.0
 10
117.8319022716355
 20
-143.8821805195849
 30
0.0
 10
117.8319022716355
 20
-143.8270413529321
 30
0.0
  0
SPLINE
  5
6A
330
1F
100
AcDbEntity
  8
_U+30EC_U+30A4_U+30E4_U+30FC 1
 62
   179
420
  2234388
370
     9
100
AcDbSpline
210
0.0
220
0.0
230
1.0
 70
    11
 71
     3
 72
    17
 73
    13
 74
     0
 42
0.0000000001
 43
0.0000000001
 12
1.0
 22
0.0
 32
0.0
 13
1.0
 23
0.0
 33
0.0
 40
0.0
 40
0.0
 40
0.0
 40
0.0
 40
1.0
 40
1.0
 40
1.0
 40
2.0
 40
2.0
 40
2.0
 40
3.0
 40
3.0
 40
3.0
 40
4.0
 40
4.0
 40
4.0
 40
4.0
 10
117.8319022716355
 20
-144.8268135749043
 30
0.0
 10
117.8319022716355
 20
-144.7717096860294
 30
0.0
 10
117.7871347727776
 20
-144.7269069082627
 30
0.0
 10
117.7319956075177
 20
-144.7269069082627
 30
0.0
 10
117.6768917200346
 20
-144.7269069082627
 30
0.0
 10
117.6320889433998
 20
-144.7717096860294
 30
0.0
 10
117.6320889433998
 20
-144.8268135749043
 30
0.0
 10
117.6320889433998
 20
-144.8819527415574
 30
0.0
 10
117.6768917200346
 20
-144.926720241546
 30
0.0
 10
117.7319956075177
 20
-144.926720241546
 30
0.0
 10
117.7871347727776
 20
-144.926720241546
 30
0.0
 10
117.8319022716355
 20
-144.8819527415574
 30
0.0
 10
117.8319022716355
 20
-144.8268135749043
 30
0.0
  0
SPLINE
  5
6B
330
1F
100
AcDbEntity
  8
_U+30EC_U+30A4_U+30E4_U+30FC 1
 62
   179
420
  2234388
370
     9
100
AcDbSpline
210
0.0
220
0.0
230
1.0
 70
    11
 71
     3
 72
    17
 73
    13
 74
     0
 42
0.0000000001
 43
0.0000000001
 12
1.0
 22
0.0
 32
0.0
 13
1.0
 23
0.0
 33
0.0
 40
0.0
 40
0.0
 40
0.0
 40
0.0
 40
1.0
 40
1.0
 40
1.0
 40
2.0
 40
2.0
 40
2.0
 40
3.0
 40
3.0
 40
3.0
 40
4.0
 40
4.0
 40
4.0
 40
4.0
 10
113.8321432070112
 20
-139.8266119094879
 30
0.0
 10
113.8321432070112
 20
-139.7714727428348
 30
0.0
 10
113.7873757081533
 20
-139.7267052428462
 30
0.0
 10
113.7322365428934
 20
-139.7267052428462
 30
0.0
 10
113.6764270998727
 20
-139.7267052428462
 30
0.0
 10
113.6316596010148
 20
-139.7714727428348
 30
0.0
 10
113.6316596010148
 20
-139.8266119094879
 30
0.0
 10
113.6316596010148
 20
-139.8820685761405
 30
0.0
 10
113.6764270998727
 20
-139.9268713539072
 30
0.0
 10
113.7322365428934
 20
-139.9268713539072
 30
0.0
 10
113.7873757081533
 20
-139.9268713539072
 30
0.0
 10
113.8321432070112
 20
-139.8820685761405
 30
0.0
 10
113.8321432070112
 20
-139.8266119094879
 30
0.0
  0
SPLINE
  5
6C
330
1F
100
AcDbEntity
  8
_U+30EC_U+30A4_U+30E4_U+30FC 1
 62
   179
420
  2234388
370
     9
100
AcDbSpline
210
0.0
220
0.0
230
1.0
 70
    11
 71
     3
 72
    17
 73
    13
 74
     0
 42
0.0000000001
 43
0.0000000001
 12
1.0
 22
0.0
 32
0.0
 13
1.0
 23
0.0
 33
0.0
 40
0.0
 40
0.0
 40
0.0
 40
0.0
 40
1.0
 40
1.0
 40
1.0
 40
2.0
 40
2.0
 40
2.0
 40
3.0
 40
3.0
 40
3.0
 40
4.0
 40
4.0
 40
4.0
 40
4.0
 10
91.83193608815303
 20
-139.8266119094879
 30
0.0
 10
91.83193608815303
 20
-139.7714727428348
 30
0.0
 10
91.78716626942541
 20
-139.7267052428462
 30
0.0
 10
91.73185071528107
 20
-139.7267052428462
 30
0.0
 10
91.676746827798
 20
-139.7267052428462
 30
0.0
 10
91.63194405116325
 20
-139.7714727428348
 30
0.0
 10
91.63194405116325
 20
-139.8266119094879
 30
0.0
 10
91.63194405116325
 20
-139.8820685761405
 30
0.0
 10
91.676746827798
 20
-139.9268713539072
 30
0.0
 10
91.73185071528107
 20
-139.9268713539072
 30
0.0
 10
91.78716626942541
 20
-139.9268713539072
 30
0.0
 10
91.83193608815303
 20
-139.8820685761405
 30
0.0
 10
91.83193608815303
 20
-139.8266119094879
 30
0.0
  0
SPLINE
  5
6D
330
1F
100
AcDbEntity
  8
_U+30EC_U+30A4_U+30E4_U+30FC 1
 62
   179
420
  2234388
370
     9
100
AcDbSpline
210
0.0
220
0.0
230
1.0
 70
    11
 71
     3
 72
    17
 73
    13
 74
     0
 42
0.0000000001
 43
0.0000000001
 12
1.0
 22
0.0
 32
0.0
 13
1.0
 23
0.0
 33
0.0
 40
0.0
 40
0.0
 40
0.0
 40
0.0
 40
1.0
 40
1.0
 40
1.0
 40
2.0
 40
2.0
 40
2.0
 40
3.0
 40
3.0
 40
3.0
 40
4.0
 40
4.0
 40
4.0
 40
4.0
 10
117.8319022716355
 20
-154.8267230168488
 30
0.0
 10
117.8319022716355
 20
-154.7716191279738
 30
0.0
 10
117.7871347727776
 20
-154.7268163502071
 30
0.0
 10
117.7319956075177
 20
-154.7268163502071
 30
0.0
 10
117.6768917200346
 20
-154.7268163502071
 30
0.0
 10
117.6320889433998
 20
-154.7716191279738
 30
0.0
 10
117.6320889433998
 20
-154.8267230168488
 30
0.0
 10
117.6320889433998
 20
-154.8818621835019
 30
0.0
 10
117.6768917200346
 20
-154.9266296834904
 30
0.0
 10
117.7319956075177
 20
-154.9266296834904
 30
0.0
 10
117.7871347727776
 20
-154.9266296834904
 30
0.0
 10
117.8319022716355
 20
-154.8818621835019
 30
0.0
 10
117.8319022716355
 20
-154.8267230168488
 30
0.0
  0
SPLINE
  5
6E
330
1F
100
AcDbEntity
  8
_U+30EC_U+30A4_U+30E4_U+30FC 1
 62
   179
420
  2234388
370
     9
100
AcDbSpline
210
0.0
220
0.0
230
1.0
 70
    11
 71
     3
 72
    17
 73
    13
 74
     0
 42
0.0000000001
 43
0.0000000001
 12
1.0
 22
0.0
 32
0.0
 13
1.0
 23
0.0
 33
0.0
 40
0.0
 40
0.0
 40
0.0
 40
0.0
 40
1.0
 40
1.0
 40
1.0
 40
2.0
 40
2.0
 40
2.0
 40
3.0
 40
3.0
 40
3.0
 40
4.0
 40
4.0
 40
4.0
 40
4.0
 10
106.8317269967178
 20
-154.8267230168488
 30
0.0
 10
106.8317269967178
 20
-154.7716191279738
 30
0.0
 10
106.786924220083
 20
-154.7268163502071
 30
0.0
 10
106.7318203326
 20
-154.7268163502071
 30
0.0
 10
106.67668116734
 20
-154.7268163502071
 30
0.0
 10
106.6319136684821
 20
-154.7716191279738
 30
0.0
 10
106.6319136684821
 20
-154.8267230168488
 30
0.0
 10
106.6319136684821
 20
-154.8818621835019
 30
0.0
 10
106.67668116734
 20
-154.9266296834904
 30
0.0
 10
106.7318203326
 20
-154.9266296834904
 30
0.0
 10
106.786924220083
 20
-154.9266296834904
 30
0.0
 10
106.8317269967178
 20
-154.8818621835019
 30
0.0
 10
106.8317269967178
 20
-154.8267230168488
 30
0.0
  0
SPLINE
  5
6F
330
1F
100
AcDbEntity
  8
_U+30EC_U+30A4_U+30E4_U+30FC 1
 62
   179
420
  2234388
370
     9
100
AcDbSpline
210
0.0
220
0.0
230
1.0
 70
    11
 71
     3
 72
    17
 73
    13
 74
     0
 42
0.0000000001
 43
0.0000000001
 12
1.0
 22
0.0
 32
0.0
 13
1.0
 23
0.0
 33
0.0
 40
0.0
 40
0.0
 40
0.0
 40
0.0
 40
1.0
 40
1.0
 40
1.0
 40
2.0
 40
2.0
 40
2.0
 40
3.0
 40
3.0
 40
3.0
 40
4.0
 40
4.0
 40
4.0
 40
4.0
 10
106.8317269967178
 20
-155.3269619056125
 30
0.0
 10
106.8317269967178
 20
-155.2718227389601
 30
0.0
 10
106.786924220083
 20
-155.2270552389708
 30
0.0
 10
106.7318203326
 20
-155.2270552389708
 30
0.0
 10
106.67668116734
 20
-155.2270552389708
 30
0.0
 10
106.6319136684821
 20
-155.2718227389601
 30
0.0
 10
106.6319136684821
 20
-155.3269619056125
 30
0.0
 10
106.6319136684821
 20
-155.3820657944881
 30
0.0
 10
106.67668116734
 20
-155.4268685722541
 30
0.0
 10
106.7318203326
 20
-155.4268685722541
 30
0.0
 10
106.786924220083
 20
-155.4268685722541
 30
0.0
 10
106.8317269967178
 20
-155.3820657944881
 30
0.0
 10
106.8317269967178
 20
-155.3269619056125
 30
0.0
  0
SPLINE
  5
70
330
1F
100
AcDbEntity
  8
_U+30EC_U+30A4_U+30E4_U+30FC 1
 62
   179
420
  2234388
370
     9
100
AcDbSpline
210
0.0
220
0.0
230
1.0
 70
    11
 71
     3
 72
    17
 73
    13
 74
     0
 42
0.0000000001
 43
0.0000000001
 12
1.0
 22
0.0
 32
0.0
 13
1.0
 23
0.0
 33
0.0
 40
0.0
 40
0.0
 40
0.0
 40
0.0
 40
1.0
 40
1.0
 40
1.0
 40
2.0
 40
2.0
 40
2.0
 40
3.0
 40
3.0
 40
3.0
 40
4.0
 40
4.0
 40
4.0
 40
4.0
 10
102.8321443209779
 20
-159.8269246822656
 30
0.0
 10
102.8321443209779
 20
-159.7718207933906
 30
0.0
 10
102.7873415443431
 20
-159.7270180156239
 30
0.0
 10
102.7318848790913
 20
-159.7270180156239
 30
0.0
 10
102.6767457138313
 20
-159.7270180156239
 30
0.0
 10
102.6319782149734
 20
-159.7718207933906
 30
0.0
 10
102.6319782149734
 20
-159.8269246822656
 30
0.0
 10
102.6319782149734
 20
-159.8820638489186
 30
0.0
 10
102.6767457138313
 20
-159.9268313489072
 30
0.0
 10
102.7318848790913
 20
-159.9268313489072
 30
0.0
 10
102.7873415443431
 20
-159.9268313489072
 30
0.0
 10
102.8321443209779
 20
-159.8820638489186
 30
0.0
 10
102.8321443209779
 20
-159.8269246822656
 30
0.0
  0
SPLINE
  5
71
330
1F
100
AcDbEntity
  8
_U+30EC_U+30A4_U+30E4_U+30FC 1
 62
   179
420
  2234388
370
     9
100
AcDbSpline
210
0.0
220
0.0
230
1.0
 70
    11
 71
     3
 72
    17
 73
    13
 74
     0
 42
0.0000000001
 43
0.0000000001
 12
1.0
 22
0.0
 32
0.0
 13
1.0
 23
0.0
 33
0.0
 40
0.0
 40
0.0
 40
0.0
 40
0.0
 40
1.0
 40
1.0
 40
1.0
 40
2.0
 40
2.0
 40
2.0
 40
3.0
 40
3.0
 40
3.0
 40
4.0
 40
4.0
 40
4.0
 40
4.0
 10
94.8319206361917
 20
-159.8269246822656
 30
0.0
 10
94.8319206361917
 20
-159.7718207933906
 30
0.0
 10
94.7871555318588
 20
-159.7270180156239
 30
0.0
 10
94.73187286096635
 20
-159.7270180156239
 30
0.0
 10
94.67673608744194
 20
-159.7270180156239
 30
0.0
 10
94.6319333096752
 20
-159.7718207933906
 30
0.0
 10
94.6319333096752
 20
-159.8269246822656
 30
0.0
 10
94.6319333096752
 20
-159.8820638489186
 30
0.0
 10
94.67673608744194
 20
-159.9268313489072
 30
0.0
 10
94.73187286096635
 20
-159.9268313489072
 30
0.0
 10
94.7871555318588
 20
-159.9268313489072
 30
0.0
 10
94.8319206361917
 20
-159.8820638489186
 30
0.0
 10
94.8319206361917
 20
-159.8269246822656
 30
0.0
  0
SPLINE
  5
72
330
1F
100
AcDbEntity
  8
_U+30EC_U+30A4_U+30E4_U+30FC 1
 62
   179
420
  2234388
370
     9
100
AcDbSpline
210
0.0
220
0.0
230
1.0
 70
    11
 71
     3
 72
    17
 73
    13
 74
     0
 42
0.0000000001
 43
0.0000000001
 12
1.0
 22
0.0
 32
0.0
 13
1.0
 23
0.0
 33
0.0
 40
0.0
 40
0.0
 40
0.0
 40
0.0
 40
1.0
 40
1.0
 40
1.0
 40
2.0
 40
2.0
 40
2.0
 40
3.0
 40
3.0
 40
3.0
 40
4.0
 40
4.0
 40
4.0
 40
4.0
 10
91.83193608815303
 20
-159.8269246822656
 30
0.0
 10
91.83193608815303
 20
-159.7718207933906
 30
0.0
 10
91.78716626942541
 20
-159.7270180156239
 30
0.0
 10
91.73185071528107
 20
-159.7270180156239
 30
0.0
 10
91.676746827798
 20
-159.7270180156239
 30
0.0
 10
91.63194405116325
 20
-159.7718207933906
 30
0.0
 10
91.63194405116325
 20
-159.8269246822656
 30
0.0
 10
91.63194405116325
 20
-159.8820638489186
 30
0.0
 10
91.676746827798
 20
-159.9268313489072
 30
0.0
 10
91.73185071528107
 20
-159.9268313489072
 30
0.0
 10
91.78716626942541
 20
-159.9268313489072
 30
0.0
 10
91.83193608815303
 20
-159.8820638489186
 30
0.0
 10
91.83193608815303
 20
-159.8269246822656
 30
0.0
  0
POLYLINE
  5
73
330
1F
100
AcDbEntity
  8
_U+30EC_U+30A4_U+30E4_U+30FC 1
 62
   179
420
  2234388
370
     9
100
AcDb2dPolyline
 66
     1
 10
0.0
 20
0.0
 30
0.0
  0
VERTEX
  5
74
330
73
100
AcDbEntity
  8
_U+30EC_U+30A4_U+30E4_U+30FC 1
 62
   179
420
  2234388
370
     9
100
AcDbVertex
100
AcDb2dVertex
 10
117.7319956075177
 20
-143.8270413529321
 30
0.0
  0
VERTEX
  5
75
330
73
100
AcDbEntity
  8
_U+30EC_U+30A4_U+30E4_U+30FC 1
 62
   179
420
  2234388
370
     9
100
AcDbVertex
100
AcDb2dVertex
 10
117.7319956075177
 20
-140.0567288538747
 30
0.0
  0
SEQEND
  5
76
330
73
100
AcDbEntity
  8
_U+30EC_U+30A4_U+30E4_U+30FC 1
 62
   179
420
  2234388
370
     9
  0
POLYLINE
  5
77
330
1F
100
AcDbEntity
  8
_U+30EC_U+30A4_U+30E4_U+30FC 1
 62
   179
420
  2234388
370
     9
100
AcDb2dPolyline
 66
     1
 10
0.0
 20
0.0
 30
0.0
  0
VERTEX
  5
78
330
77
100
AcDbEntity
  8
_U+30EC_U+30A4_U+30E4_U+30FC 1
 62
   179
420
  2234388
370
     9
100
AcDbVertex
100
AcDb2dVertex
 10
117.7319956075177
 20
-143.8270413529321
 30
0.0
  0
VERTEX
  5
79
330
77
100
AcDbEntity
  8
_U+30EC_U+30A4_U+30E4_U+30FC 1
 62
   179
420
  2234388
370
     9
100
AcDbVertex
100
AcDb2dVertex
 10
117.7319956075177
 20
-144.8268135749043
 30
0.0
  0
SEQEND
  5
7A
330
77
100
AcDbEntity
  8
_U+30EC_U+30A4_U+30E4_U+30FC 1
 62
   179
420
  2234388
370
     9
  0
POLYLINE
  5
7B
330
1F
100
AcDbEntity
  8
_U+30EC_U+30A4_U+30E4_U+30FC 1
 62
   179
420
  2234388
370
     9
100
AcDb2dPolyline
 66
     1
 10
0.0
 20
0.0
 30
0.0
  0
VERTEX
  5
7C
330
7B
100
AcDbEntity
  8
_U+30EC_U+30A4_U+30E4_U+30FC 1
 62
   179
420
  2234388
370
     9
100
AcDbVertex
100
AcDb2dVertex
 10
116.2719542558775
 20
-143.8270413529321
 30
0.0
  0
VERTEX
  5
7D
330
7B
100
AcDbEntity
  8
_U+30EC_U+30A4_U+30E4_U+30FC 1
 62
   179
420
  2234388
370
     9
100
AcDbVertex
100
AcDb2dVertex
 10
118.7317678042336
 20
-143.8270413529321
 30
0.0
  0
SEQEND
  5
7E
330
7B
100
AcDbEntity
  8
_U+30EC_U+30A4_U+30E4_U+30FC 1
 62
   179
420
  2234388
370
     9
  0
POLYLINE
  5
7F
330
1F
100
AcDbEntity
  8
_U+30EC_U+30A4_U+30E4_U+30FC 1
 62
   179
420
  2234388
370
     9
100
AcDb2dPolyline
 66
     1
 10
0.0
 20
0.0
 30
0.0
  0
VERTEX
  5
80
330
7F
100
AcDbEntity
  8
_U+30EC_U+30A4_U+30E4_U+30FC 1
 62
   179
420
  2234388
370
     9
100
AcDbVertex
100
AcDb2dVertex
 10
116.2719542558775
 20
-144.8268135749043
 30
0.0
  0
VERTEX
  5
81
330
7F
100
AcDbEntity
  8
_U+30EC_U+30A4_U+30E4_U+30FC 1
 62
   179
420
  2234388
370
     9
100
AcDbVertex
100
AcDb2dVertex
 10
118.7317678042336
 20
-144.8268135749043
 30
0.0
  0
SEQEND
  5
82
330
7F
100
AcDbEntity
  8
_U+30EC_U+30A4_U+30E4_U+30FC 1
 62
   179
420
  2234388
370
     9
  0
INSERT
  5
84
330
1F
100
AcDbEntity
  8
_U+30EC_U+30A4_U+30E4_U+30FC 1
100
AcDbBlockReference
  2
block 2
 10
0.0
 20
0.0
 30
0.0
  0
POLYLINE
  5
89
330
1F
100
AcDbEntity
  8
_U+30EC_U+30A4_U+30E4_U+30FC 1
 62
   179
420
  2234388
370
     9
100
AcDb2dPolyline
 66
     1
 10
0.0
 20
0.0
 30
0.0
  0
VERTEX
  5
8A
330
89
100
AcDbEntity
  8
_U+30EC_U+30A4_U+30E4_U+30FC 1
 62
   179
420
  2234388
370
     9
100
AcDbVertex
100
AcDb2dVertex
 10
91.73185071528107
 20
-139.8266119094879
 30
0.0
  0
VERTEX
  5
8B
330
89
100
AcDbEntity
  8
_U+30EC_U+30A4_U+30E4_U+30FC 1
 62
   179
420
  2234388
370
     9
100
AcDbVertex
100
AcDb2dVertex
 10
113.7322365428934
 20
-139.8266119094879
 30
0.0
  0
SEQEND
  5
8C
330
89
100
AcDbEntity
  8
_U+30EC_U+30A4_U+30E4_U+30FC 1
 62
   179
420
  2234388
370
     9
  0
POLYLINE
  5
8D
330
1F
100
AcDbEntity
  8
_U+30EC_U+30A4_U+30E4_U+30FC 1
 62
   179
420
  2234388
370
     9
100
AcDb2dPolyline
 66
     1
 10
0.0
 20
0.0
 30
0.0
  0
VERTEX
  5
8E
330
8D
100
AcDbEntity
  8
_U+30EC_U+30A4_U+30E4_U+30FC 1
 62
   179
420
  2234388
370
     9
100
AcDbVertex
100
AcDb2dVertex
 10
91.73185071528107
 20
-141.2866532980116
 30
0.0
  0
VERTEX
  5
8F
330
8D
100
AcDbEntity
  8
_U+30EC_U+30A4_U+30E4_U+30FC 1
 62
   179
420
  2234388
370
     9
100
AcDbVertex
100
AcDb2dVertex
 10
91.73185071528107
 20
-138.8268396875156
 30
0.0
  0
SEQEND
  5
90
330
8D
100
AcDbEntity
  8
_U+30EC_U+30A4_U+30E4_U+30FC 1
 62
   179
420
  2234388
370
     9
  0
POLYLINE
  5
91
330
1F
100
AcDbEntity
  8
_U+30EC_U+30A4_U+30E4_U+30FC 1
 62
   179
420
  2234388
370
     9
100
AcDb2dPolyline
 66
     1
 10
0.0
 20
0.0
 30
0.0
  0
VERTEX
  5
92
330
91
100
AcDbEntity
  8
_U+30EC_U+30A4_U+30E4_U+30FC 1
 62
   179
420
  2234388
370
     9
100
AcDbVertex
100
AcDb2dVertex
 10
113.7322365428934
 20
-141.2866532980116
 30
0.0
  0
VERTEX
  5
93
330
91
100
AcDbEntity
  8
_U+30EC_U+30A4_U+30E4_U+30FC 1
 62
   179
420
  2234388
370
     9
100
AcDbVertex
100
AcDb2dVertex
 10
113.7322365428934
 20
-138.8268396875156
 30
0.0
  0
SEQEND
  5
94
330
91
100
AcDbEntity
  8
_U+30EC_U+30A4_U+30E4_U+30FC 1
 62
   179
420
  2234388
370
     9
  0
INSERT
  5
96
330
1F
100
AcDbEntity
  8
_U+30EC_U+30A4_U+30E4_U+30FC 1
100
AcDbBlockReference
  2
block 3
 10
0.0
 20
0.0
 30
0.0
  0
POLYLINE
  5
9D
330
1F
100
AcDbEntity
  8
_U+30EC_U+30A4_U+30E4_U+30FC 1
 62
   179
420
  2234388
370
     9
100
AcDb2dPolyline
 66
     1
 10
0.0
 20
0.0
 30
0.0
  0
VERTEX
  5
9E
330
9D
100
AcDbEntity
  8
_U+30EC_U+30A4_U+30E4_U+30FC 1
 62
   179
420
  2234388
370
     9
100
AcDbVertex
100
AcDb2dVertex
 10
117.7319956075177
 20
-144.8268135749043
 30
0.0
  0
VERTEX
  5
9F
330
9D
100
AcDbEntity
  8
_U+30EC_U+30A4_U+30E4_U+30FC 1
 62
   179
420
  2234388
370
     9
100
AcDbVertex
100
AcDb2dVertex
 10
117.7319956075177
 20
-154.8267230168488
 30
0.0
  0
SEQEND
  5
A0
330
9D
100
AcDbEntity
  8
_U+30EC_U+30A4_U+30E4_U+30FC 1
 62
   179
420
  2234388
370
     9
  0
POLYLINE
  5
A1
330
1F
100
AcDbEntity
  8
_U+30EC_U+30A4_U+30E4_U+30FC 1
 62
   179
420
  2234388
370
     9
100
AcDb2dPolyline
 66
     1
 10
0.0
 20
0.0
 30
0.0
  0
VERTEX
  5
A2
330
A1
100
AcDbEntity
  8
_U+30EC_U+30A4_U+30E4_U+30FC 1
 62
   179
420
  2234388
370
     9
100
AcDbVertex
100
AcDb2dVertex
 10
105.2719553698442
 20
-154.8267230168488
 30
0.0
  0
VERTEX
  5
A3
330
A1
100
AcDbEntity
  8
_U+30EC_U+30A4_U+30E4_U+30FC 1
 62
   179
420
  2234388
370
     9
100
AcDbVertex
100
AcDb2dVertex
 10
118.7317678042336
 20
-154.8267230168488
 30
0.0
  0
SEQEND
  5
A4
330
A1
100
AcDbEntity
  8
_U+30EC_U+30A4_U+30E4_U+30FC 1
 62
   179
420
  2234388
370
     9
  0
INSERT
  5
A6
330
1F
100
AcDbEntity
  8
_U+30EC_U+30A4_U+30E4_U+30FC 1
100
AcDbBlockReference
  2
block 4
 10
0.0
 20
0.0
 30
0.0
  0
POLYLINE
  5
AE
330
1F
100
AcDbEntity
  8
_U+30EC_U+30A4_U+30E4_U+30FC 1
 62
   179
420
  2234388
370
     9
100
AcDb2dPolyline
 66
     1
 10
0.0
 20
0.0
 30
0.0
  0
VERTEX
  5
AF
330
AE
100
AcDbEntity
  8
_U+30EC_U+30A4_U+30E4_U+30FC 1
 62
   179
420
  2234388
370
     9
100
AcDbVertex
100
AcDb2dVertex
 10
106.7318203326
 20
-154.8267230168488
 30
0.0
  0
VERTEX
  5
B0
330
AE
100
AcDbEntity
  8
_U+30EC_U+30A4_U+30E4_U+30FC 1
 62
   179
420
  2234388
370
     9
100
AcDbVertex
100
AcDb2dVertex
 10
106.7318203326
 20
-149.5688171848299
 30
0.0
  0
SEQEND
  5
B1
330
AE
100
AcDbEntity
  8
_U+30EC_U+30A4_U+30E4_U+30FC 1
 62
   179
420
  2234388
370
     9
  0
POLYLINE
  5
B2
330
1F
100
AcDbEntity
  8
_U+30EC_U+30A4_U+30E4_U+30FC 1
 62
   179
420
  2234388
370
     9
100
AcDb2dPolyline
 66
     1
 10
0.0
 20
0.0
 30
0.0
  0
VERTEX
  5
B3
330
B2
100
AcDbEntity
  8
_U+30EC_U+30A4_U+30E4_U+30FC 1
 62
   179
420
  2234388
370
     9
100
AcDbVertex
100
AcDb2dVertex
 10
106.7318203326
 20
-154.8267230168488
 30
0.0
  0
VERTEX
  5
B4
330
B2
100
AcDbEntity
  8
_U+30EC_U+30A4_U+30E4_U+30FC 1
 62
   179
420
  2234388
370
     9
100
AcDbVertex
100
AcDb2dVertex
 10
106.7318203326
 20
-156.326734127585
 30
0.0
  0
SEQEND
  5
B5
330
B2
100
AcDbEntity
  8
_U+30EC_U+30A4_U+30E4_U+30FC 1
 62
   179
420
  2234388
370
     9
  0
POLYLINE
  5
B6
330
1F
100
AcDbEntity
  8
_U+30EC_U+30A4_U+30E4_U+30FC 1
 62
   179
420
  2234388
370
     9
100
AcDb2dPolyline
 66
     1
 10
0.0
 20
0.0
 30
0.0
  0
VERTEX
  5
B7
330
B6
100
AcDbEntity
  8
_U+30EC_U+30A4_U+30E4_U+30FC 1
 62
   179
420
  2234388
370
     9
100
AcDbVertex
100
AcDb2dVertex
 10
105.2719553698442
 20
-154.8267230168488
 30
0.0
  0
VERTEX
  5
B8
330
B6
100
AcDbEntity
  8
_U+30EC_U+30A4_U+30E4_U+30FC 1
 62
   179
420
  2234388
370
     9
100
AcDbVertex
100
AcDb2dVertex
 10
107.7315925293159
 20
-154.8267230168488
 30
0.0
  0
SEQEND
  5
B9
330
B6
100
AcDbEntity
  8
_U+30EC_U+30A4_U+30E4_U+30FC 1
 62
   179
420
  2234388
370
     9
  0
POLYLINE
  5
BA
330
1F
100
AcDbEntity
  8
_U+30EC_U+30A4_U+30E4_U+30FC 1
 62
   179
420
  2234388
370
     9
100
AcDb2dPolyline
 66
     1
 10
0.0
 20
0.0
 30
0.0
  0
VERTEX
  5
BB
330
BA
100
AcDbEntity
  8
_U+30EC_U+30A4_U+30E4_U+30FC 1
 62
   179
420
  2234388
370
     9
100
AcDbVertex
100
AcDb2dVertex
 10
105.2719553698442
 20
-155.3269619056125
 30
0.0
  0
VERTEX
  5
BC
330
BA
100
AcDbEntity
  8
_U+30EC_U+30A4_U+30E4_U+30FC 1
 62
   179
420
  2234388
370
     9
100
AcDbVertex
100
AcDb2dVertex
 10
107.7315925293159
 20
-155.3269619056125
 30
0.0
  0
SEQEND
  5
BD
330
BA
100
AcDbEntity
  8
_U+30EC_U+30A4_U+30E4_U+30FC 1
 62
   179
420
  2234388
370
     9
  0
INSERT
  5
BF
330
1F
100
AcDbEntity
  8
_U+30EC_U+30A4_U+30E4_U+30FC 1
100
AcDbBlockReference
  2
block 5
 10
0.0
 20
0.0
 30
0.0
  0
POLYLINE
  5
CF
330
1F
100
AcDbEntity
  8
_U+30EC_U+30A4_U+30E4_U+30FC 1
 62
   179
420
  2234388
370
     9
100
AcDb2dPolyline
 66
     1
 10
0.0
 20
0.0
 30
0.0
  0
VERTEX
  5
D0
330
CF
100
AcDbEntity
  8
_U+30EC_U+30A4_U+30E4_U+30FC 1
 62
   179
420
  2234388
370
     9
100
AcDbVertex
100
AcDb2dVertex
 10
94.73187286096635
 20
-159.8269246822656
 30
0.0
  0
VERTEX
  5
D1
330
CF
100
AcDbEntity
  8
_U+30EC_U+30A4_U+30E4_U+30FC 1
 62
   179
420
  2234388
370
     9
100
AcDbVertex
100
AcDb2dVertex
 10
102.7318848790913
 20
-159.8269246822656
 30
0.0
  0
SEQEND
  5
D2
330
CF
100
AcDbEntity
  8
_U+30EC_U+30A4_U+30E4_U+30FC 1
 62
   179
420
  2234388
370
     9
  0
POLYLINE
  5
D3
330
1F
100
AcDbEntity
  8
_U+30EC_U+30A4_U+30E4_U+30FC 1
 62
   179
420
  2234388
370
     9
100
AcDb2dPolyline
 66
     1
 10
0.0
 20
0.0
 30
0.0
  0
VERTEX
  5
D4
330
D3
100
AcDbEntity
  8
_U+30EC_U+30A4_U+30E4_U+30FC 1
 62
   179
420
  2234388
370
     9
100
AcDbVertex
100
AcDb2dVertex
 10
94.73187286096635
 20
-158.3669185715194
 30
0.0
  0
VERTEX
  5
D5
330
D3
100
AcDbEntity
  8
_U+30EC_U+30A4_U+30E4_U+30FC 1
 62
   179
420
  2234388
370
     9
100
AcDbVertex
100
AcDb2dVertex
 10
94.73187286096635
 20
-160.8266969042375
 30
0.0
  0
SEQEND
  5
D6
330
D3
100
AcDbEntity
  8
_U+30EC_U+30A4_U+30E4_U+30FC 1
 62
   179
420
  2234388
370
     9
  0
POLYLINE
  5
D7
330
1F
100
AcDbEntity
  8
_U+30EC_U+30A4_U+30E4_U+30FC 1
 62
   179
420
  2234388
370
     9
100
AcDb2dPolyline
 66
     1
 10
0.0
 20
0.0
 30
0.0
  0
VERTEX
  5
D8
330
D7
100
AcDbEntity
  8
_U+30EC_U+30A4_U+30E4_U+30FC 1
 62
   179
420
  2234388
370
     9
100
AcDbVertex
100
AcDb2dVertex
 10
102.7318848790913
 20
-157.8666796827557
 30
0.0
  0
VERTEX
  5
D9
330
D7
100
AcDbEntity
  8
_U+30EC_U+30A4_U+30E4_U+30FC 1
 62
   179
420
  2234388
370
     9
100
AcDbVertex
100
AcDb2dVertex
 10
102.7318848790913
 20
-160.8266969042375
 30
0.0
  0
SEQEND
  5
DA
330
D7
100
AcDbEntity
  8
_U+30EC_U+30A4_U+30E4_U+30FC 1
 62
   179
420
  2234388
370
     9
  0
INSERT
  5
DC
330
1F
100
AcDbEntity
  8
_U+30EC_U+30A4_U+30E4_U+30FC 1
100
AcDbBlockReference
  2
block 6
 10
0.0
 20
0.0
 30
0.0
  0
POLYLINE
  5
E3
330
1F
100
AcDbEntity
  8
_U+30EC_U+30A4_U+30E4_U+30FC 1
 62
   179
420
  2234388
370
     9
100
AcDb2dPolyline
 66
     1
 10
0.0
 20
0.0
 30
0.0
  0
VERTEX
  5
E4
330
E3
100
AcDbEntity
  8
_U+30EC_U+30A4_U+30E4_U+30FC 1
 62
   179
420
  2234388
370
     9
100
AcDbVertex
100
AcDb2dVertex
 10
91.73185071528107
 20
-159.8269246822656
 30
0.0
  0
VERTEX
  5
E5
330
E3
100
AcDbEntity
  8
_U+30EC_U+30A4_U+30E4_U+30FC 1
 62
   179
420
  2234388
370
     9
100
AcDbVertex
100
AcDb2dVertex
 10
94.73187286096635
 20
-159.8269246822656
 30
0.0
  0
SEQEND
  5
E6
330
E3
100
AcDbEntity
  8
_U+30EC_U+30A4_U+30E4_U+30FC 1
 62
   179
420
  2234388
370
     9
  0
POLYLINE
  5
E7
330
1F
100
AcDbEntity
  8
_U+30EC_U+30A4_U+30E4_U+30FC 1
 62
   179
420
  2234388
370
     9
100
AcDb2dPolyline
 66
     1
 10
0.0
 20
0.0
 30
0.0
  0
VERTEX
  5
E8
330
E7
100
AcDbEntity
  8
_U+30EC_U+30A4_U+30E4_U+30FC 1
 62
   179
420
  2234388
370
     9
100
AcDbVertex
100
AcDb2dVertex
 10
91.73185071528107
 20
-147.3668841298249
 30
0.0
  0
VERTEX
  5
E9
330
E7
100
AcDbEntity
  8
_U+30EC_U+30A4_U+30E4_U+30FC 1
 62
   179
420
  2234388
370
     9
100
AcDbVertex
100
AcDb2dVertex
 10
91.73185071528107
 20
-160.8266969042375
 30
0.0
  0
SEQEND
  5
EA
330
E7
100
AcDbEntity
  8
_U+30EC_U+30A4_U+30E4_U+30FC 1
 62
   179
420
  2234388
370
     9
  0
INSERT
  5
EC
330
1F
100
AcDbEntity
  8
_U+30EC_U+30A4_U+30E4_U+30FC 1
100
AcDbBlockReference
  2
block 7
 10
0.0
 20
0.0
 30
0.0
  0
ENDSEC
  0
SECTION
  2
OBJECTS
  0
DICTIONARY
  5
C
330
0
100
AcDbDictionary
281
     1
  3
ACAD_GROUP
350
D
  3
ACAD_LAYOUT
350
1A
  3
ACAD_MATERIAL
350
3B
  3
ACAD_MLEADERSTYLE
350
F2
  3
ACAD_MLINESTYLE
350
17
  3
ACAD_PLOTSETTINGS
350
19
  3
ACAD_PLOTSTYLENAME
350
E
  3
ACAD_TABLESTYLE
350
F1
  3
ACAD_VISUALSTYLE
350
2A
  0
SUN
  5
3F
330
29
100
AcDbSun
 90
        1
290
     0
 63
     7
421
 16777215
 40
1.0
291
     1
 91
  2455826
 92
 54000000
292
     0
 70
     2
 71
   256
280
     1
  0
DICTIONARY
  5
D
102
{ACAD_REACTORS
330
C
102
}
330
C
100
AcDbDictionary
281
     1
  0
DICTIONARY
  5
1A
102
{ACAD_REACTORS
330
C
102
}
330
C
100
AcDbDictionary
281
     1
  3
Layout1
350
1E
  3
Layout2
350
26
  3
Model
350
22
  0
DICTIONARY
  5
3B
102
{ACAD_REACTORS
330
C
102
}
330
C
100
AcDbDictionary
281
     1
  3
ByBlock
350
3D
  3
ByLayer
350
3C
  3
Global
350
3E
  0
DICTIONARY
  5
F2
102
{ACAD_REACTORS
330
C
102
}
330
C
100
AcDbDictionary
281
     1
  0
DICTIONARY
  5
17
102
{ACAD_REACTORS
330
C
102
}
330
C
100
AcDbDictionary
281
     1
  3
Standard
350
18
  0
DICTIONARY
  5
19
102
{ACAD_REACTORS
330
C
102
}
330
C
100
AcDbDictionary
281
     1
  0
ACDBDICTIONARYWDFLT
  5
E
102
{ACAD_REACTORS
330
C
102
}
330
C
100
AcDbDictionary
281
     1
  3
Normal
350
F
100
AcDbDictionaryWithDefault
340
F
  0
DICTIONARY
  5
F1
102
{ACAD_REACTORS
330
C
102
}
330
C
100
AcDbDictionary
281
     1
  0
DICTIONARY
  5
2A
102
{ACAD_REACTORS
330
C
102
}
330
C
100
AcDbDictionary
281
     1
  3
2dWireframe
350
2F
  3
3D Hidden
350
31
  3
3dWireframe
350
30
  3
Basic
350
32
  3
Brighten
350
36
  3
ColorChange
350
3A
  3
Conceptual
350
34
  3
Dim
350
35
  3
Facepattern
350
39
  3
Flat
350
2B
  3
FlatWithEdges
350
2C
  3
Gouraud
350
2D
  3
GouraudWithEdges
350
2E
  3
Linepattern
350
38
  3
Realistic
350
33
  3
Thicken
350
37
  0
LAYOUT
  5
1E
102
{ACAD_REACTORS
330
1A
102
}
330
1A
100
AcDbPlotSettings
  1

  2
none_device
  4

  6

 40
0.0
 41
0.0
 42
0.0
 43
0.0
 44
0.0
 45
0.0
 46
0.0
 47
0.0
 48
0.0
 49
0.0
140
0.0
141
0.0
142
1.0
143
1.0
 70
   688
 72
     0
 73
     0
 74
     5
  7

 75
    16
 76
     0
 77
     2
 78
   300
147
1.0
148
0.0
149
0.0
100
AcDbLayout
  1
Layout1
 70
     1
 71
     1
 10
0.0
 20
0.0
 11
12.0
 21
9.0
 12
0.0
 22
0.0
 32
0.0
 14
1.000000000000000E+20
 24
1.000000000000000E+20
 34
1.000000000000000E+20
 15
-1.000000000000000E+20
 25
-1.000000000000000E+20
 35
-1.000000000000000E+20
146
0.0
 13
0.0
 23
0.0
 33
0.0
 16
1.0
 26
0.0
 36
0.0
 17
0.0
 27
1.0
 37
0.0
 76
     0
330
1B
  0
LAYOUT
  5
26
102
{ACAD_REACTORS
330
1A
102
}
330
1A
100
AcDbPlotSettings
  1

  2
none_device
  4

  6

 40
0.0
 41
0.0
 42
0.0
 43
0.0
 44
0.0
 45
0.0
 46
0.0
 47
0.0
 48
0.0
 49
0.0
140
0.0
141
0.0
142
1.0
143
1.0
 70
   688
 72
     0
 73
     0
 74
     5
  7

 75
    16
 76
     0
 77
     2
 78
   300
147
1.0
148
0.0
149
0.0
100
AcDbLayout
  1
Layout2
 70
     1
 71
     2
 10
0.0
 20
0.0
 11
0.0
 21
0.0
 12
0.0
 22
0.0
 32
0.0
 14
0.0
 24
0.0
 34
0.0
 15
0.0
 25
0.0
 35
0.0
146
0.0
 13
0.0
 23
0.0
 33
0.0
 16
1.0
 26
0.0
 36
0.0
 17
0.0
 27
1.0
 37
0.0
 76
     0
330
23
  0
LAYOUT
  5
22
102
{ACAD_REACTORS
330
1A
102
}
330
1A
100
AcDbPlotSettings
  1

  2
none_device
  4

  6

 40
0.0
 41
0.0
 42
0.0
 43
0.0
 44
0.0
 45
0.0
 46
0.0
 47
0.0
 48
0.0
 49
0.0
140
0.0
141
0.0
142
1.0
143
1.0
 70
  1712
 72
     0
 73
     0
 74
     0
  7

 75
     0
 76
     0
 77
     2
 78
   300
147
1.0
148
0.0
149
0.0
100
AcDbLayout
  1
Model
 70
     1
 71
     0
 10
0.0
 20
0.0
 11
12.0
 21
9.0
 12
0.0
 22
0.0
 32
0.0
 14
1.000000000000000E+20
 24
1.000000000000000E+20
 34
1.000000000000000E+20
 15
-1.000000000000000E+20
 25
-1.000000000000000E+20
 35
-1.000000000000000E+20
146
0.0
 13
0.0
 23
0.0
 33
0.0
 16
1.0
 26
0.0
 36
0.0
 17
0.0
 27
1.0
 37
0.0
 76
     0
330
1F
331
29
  0
MATERIAL
  5
3D
102
{ACAD_REACTORS
330
3B
102
}
330
3B
100
AcDbMaterial
  1
ByBlock
 72
     1
 94
      127
  0
MATERIAL
  5
3C
102
{ACAD_REACTORS
330
3B
102
}
330
3B
100
AcDbMaterial
  1
ByLayer
 72
     1
 94
      127
  0
MATERIAL
  5
3E
102
{ACAD_REACTORS
330
3B
102
}
330
3B
100
AcDbMaterial
  1
Global
 72
     1
 94
      127
  0
MLINESTYLE
  5
18
102
{ACAD_REACTORS
330
17
102
}
330
17
100
AcDbMlineStyle
  2
Standard
 70
     0
  3

 62
   256
 51
90.0
 52
90.0
 71
     2
 49
0.5
 62
   256
  6
BYLAYER
 49
-0.5
 62
   256
  6
BYLAYER
  0
ACDBPLACEHOLDER
  5
F
102
{ACAD_REACTORS
330
E
102
}
330
E
  0
VISUALSTYLE
  5
2F
102
{ACAD_REACTORS
330
2A
102
}
330
2A
100
AcDbVisualStyle
  2
2dWireframe
 70
     4
177
     2
291
     0
 71
     0
176
     1
 72
     2
176
     1
 73
     0
176
     1
 90
        0
176
     1
 40
-0.6
176
     1
 41
-30.0
176
     1
 62
     5
 63
     7
421
 16777215
176
     1
 74
     1
176
     1
 91
        4
176
     1
 64
     7
176
     1
 65
   257
176
     1
 75
     1
176
     1
175
     1
176
     1
 42
1.0
176
     1
 92
        0
176
     1
 66
   257
176
     1
 43
1.0
176
     1
 76
     1
176
     1
 77
     6
176
     1
 78
     2
176
     1
 67
     7
176
     1
 79
     5
176
     1
170
     0
176
     1
171
     0
176
     1
290
     0
176
     1
 93
        1
176
     1
 44
0.0
176
     1
173
     0
176
     1
  0
VISUALSTYLE
  5
31
102
{ACAD_REACTORS
330
2A
102
}
330
2A
100
AcDbVisualStyle
  2
3D Hidden
 70
     6
177
     2
291
     0
 71
     1
176
     1
 72
     2
176
     1
 73
     2
176
     1
 90
        0
176
     1
 40
-0.6
176
     1
 41
-30.0
176
     1
 62
     5
 63
     7
421
 16777215
176
     1
 74
     2
176
     1
 91
        2
176
     1
 64
     7
176
     1
 65
   257
176
     1
 75
     2
176
     1
175
     1
176
     1
 42
40.0
176
     1
 92
        0
176
     1
 66
   257
176
     1
 43
1.0
176
     1
 76
     1
176
     1
 77
     6
176
     1
 78
     2
176
     1
 67
     7
176
     1
 79
     3
176
     1
170
     0
176
     1
171
     0
176
     1
290
     0
176
     1
 93
        1
176
     1
 44
0.0
176
     1
173
     0
176
     1
  0
VISUALSTYLE
  5
30
102
{ACAD_REACTORS
330
2A
102
}
330
2A
100
AcDbVisualStyle
  2
3dWireframe
 70
     5
177
     2
291
     0
 71
     0
176
     1
 72
     2
176
     1
 73
     0
176
     1
 90
        0
176
     1
 40
-0.6
176
     1
 41
-30.0
176
     1
 62
     5
 63
     7
421
 16777215
176
     1
 74
     1
176
     1
 91
        4
176
     1
 64
     7
176
     1
 65
   257
176
     1
 75
     1
176
     1
175
     1
176
     1
 42
1.0
176
     1
 92
        0
176
     1
 66
   257
176
     1
 43
1.0
176
     1
 76
     1
176
     1
 77
     6
176
     1
 78
     2
176
     1
 67
     7
176
     1
 79
     5
176
     1
170
     0
176
     1
171
     0
176
     1
290
     0
176
     1
 93
        1
176
     1
 44
0.0
176
     1
173
     0
176
     1
  0
VISUALSTYLE
  5
32
102
{ACAD_REACTORS
330
2A
102
}
330
2A
100
AcDbVisualStyle
  2
Basic
 70
     7
177
     2
291
     1
 71
     1
176
     1
 72
     0
176
     1
 73
     1
176
     1
 90
        0
176
     1
 40
-0.6
176
     1
 41
-30.0
176
     1
 62
     5
 63
     7
421
 16777215
176
     1
 74
     0
176
     1
 91
        4
176
     1
 64
     7
176
     1
 65
   257
176
     1
 75
     1
176
     1
175
     1
176
     1
 42
1.0
176
     1
 92
        8
176
     1
 66
     7
176
     1
 43
1.0
176
     1
 76
     1
176
     1
 77
     6
176
     1
 78
     2
176
     1
 67
     7
176
     1
 79
     5
176
     1
170
     0
176
     1
171
     0
176
     1
290
     0
176
     1
 93
        1
176
     1
 44
0.0
176
     1
173
     0
176
     1
  0
VISUALSTYLE
  5
36
102
{ACAD_REACTORS
330
2A
102
}
330
2A
100
AcDbVisualStyle
  2
Brighten
 70
    12
177
     2
291
     1
 71
     2
176
     1
 72
     2
176
     1
 73
     0
176
     1
 90
        0
176
     1
 40
-0.6
176
     1
 41
-30.0
176
     1
 62
     5
 63
     7
421
 16777215
176
     1
 74
     1
176
     1
 91
        4
176
     1
 64
     7
176
     1
 65
   257
176
     1
 75
     1
176
     1
175
     1
176
     1
 42
1.0
176
     1
 92
        8
176
     1
 66
     7
176
     1
 43
1.0
176
     1
 76
     1
176
     1
 77
     6
176
     1
 78
     2
176
     1
 67
     7
176
     1
 79
     5
176
     1
170
     0
176
     1
171
     0
176
     1
290
     0
176
     1
 93
        1
176
     1
 44
50.0
176
     1
173
     0
176
     1
  0
VISUALSTYLE
  5
3A
102
{ACAD_REACTORS
330
2A
102
}
330
2A
100
AcDbVisualStyle
  2
ColorChange
 70
    16
177
     2
291
     1
 71
     2
176
     1
 72
     2
176
     1
 73
     3
176
     1
 90
        0
176
     1
 40
-0.6
176
     1
 41
-30.0
176
     1
 62
     5
 63
     8
421
  8421504
176
     1
 74
     1
176
     1
 91
        4
176
     1
 64
     7
176
     1
 65
   257
176
     1
 75
     1
176
     1
175
     1
176
     1
 42
1.0
176
     1
 92
        8
176
     1
 66
     8
424
  8421504
176
     1
 43
1.0
176
     1
 76
     1
176
     1
 77
     6
176
     1
 78
     2
176
     1
 67
     7
176
     1
 79
     5
176
     1
170
     0
176
     1
171
     0
176
     1
290
     0
176
     1
 93
        1
176
     1
 44
0.0
176
     1
173
     0
176
     1
  0
VISUALSTYLE
  5
34
102
{ACAD_REACTORS
330
2A
102
}
330
2A
100
AcDbVisualStyle
  2
Conceptual
 70
     9
177
     2
291
     0
 71
     3
176
     1
 72
     2
176
     1
 73
     0
176
     1
 90
        0
176
     1
 40
-0.6
176
     1
 41
-30.0
176
     1
 62
     5
 63
     7
421
 16777215
176
     1
 74
     2
176
     1
 91
        2
176
     1
 64
     7
176
     1
 65
   257
176
     1
 75
     1
176
     1
175
     1
176
     1
 42
40.0
176
     1
 92
        8
176
     1
 66
     7
176
     1
 43
1.0
176
     1
 76
     1
176
     1
 77
     6
176
     1
 78
     2
176
     1
 67
     7
176
     1
 79
     3
176
     1
170
     0
176
     1
171
     0
176
     1
290
     0
176
     1
 93
        1
176
     1
 44
0.0
176
     1
173
     0
176
     1
  0
VISUALSTYLE
  5
35
102
{ACAD_REACTORS
330
2A
102
}
330
2A
100
AcDbVisualStyle
  2
Dim
 70
    11
177
     2
291
     1
 71
     2
176
     1
 72
     2
176
     1
 73
     0
176
     1
 90
        0
176
     1
 40
-0.6
176
     1
 41
-30.0
176
     1
 62
     5
 63
     7
421
 16777215
176
     1
 74
     1
176
     1
 91
        4
176
     1
 64
     7
176
     1
 65
   257
176
     1
 75
     1
176
     1
175
     1
176
     1
 42
1.0
176
     1
 92
        8
176
     1
 66
     7
176
     1
 43
1.0
176
     1
 76
     1
176
     1
 77
     6
176
     1
 78
     2
176
     1
 67
     7
176
     1
 79
     5
176
     1
170
     0
176
     1
171
     0
176
     1
290
     0
176
     1
 93
        1
176
     1
 44
-50.0
176
     1
173
     0
176
     1
  0
VISUALSTYLE
  5
39
102
{ACAD_REACTORS
330
2A
102
}
330
2A
100
AcDbVisualStyle
  2
Facepattern
 70
    15
177
     2
291
     1
 71
     2
176
     1
 72
     2
176
     1
 73
     0
176
     1
 90
        0
176
     1
 40
-0.6
176
     1
 41
-30.0
176
     1
 62
     5
 63
     7
421
 16777215
176
     1
 74
     1
176
     1
 91
        4
176
     1
 64
     7
176
     1
 65
   257
176
     1
 75
     1
176
     1
175
     1
176
     1
 42
1.0
176
     1
 92
        8
176
     1
 66
     7
176
     1
 43
1.0
176
     1
 76
     1
176
     1
 77
     6
176
     1
 78
     2
176
     1
 67
     7
176
     1
 79
     5
176
     1
170
     0
176
     1
171
     0
176
     1
290
     0
176
     1
 93
        1
176
     1
 44
0.0
176
     1
173
     0
176
     1
  0
VISUALSTYLE
  5
2B
102
{ACAD_REACTORS
330
2A
102
}
330
2A
100
AcDbVisualStyle
  2
Flat
 70
     0
177
     2
291
     1
 71
     2
176
     1
 72
     1
176
     1
 73
     1
176
     1
 90
        2
176
     1
 40
-0.6
176
     1
 41
30.0
176
     1
 62
     5
 63
     7
421
 16777215
176
     1
 74
     0
176
     1
 91
        4
176
     1
 64
     7
176
     1
 65
   257
176
     1
 75
     1
176
     1
175
     1
176
     1
 42
1.0
176
     1
 92
        8
176
     1
 66
     7
176
     1
 43
1.0
176
     1
 76
     1
176
     1
 77
     6
176
     1
 78
     2
176
     1
 67
     7
176
     1
 79
     5
176
     1
170
     0
176
     1
171
     0
176
     1
290
     0
176
     1
 93
       13
176
     1
 44
0.0
176
     1
173
     0
176
     1
  0
VISUALSTYLE
  5
2C
102
{ACAD_REACTORS
330
2A
102
}
330
2A
100
AcDbVisualStyle
  2
FlatWithEdges
 70
     1
177
     2
291
     1
 71
     2
176
     1
 72
     1
176
     1
 73
     1
176
     1
 90
        2
176
     1
 40
-0.6
176
     1
 41
30.0
176
     1
 62
     5
 63
     7
421
 16777215
176
     1
 74
     1
176
     1
 91
        4
176
     1
 64
     7
176
     1
 65
   257
176
     1
 75
     1
176
     1
175
     1
176
     1
 42
1.0
176
     1
 92
        0
176
     1
 66
   257
176
     1
 43
1.0
176
     1
 76
     1
176
     1
 77
     6
176
     1
 78
     2
176
     1
 67
     7
176
     1
 79
     5
176
     1
170
     0
176
     1
171
     0
176
     1
290
     0
176
     1
 93
       13
176
     1
 44
0.0
176
     1
173
     0
176
     1
  0
VISUALSTYLE
  5
2D
102
{ACAD_REACTORS
330
2A
102
}
330
2A
100
AcDbVisualStyle
  2
Gouraud
 70
     2
177
     2
291
     1
 71
     2
176
     1
 72
     2
176
     1
 73
     1
176
     1
 90
        2
176
     1
 40
-0.6
176
     1
 41
30.0
176
     1
 62
     5
 63
     7
421
 16777215
176
     1
 74
     0
176
     1
 91
        4
176
     1
 64
     7
176
     1
 65
   257
176
     1
 75
     1
176
     1
175
     1
176
     1
 42
1.0
176
     1
 92
        0
176
     1
 66
     7
176
     1
 43
1.0
176
     1
 76
     1
176
     1
 77
     6
176
     1
 78
     2
176
     1
 67
     7
176
     1
 79
     5
176
     1
170
     0
176
     1
171
     0
176
     1
290
     0
176
     1
 93
       13
176
     1
 44
0.0
176
     1
173
     0
176
     1
  0
VISUALSTYLE
  5
2E
102
{ACAD_REACTORS
330
2A
102
}
330
2A
100
AcDbVisualStyle
  2
GouraudWithEdges
 70
     3
177
     2
291
     1
 71
     2
176
     1
 72
     2
176
     1
 73
     1
176
     1
 90
        2
176
     1
 40
-0.6
176
     1
 41
30.0
176
     1
 62
     5
 63
     7
421
 16777215
176
     1
 74
     1
176
     1
 91
        4
176
     1
 64
     7
176
     1
 65
   257
176
     1
 75
     1
176
     1
175
     1
176
     1
 42
1.0
176
     1
 92
        0
176
     1
 66
   257
176
     1
 43
1.0
176
     1
 76
     1
176
     1
 77
     6
176
     1
 78
     2
176
     1
 67
     7
176
     1
 79
     5
176
     1
170
     0
176
     1
171
     0
176
     1
290
     0
176
     1
 93
       13
176
     1
 44
0.0
176
     1
173
     0
176
     1
  0
VISUALSTYLE
  5
38
102
{ACAD_REACTORS
330
2A
102
}
330
2A
100
AcDbVisualStyle
  2
Linepattern
 70
    14
177
     2
291
     1
 71
     2
176
     1
 72
     2
176
     1
 73
     0
176
     1
 90
        0
176
     1
 40
-0.6
176
     1
 41
-30.0
176
     1
 62
     5
 63
     7
421
 16777215
176
     1
 74
     1
176
     1
 91
        4
176
     1
 64
     7
176
     1
 65
   257
176
     1
 75
     7
176
     1
175
     7
176
     1
 42
1.0
176
     1
 92
        8
176
     1
 66
     7
176
     1
 43
1.0
176
     1
 76
     1
176
     1
 77
     6
176
     1
 78
     2
176
     1
 67
     7
176
     1
 79
     5
176
     1
170
     0
176
     1
171
     0
176
     1
290
     0
176
     1
 93
        1
176
     1
 44
0.0
176
     1
173
     0
176
     1
  0
VISUALSTYLE
  5
33
102
{ACAD_REACTORS
330
2A
102
}
330
2A
100
AcDbVisualStyle
  2
Realistic
 70
     8
177
     2
291
     0
 71
     2
176
     1
 72
     2
176
     1
 73
     0
176
     1
 90
        0
176
     1
 40
-0.6
176
     1
 41
-30.0
176
     1
 62
     5
 63
     7
421
 16777215
176
     1
 74
     1
176
     1
 91
        0
176
     1
 64
     7
176
     1
 65
   257
176
     1
 75
     1
176
     1
175
     1
176
     1
 42
1.0
176
     1
 92
        8
176
     1
 66
     8
424
  7895160
176
     1
 43
1.0
176
     1
 76
     1
176
     1
 77
     6
176
     1
 78
     2
176
     1
 67
     7
176
     1
 79
     5
176
     1
170
     0
176
     1
171
     0
176
     1
290
     0
176
     1
 93
       13
176
     1
 44
0.0
176
     1
173
     0
176
     1
  0
VISUALSTYLE
  5
37
102
{ACAD_REACTORS
330
2A
102
}
330
2A
100
AcDbVisualStyle
  2
Thicken
 70
    13
177
     2
291
     1
 71
     2
176
     1
 72
     2
176
     1
 73
     0
176
     1
 90
        0
176
     1
 40
-0.6
176
     1
 41
-30.0
176
     1
 62
     5
 63
     7
421
 16777215
176
     1
 74
     1
176
     1
 91
        4
176
     1
 64
     7
176
     1
 65
   257
176
     1
 75
     1
176
     1
175
     1
176
     1
 42
1.0
176
     1
 92
       12
176
     1
 66
     7
176
     1
 43
1.0
176
     1
 76
     1
176
     1
 77
     6
176
     1
 78
     2
176
     1
 67
     7
176
     1
 79
     5
176
     1
170
     0
176
     1
171
     0
176
     1
290
     0
176
     1
 93
        1
176
     1
 44
0.0
176
     1
173
     0
176
     1
  0
ENDSEC
  0
EOF
