  0
SECTION
  2
HEADER
  9
$ACADVER
  1
AC1024
  9
$ACADMAINTVER
 70
     6
  9
$DWGCODEPAGE
  3
UNDEFINED
  9
$INSBASE
 10
0.0
 20
0.0
 30
0.0
  9
$EXTMIN
 10
1.000000000000000E+20
 20
1.000000000000000E+20
 30
1.000000000000000E+20
  9
$EXTMAX
 10
-1.000000000000000E+20
 20
-1.000000000000000E+20
 30
-1.000000000000000E+20
  9
$LIMMIN
 10
0.0
 20
0.0
  9
$LIMMAX
 10
12.0
 20
9.0
  9
$ORTHOMODE
 70
     0
  9
$REGENMODE
 70
     1
  9
$FILLMODE
 70
     1
  9
$QTEXTMODE
 70
     0
  9
$MIRRTEXT
 70
     1
  9
$LTSCALE
 40
1.0
  9
$ATTMODE
 70
     1
  9
$TEXTSIZE
 40
0.2
  9
$TRACEWID
 40
0.05
  9
$TEXTSTYLE
  7
Standard
  9
$CLAYER
  8
0
  9
$CELTYPE
  6
ByLayer
  9
$CECOLOR
 62
   256
  9
$CELTSCALE
 40
1.0
  9
$DISPSILH
 70
     0
  9
$DIMSCALE
 40
1.0
  9
$DIMASZ
 40
0.18
  9
$DIMEXO
 40
0.0625
  9
$DIMDLI
 40
0.38
  9
$DIMRND
 40
0.0
  9
$DIMDLE
 40
0.0
  9
$DIMEXE
 40
0.18
  9
$DIMTP
 40
0.0
  9
$DIMTM
 40
0.0
  9
$DIMTXT
 40
0.18
  9
$DIMCEN
 40
0.09
  9
$DIMTSZ
 40
0.0
  9
$DIMTOL
 70
     0
  9
$DIMLIM
 70
     0
  9
$DIMTIH
 70
     1
  9
$DIMTOH
 70
     1
  9
$DIMSE1
 70
     0
  9
$DIMSE2
 70
     0
  9
$DIMTAD
 70
     0
  9
$DIMZIN
 70
     0
  9
$DIMBLK
  1

  9
$DIMASO
 70
     1
  9
$DIMSHO
 70
     1
  9
$DIMPOST
  1

  9
$DIMAPOST
  1

  9
$DIMALT
 70
     0
  9
$DIMALTD
 70
     2
  9
$DIMALTF
 40
25.4
  9
$DIMLFAC
 40
1.0
  9
$DIMTOFL
 70
     0
  9
$DIMTVP
 40
0.0
  9
$DIMTIX
 70
     0
  9
$DIMSOXD
 70
     0
  9
$DIMSAH
 70
     0
  9
$DIMBLK1
  1

  9
$DIMBLK2
  1

  9
$DIMSTYLE
  2
Standard
  9
$DIMCLRD
 70
     0
  9
$DIMCLRE
 70
     0
  9
$DIMCLRT
 70
     0
  9
$DIMTFAC
 40
1.0
  9
$DIMGAP
 40
0.09
  9
$DIMJUST
 70
     0
  9
$DIMSD1
 70
     0
  9
$DIMSD2
 70
     0
  9
$DIMTOLJ
 70
     1
  9
$DIMTZIN
 70
     0
  9
$DIMALTZ
 70
     0
  9
$DIMALTTZ
 70
     0
  9
$DIMUPT
 70
     0
  9
$DIMDEC
 70
     4
  9
$DIMTDEC
 70
     4
  9
$DIMALTU
 70
     2
  9
$DIMALTTD
 70
     2
  9
$DIMTXSTY
  7
Standard
  9
$DIMAUNIT
 70
     0
  9
$DIMADEC
 70
     0
  9
$DIMALTRND
 40
0.0
  9
$DIMAZIN
 70
     0
  9
$DIMDSEP
 70
    46
  9
$DIMATFIT
 70
     3
  9
$DIMFRAC
 70
     0
  9
$DIMLDRBLK
  1

  9
$DIMLUNIT
 70
     2
  9
$DIMLWD
 70
    -2
  9
$DIMLWE
 70
    -2
  9
$DIMTMOVE
 70
     0
  9
$DIMFXL
 40
1.0
  9
$DIMFXLON
 70
     0
  9
$DIMJOGANG
 40
0.7853981633974483
  9
$DIMTFILL
 70
     0
  9
$DIMTFILLCLR
 70
     0
  9
$DIMARCSYM
 70
     0
  9
$DIMLTYPE
  6

  9
$DIMLTEX1
  6

  9
$DIMLTEX2
  6

  9
$DIMTXTDIRECTION
 70
     0
  9
$LUNITS
 70
     2
  9
$LUPREC
 70
     4
  9
$SKETCHINC
 40
0.1
  9
$FILLETRAD
 40
0.5
  9
$AUNITS
 70
     0
  9
$AUPREC
 70
     0
  9
$MENU
  1
.
  9
$ELEVATION
 40
0.0
  9
$PELEVATION
 40
0.0
  9
$THICKNESS
 40
0.0
  9
$LIMCHECK
 70
     0
  9
$CHAMFERA
 40
0.5
  9
$CHAMFERB
 40
0.5
  9
$CHAMFERC
 40
1.0
  9
$CHAMFERD
 40
0.0
  9
$SKPOLY
 70
     0
  9
$TDCREATE
 40
2457917.586527778
  9
$TDUCREATE
 40
2457917.211527778
  9
$TDUPDATE
 40
2457917.586527778
  9
$TDUUPDATE
 40
2457917.211527778
  9
$TDINDWG
 40
0.0000000116
  9
$TDUSRTIMER
 40
0.0000000116
  9
$USRTIMER
 70
     1
  9
$ANGBASE
 50
0.0
  9
$ANGDIR
 70
     0
  9
$PDMODE
 70
     0
  9
$PDSIZE
 40
0.0
  9
$PLINEWID
 40
0.0
  9
$SPLFRAME
 70
     0
  9
$SPLINETYPE
 70
     6
  9
$SPLINESEGS
 70
     8
  9
$HANDSEED
  5
108
  9
$SURFTAB1
 70
     6
  9
$SURFTAB2
 70
     6
  9
$SURFTYPE
 70
     6
  9
$SURFU
 70
     6
  9
$SURFV
 70
     6
  9
$UCSBASE
  2

  9
$UCSNAME
  2

  9
$UCSORG
 10
0.0
 20
0.0
 30
0.0
  9
$UCSXDIR
 10
1.0
 20
0.0
 30
0.0
  9
$UCSYDIR
 10
0.0
 20
1.0
 30
0.0
  9
$UCSORTHOREF
  2

  9
$UCSORTHOVIEW
 70
     0
  9
$UCSORGTOP
 10
0.0
 20
0.0
 30
0.0
  9
$UCSORGBOTTOM
 10
0.0
 20
0.0
 30
0.0
  9
$UCSORGLEFT
 10
0.0
 20
0.0
 30
0.0
  9
$UCSORGRIGHT
 10
0.0
 20
0.0
 30
0.0
  9
$UCSORGFRONT
 10
0.0
 20
0.0
 30
0.0
  9
$UCSORGBACK
 10
0.0
 20
0.0
 30
0.0
  9
$PUCSBASE
  2

  9
$PUCSNAME
  2

  9
$PUCSORG
 10
0.0
 20
0.0
 30
0.0
  9
$PUCSXDIR
 10
1.0
 20
0.0
 30
0.0
  9
$PUCSYDIR
 10
0.0
 20
1.0
 30
0.0
  9
$PUCSORTHOREF
  2

  9
$PUCSORTHOVIEW
 70
     0
  9
$PUCSORGTOP
 10
0.0
 20
0.0
 30
0.0
  9
$PUCSORGBOTTOM
 10
0.0
 20
0.0
 30
0.0
  9
$PUCSORGLEFT
 10
0.0
 20
0.0
 30
0.0
  9
$PUCSORGRIGHT
 10
0.0
 20
0.0
 30
0.0
  9
$PUCSORGFRONT
 10
0.0
 20
0.0
 30
0.0
  9
$PUCSORGBACK
 10
0.0
 20
0.0
 30
0.0
  9
$USERI1
 70
     0
  9
$USERI2
 70
     0
  9
$USERI3
 70
     0
  9
$USERI4
 70
     0
  9
$USERI5
 70
     0
  9
$USERR1
 40
0.0
  9
$USERR2
 40
0.0
  9
$USERR3
 40
0.0
  9
$USERR4
 40
0.0
  9
$USERR5
 40
0.0
  9
$WORLDVIEW
 70
     1
  9
$SHADEDGE
 70
     3
  9
$SHADEDIF
 70
    70
  9
$TILEMODE
 70
     1
  9
$MAXACTVP
 70
    64
  9
$PINSBASE
 10
0.0
 20
0.0
 30
0.0
  9
$PLIMCHECK
 70
     0
  9
$PEXTMIN
 10
1.000000000000000E+20
 20
1.000000000000000E+20
 30
1.000000000000000E+20
  9
$PEXTMAX
 10
-1.000000000000000E+20
 20
-1.000000000000000E+20
 30
-1.000000000000000E+20
  9
$PLIMMIN
 10
0.0
 20
0.0
  9
$PLIMMAX
 10
12.0
 20
9.0
  9
$UNITMODE
 70
     0
  9
$VISRETAIN
 70
     1
  9
$PLINEGEN
 70
     0
  9
$PSLTSCALE
 70
     1
  9
$TREEDEPTH
 70
  3020
  9
$CMLSTYLE
  2
Standard
  9
$CMLJUST
 70
     0
  9
$CMLSCALE
 40
1.0
  9
$PROXYGRAPHICS
 70
     1
  9
$MEASUREMENT
 70
     0
  9
$CELWEIGHT
370
    -1
  9
$ENDCAPS
280
     0
  9
$JOINSTYLE
280
     0
  9
$LWDISPLAY
290
     1
  9
$INSUNITS
 70
     1
  9
$HYPERLINKBASE
  1

  9
$STYLESHEET
  1

  9
$XEDIT
290
     1
  9
$CEPSNTYPE
380
     0
  9
$PSTYLEMODE
290
     1
  9
$FINGERPRINTGUID
  2
{6626CDF7-15A4-60D0-D62D-8EBB9E307885}
  9
$VERSIONGUID
  2
{FAEB1C32-E019-11D5-929B-00C0DF256EC4}
  9
$EXTNAMES
290
     1
  9
$PSVPSCALE
 40
0.0
  9
$OLESTARTUP
290
     0
  9
$SORTENTS
280
   127
  9
$INDEXCTL
280
     0
  9
$HIDETEXT
280
     1
  9
$XCLIPFRAME
280
     2
  9
$HALOGAP
280
     0
  9
$OBSCOLOR
 70
   257
  9
$OBSLTYPE
280
     0
  9
$INTERSECTIONDISPLAY
280
     0
  9
$INTERSECTIONCOLOR
 70
   257
  9
$DIMASSOC
280
     2
  9
$PROJECTNAME
  1

  9
$CAMERADISPLAY
290
     0
  9
$LENSLENGTH
 40
50.0
  9
$CAMERAHEIGHT
 40
0.0
  9
$STEPSPERSEC
 40
2.0
  9
$STEPSIZE
 40
6.0
  9
$3DDWFPREC
 40
2.0
  9
$PSOLWIDTH
 40
0.25
  9
$PSOLHEIGHT
 40
4.0
  9
$LOFTANG1
 40
1.570796326794897
  9
$LOFTANG2
 40
1.570796326794897
  9
$LOFTMAG1
 40
0.0
  9
$LOFTMAG2
 40
0.0
  9
$LOFTPARAM
 70
     7
  9
$LOFTNORMALS
280
     1
  9
$LATITUDE
 40
37.795
  9
$LONGITUDE
 40
-122.394
  9
$NORTHDIRECTION
 40
0.0
  9
$TIMEZONE
 70
 -8000
  9
$LIGHTGLYPHDISPLAY
280
     1
  9
$TILEMODELIGHTSYNCH
280
     1
  9
$CMATERIAL
347
3C
  9
$SOLIDHIST
280
     1
  9
$SHOWHIST
280
     1
  9
$DWFFRAME
280
     2
  9
$DGNFRAME
280
     2
  9
$REALWORLDSCALE
290
     1
  9
$INTERFERECOLOR
 62
   256
  9
$CSHADOW
280
     0
  9
$SHADOWPLANELOCATION
 40
0.0
  0
ENDSEC
  0
SECTION
  2
CLASSES
  0
CLASS
  1
ACDBDICTIONARYWDFLT
  2
AcDbDictionaryWithDefault
  3
ObjectDBX Classes
 90
        0
 91
        4
280
     0
281
     0
  0
CLASS
  1
VISUALSTYLE
  2
AcDbVisualStyle
  3
ObjectDBX Classes
 90
     4095
 91
        4
280
     0
281
     0
  0
CLASS
  1
MATERIAL
  2
AcDbMaterial
  3
ObjectDBX Classes
 90
     1153
 91
        4
280
     0
281
     0
  0
CLASS
  1
SUN
  2
AcDbSun
  3
SCENEOE
 90
     1024
 91
        4
280
     0
281
     0
  0
ENDSEC
  0
SECTION
  2
TABLES
  0
TABLE
  2
VPORT
  5
8
330
0
100
AcDbSymbolTable
 70
     1
  0
VPORT
  5
29
330
8
100
AcDbSymbolTableRecord
100
AcDbViewportTableRecord
  2
*Active
 70
     0
 10
0.0
 20
0.0
 11
1.0
 21
1.0
 12
0.0
 22
0.0
 13
0.0
 23
0.0
 14
0.5
 24
0.5
 15
0.5
 25
0.5
 16
0.0
 26
0.0
 36
1.0
 17
63.499999984125
 27
-89.00059456108309
 37
0.0
 40
178.0011891221662
 41
0.7134783795241226
 42
50.0
 43
0.0
 44
0.0
 50
0.0
 51
0.0
 71
     0
 72
   100
 73
     1
 74
     3
 75
     0
 76
     0
 77
     0
 78
     0
281
     0
 65
     1
110
0.0
120
0.0
130
0.0
111
1.0
121
0.0
131
0.0
112
0.0
122
1.0
132
0.0
 79
     0
146
0.0
 60
     3
 61
     5
292
     1
282
     1
141
0.0
142
0.0
 63
   250
361
3F
  0
ENDTAB
  0
TABLE
  2
LTYPE
  5
5
330
0
100
AcDbSymbolTable
 70
     1
  0
LTYPE
  5
14
330
5
100
AcDbSymbolTableRecord
100
AcDbLinetypeTableRecord
  2
ByBlock
 70
     0
  3

 72
    65
 73
     0
 40
0.0
  0
LTYPE
  5
15
330
5
100
AcDbSymbolTableRecord
100
AcDbLinetypeTableRecord
  2
ByLayer
 70
     0
  3

 72
    65
 73
     0
 40
0.0
  0
LTYPE
  5
16
330
5
100
AcDbSymbolTableRecord
100
AcDbLinetypeTableRecord
  2
Continuous
 70
     0
  3
Solid line
 72
    65
 73
     0
 40
0.0
  0
ENDTAB
  0
TABLE
  2
LAYER
  5
2
330
0
100
AcDbSymbolTable
 70
     2
  0
LAYER
  5
10
330
2
100
AcDbSymbolTableRecord
100
AcDbLayerTableRecord
  2
0
 70
     0
 62
     7
  6
Continuous
370
    -3
390
F
347
3E
  0
LAYER
  5
40
330
2
100
AcDbSymbolTableRecord
100
AcDbLayerTableRecord
  2
_U+30EC_U+30A4_U+30E4_U+30FC 1
 70
     0
 62
     7
  6
Continuous
370
    -3
390
F
347
3E
  0
ENDTAB
  0
TABLE
  2
STYLE
  5
3
330
0
100
AcDbSymbolTable
 70
     1
  0
STYLE
  5
11
330
3
100
AcDbSymbolTableRecord
100
AcDbTextStyleTableRecord
  2
Standard
 70
     0
 40
0.0
 41
1.0
 50
0.0
 71
     0
 42
0.2
  3
txt
  4

  0
ENDTAB
  0
TABLE
  2
VIEW
  5
6
330
0
100
AcDbSymbolTable
 70
     0
  0
ENDTAB
  0
TABLE
  2
UCS
  5
7
330
0
100
AcDbSymbolTable
 70
     0
  0
ENDTAB
  0
TABLE
  2
APPID
  5
9
330
0
100
AcDbSymbolTable
 70
     1
  0
APPID
  5
12
330
9
100
AcDbSymbolTableRecord
100
AcDbRegAppTableRecord
  2
ACAD
 70
     0
  0
ENDTAB
  0
TABLE
  2
DIMSTYLE
  5
A
330
0
100
AcDbSymbolTable
 70
     1
100
AcDbDimStyleTable
  0
DIMSTYLE
105
27
330
A
100
AcDbSymbolTableRecord
100
AcDbDimStyleTableRecord
  2
Standard
 70
     0
178
     0
340
11
  0
ENDTAB
  0
TABLE
  2
BLOCK_RECORD
  5
1
330
0
100
AcDbSymbolTable
 70
     7
  0
BLOCK_RECORD
  5
1F
330
1
100
AcDbSymbolTableRecord
100
AcDbBlockTableRecord
  2
*Model_Space
340
22
 70
     0
280
     1
281
     0
  0
BLOCK_RECORD
  5
1B
330
1
100
AcDbSymbolTableRecord
100
AcDbBlockTableRecord
  2
*Paper_Space
340
1E
 70
     0
280
     1
281
     0
  0
BLOCK_RECORD
  5
23
330
1
100
AcDbSymbolTableRecord
100
AcDbBlockTableRecord
  2
*Paper_Space0
340
26
 70
     0
280
     1
281
     0
  0
BLOCK_RECORD
  5
93
330
1
100
AcDbSymbolTableRecord
100
AcDbBlockTableRecord
  2
block 2
340
0
102
{BLKREFS
331
94
102
}
 70
     0
280
     1
281
     0
  0
BLOCK_RECORD
  5
A5
330
1
100
AcDbSymbolTableRecord
100
AcDbBlockTableRecord
  2
block 3
340
0
102
{BLKREFS
331
A6
102
}
 70
     0
280
     1
281
     0
  0
BLOCK_RECORD
  5
B9
330
1
100
AcDbSymbolTableRecord
100
AcDbBlockTableRecord
  2
block 4
340
0
102
{BLKREFS
331
BA
102
}
 70
     0
280
     1
281
     0
  0
BLOCK_RECORD
  5
DE
330
1
100
AcDbSymbolTableRecord
100
AcDbBlockTableRecord
  2
block 5
340
0
102
{BLKREFS
331
DF
102
}
 70
     0
280
     1
281
     0
  0
BLOCK_RECORD
  5
F0
330
1
100
AcDbSymbolTableRecord
100
AcDbBlockTableRecord
  2
block 6
340
0
102
{BLKREFS
331
F1
102
}
 70
     0
280
     1
281
     0
  0
BLOCK_RECORD
  5
FE
330
1
100
AcDbSymbolTableRecord
100
AcDbBlockTableRecord
  2
block 7
340
0
102
{BLKREFS
331
FF
102
}
 70
     0
280
     1
281
     0
  0
ENDTAB
  0
ENDSEC
  0
SECTION
  2
BLOCKS
  0
BLOCK
  5
20
330
1F
100
AcDbEntity
  8
0
100
AcDbBlockBegin
  2
*Model_Space
 70
     0
 10
0.0
 20
0.0
 30
0.0
  3
*Model_Space
  1

  0
ENDBLK
  5
21
330
1F
100
AcDbEntity
  8
0
100
AcDbBlockEnd
  0
BLOCK
  5
1C
330
1B
100
AcDbEntity
 67
     1
  8
0
100
AcDbBlockBegin
  2
*Paper_Space
 70
     0
 10
0.0
 20
0.0
 30
0.0
  3
*Paper_Space
  1

  0
ENDBLK
  5
1D
330
1B
100
AcDbEntity
 67
     1
  8
0
100
AcDbBlockEnd
  0
BLOCK
  5
24
330
23
100
AcDbEntity
  8
0
100
AcDbBlockBegin
  2
*Paper_Space0
 70
     0
 10
0.0
 20
0.0
 30
0.0
  3
*Paper_Space0
  1

  0
ENDBLK
  5
25
330
23
100
AcDbEntity
  8
0
100
AcDbBlockEnd
  0
BLOCK
  5
95
330
93
100
AcDbEntity
  8
0
100
AcDbBlockBegin
  2
block 2
 70
     0
 10
0.0
 20
0.0
 30
0.0
  3
block 2
  1

  0
SPLINE
  5
97
330
93
100
AcDbEntity
  8
_U+30EC_U+30A4_U+30E4_U+30FC 1
370
     0
100
AcDbSpline
210
0.0
220
0.0
230
1.0
 70
    11
 71
     3
 72
    26
 73
    22
 74
     0
 42
0.0000000001
 43
0.0000000001
 12
1.0
 22
0.0
 32
0.0
 13
1.0
 23
0.0
 33
0.0
 40
0.0
 40
0.0
 40
0.0
 40
0.0
 40
1.0
 40
1.0
 40
1.0
 40
2.0
 40
2.0
 40
2.0
 40
3.0
 40
3.0
 40
3.0
 40
4.0
 40
4.0
 40
4.0
 40
5.0
 40
5.0
 40
5.0
 40
6.0
 40
6.0
 40
6.0
 40
7.0
 40
7.0
 40
7.0
 40
7.0
 10
80.83296438951399
 20
-81.0041856351309
 30
0.0
 10
80.83296438951399
 20
-81.0041856351309
 30
0.0
 10
79.7288112864914
 20
-81.0041856351309
 30
0.0
 10
79.7288112864914
 20
-81.0041856351309
 30
0.0
 10
79.7288112864914
 20
-81.0041856351309
 30
0.0
 10
79.7288112864914
 20
-81.32234020319372
 30
0.0
 10
79.7288112864914
 20
-81.32234020319372
 30
0.0
 10
79.7288112864914
 20
-81.32234020319372
 30
0.0
 10
79.58067218062567
 20
-81.32234020319372
 30
0.0
 10
79.58067218062567
 20
-81.32234020319372
 30
0.0
 10
79.5658582700391
 20
-81.00211857783975
 30
0.0
 10
79.40290525358678
 20
-80.95716008175724
 30
0.0
 10
79.28852808347648
 20
-80.92873804400394
 30
0.0
 10
79.28852808347648
 20
-80.92873804400394
 30
0.0
 10
79.28852808347648
 20
-80.78783363865722
 30
0.0
 10
79.28852808347648
 20
-80.78783363865722
 30
0.0
 10
79.28852808347648
 20
-80.78783363865722
 30
0.0
 10
80.83296438951399
 20
-80.78783363865722
 30
0.0
 10
80.83296438951399
 20
-80.78783363865722
 30
0.0
 10
80.83296438951399
 20
-80.78783363865722
 30
0.0
 10
80.83296438951399
 20
-81.0041856351309
 30
0.0
 10
80.83296438951399
 20
-81.0041856351309
 30
0.0
  0
HATCH
  5
98
330
93
100
AcDbEntity
  8
_U+30EC_U+30A4_U+30E4_U+30FC 1
 62
   179
420
  2234388
100
AcDbHatch
 10
0.0
 20
0.0
 30
0.0
210
0.0
220
0.0
230
1.0
  2
SOLID
 70
     1
 71
     0
 91
        1
 92
        1
 93
        1
 72
     4
 94
        3
 73
     0
 74
     1
 95
       26
 96
       22
 40
0.0
 40
0.0
 40
0.0
 40
0.0
 40
1.0
 40
1.0
 40
1.0
 40
2.0
 40
2.0
 40
2.0
 40
3.0
 40
3.0
 40
3.0
 40
4.0
 40
4.0
 40
4.0
 40
5.0
 40
5.0
 40
5.0
 40
6.0
 40
6.0
 40
6.0
 40
7.0
 40
7.0
 40
7.0
 40
7.0
 10
80.83296438951399
 20
-81.0041856351309
 10
80.83296438951399
 20
-81.0041856351309
 10
79.7288112864914
 20
-81.0041856351309
 10
79.7288112864914
 20
-81.0041856351309
 10
79.7288112864914
 20
-81.0041856351309
 10
79.7288112864914
 20
-81.32234020319372
 10
79.7288112864914
 20
-81.32234020319372
 10
79.7288112864914
 20
-81.32234020319372
 10
79.58067218062567
 20
-81.32234020319372
 10
79.58067218062567
 20
-81.32234020319372
 10
79.5658582700391
 20
-81.00211857783975
 10
79.40290525358678
 20
-80.95716008175724
 10
79.28852808347648
 20
-80.92873804400394
 10
79.28852808347648
 20
-80.92873804400394
 10
79.28852808347648
 20
-80.78783363865722
 10
79.28852808347648
 20
-80.78783363865722
 10
79.28852808347648
 20
-80.78783363865722
 10
80.83296438951399
 20
-80.78783363865722
 10
80.83296438951399
 20
-80.78783363865722
 10
80.83296438951399
 20
-80.78783363865722
 10
80.83296438951399
 20
-81.0041856351309
 10
80.83296438951399
 20
-81.0041856351309
 97
        0
 97
        0
 75
     2
 76
     1
 98
        0
  0
ENDBLK
  5
96
330
93
100
AcDbEntity
  8
0
100
AcDbBlockEnd
  0
BLOCK
  5
A7
330
A5
100
AcDbEntity
  8
0
100
AcDbBlockBegin
  2
block 3
 70
     0
 10
0.0
 20
0.0
 30
0.0
  3
block 3
  1

  0
SPLINE
  5
A9
330
A5
100
AcDbEntity
  8
_U+30EC_U+30A4_U+30E4_U+30FC 1
370
     0
100
AcDbSpline
210
0.0
220
0.0
230
1.0
 70
    11
 71
     3
 72
    44
 73
    40
 74
     0
 42
0.0000000001
 43
0.0000000001
 12
1.0
 22
0.0
 32
0.0
 13
1.0
 23
0.0
 33
0.0
 40
0.0
 40
0.0
 40
0.0
 40
0.0
 40
1.0
 40
1.0
 40
1.0
 40
2.0
 40
2.0
 40
2.0
 40
3.0
 40
3.0
 40
3.0
 40
4.0
 40
4.0
 40
4.0
 40
5.0
 40
5.0
 40
5.0
 40
6.0
 40
6.0
 40
6.0
 40
7.0
 40
7.0
 40
7.0
 40
8.0
 40
8.0
 40
8.0
 40
9.0
 40
9.0
 40
9.0
 40
10.0
 40
10.0
 40
10.0
 40
11.0
 40
11.0
 40
11.0
 40
12.0
 40
12.0
 40
12.0
 40
13.0
 40
13.0
 40
13.0
 40
13.0
 10
61.0407185719794
 20
-75.23296167824037
 30
0.0
 10
60.83056774737916
 20
-75.39160832533612
 30
0.0
 10
60.74065075521415
 20
-75.465677878269
 30
0.0
 10
60.69379745661475
 20
-75.60951061477819
 30
0.0
 10
60.69379745661475
 20
-75.60951061477819
 30
0.0
 10
61.44448376285069
 20
-75.60951061477819
 30
0.0
 10
61.44448376285069
 20
-75.60951061477819
 30
0.0
 10
61.44448376285069
 20
-75.60951061477819
 30
0.0
 10
61.44448376285069
 20
-75.81466605092481
 30
0.0
 10
61.44448376285069
 20
-75.81466605092481
 30
0.0
 10
61.44448376285069
 20
-75.81466605092481
 30
0.0
 10
60.45298528219578
 20
-75.81466605092481
 30
0.0
 10
60.45298528219578
 20
-75.81466605092481
 30
0.0
 10
60.4836466320145
 20
-75.45706513955588
 30
0.0
 10
60.54703638894311
 20
-75.37886147204071
 30
0.0
 10
60.91841768225304
 20
-75.08051620301806
 30
0.0
 10
61.16508651899692
 20
-74.88173419351915
 30
0.0
 10
61.22847627592552
 20
-74.814038067234
 30
0.0
 10
61.22847627592552
 20
-74.67657875737252
 30
0.0
 10
61.22847627592552
 20
-74.55806747267994
 30
0.0
 10
61.15888534712347
 20
-74.42680933469191
 30
0.0
 10
60.96940509543474
 20
-74.42680933469191
 30
0.0
 10
60.71825763456002
 20
-74.42680933469191
 30
0.0
 10
60.70998940539542
 20
-74.65745847742939
 30
0.0
 10
60.70619980036165
 20
-74.77390270483083
 30
0.0
 10
60.70619980036165
 20
-74.77390270483083
 30
0.0
 10
60.48984780388795
 20
-74.77390270483083
 30
0.0
 10
60.48984780388795
 20
-74.77390270483083
 30
0.0
 10
60.49811603305255
 20
-74.64695093619937
 30
0.0
 10
60.50810680995978
 20
-74.5348130781545
 30
0.0
 10
60.5856214583779
 20
-74.4163017934619
 30
0.0
 10
60.6917303993236
 20
-74.25558808907499
 30
0.0
 10
60.87121987410512
 20
-74.22165389854528
 30
0.0
 10
60.98352998692426
 20
-74.22165389854528
 30
0.0
 10
61.25086939657965
 20
-74.22165389854528
 30
0.0
 10
61.45068493472414
 20
-74.40579425223189
 30
0.0
 10
61.45068493472414
 20
-74.67864581466368
 30
0.0
 10
61.45068493472414
 20
-74.90705564533575
 30
0.0
 10
61.33837482190499
 20
-75.00661890485947
 30
0.0
 10
61.0407185719794
 20
-75.23296167824037
 30
0.0
  0
HATCH
  5
AA
330
A5
100
AcDbEntity
  8
_U+30EC_U+30A4_U+30E4_U+30FC 1
 62
   179
420
  2234388
100
AcDbHatch
 10
0.0
 20
0.0
 30
0.0
210
0.0
220
0.0
230
1.0
  2
SOLID
 70
     1
 71
     0
 91
        1
 92
        1
 93
        1
 72
     4
 94
        3
 73
     0
 74
     1
 95
       44
 96
       40
 40
0.0
 40
0.0
 40
0.0
 40
0.0
 40
1.0
 40
1.0
 40
1.0
 40
2.0
 40
2.0
 40
2.0
 40
3.0
 40
3.0
 40
3.0
 40
4.0
 40
4.0
 40
4.0
 40
5.0
 40
5.0
 40
5.0
 40
6.0
 40
6.0
 40
6.0
 40
7.0
 40
7.0
 40
7.0
 40
8.0
 40
8.0
 40
8.0
 40
9.0
 40
9.0
 40
9.0
 40
10.0
 40
10.0
 40
10.0
 40
11.0
 40
11.0
 40
11.0
 40
12.0
 40
12.0
 40
12.0
 40
13.0
 40
13.0
 40
13.0
 40
13.0
 10
61.0407185719794
 20
-75.23296167824037
 10
60.83056774737916
 20
-75.39160832533612
 10
60.74065075521415
 20
-75.465677878269
 10
60.69379745661475
 20
-75.60951061477819
 10
60.69379745661475
 20
-75.60951061477819
 10
61.44448376285069
 20
-75.60951061477819
 10
61.44448376285069
 20
-75.60951061477819
 10
61.44448376285069
 20
-75.60951061477819
 10
61.44448376285069
 20
-75.81466605092481
 10
61.44448376285069
 20
-75.81466605092481
 10
61.44448376285069
 20
-75.81466605092481
 10
60.45298528219578
 20
-75.81466605092481
 10
60.45298528219578
 20
-75.81466605092481
 10
60.4836466320145
 20
-75.45706513955588
 10
60.54703638894311
 20
-75.37886147204071
 10
60.91841768225304
 20
-75.08051620301806
 10
61.16508651899692
 20
-74.88173419351915
 10
61.22847627592552
 20
-74.814038067234
 10
61.22847627592552
 20
-74.67657875737252
 10
61.22847627592552
 20
-74.55806747267994
 10
61.15888534712347
 20
-74.42680933469191
 10
60.96940509543474
 20
-74.42680933469191
 10
60.71825763456002
 20
-74.42680933469191
 10
60.70998940539542
 20
-74.65745847742939
 10
60.70619980036165
 20
-74.77390270483083
 10
60.70619980036165
 20
-74.77390270483083
 10
60.48984780388795
 20
-74.77390270483083
 10
60.48984780388795
 20
-74.77390270483083
 10
60.49811603305255
 20
-74.64695093619937
 10
60.50810680995978
 20
-74.5348130781545
 10
60.5856214583779
 20
-74.4163017934619
 10
60.6917303993236
 20
-74.25558808907499
 10
60.87121987410512
 20
-74.22165389854528
 10
60.98352998692426
 20
-74.22165389854528
 10
61.25086939657965
 20
-74.22165389854528
 10
61.45068493472414
 20
-74.40579425223189
 10
61.45068493472414
 20
-74.67864581466368
 10
61.45068493472414
 20
-74.90705564533575
 10
61.33837482190499
 20
-75.00661890485947
 10
61.0407185719794
 20
-75.23296167824037
 97
        0
 97
        0
 75
     2
 76
     1
 98
        0
  0
SPLINE
  5
AB
330
A5
100
AcDbEntity
  8
_U+30EC_U+30A4_U+30E4_U+30FC 1
370
     0
100
AcDbSpline
210
0.0
220
0.0
230
1.0
 70
    11
 71
     3
 72
    53
 73
    49
 74
     0
 42
0.0000000001
 43
0.0000000001
 12
1.0
 22
0.0
 32
0.0
 13
1.0
 23
0.0
 33
0.0
 40
0.0
 40
0.0
 40
0.0
 40
0.0
 40
1.0
 40
1.0
 40
1.0
 40
2.0
 40
2.0
 40
2.0
 40
3.0
 40
3.0
 40
3.0
 40
4.0
 40
4.0
 40
4.0
 40
5.0
 40
5.0
 40
5.0
 40
6.0
 40
6.0
 40
6.0
 40
7.0
 40
7.0
 40
7.0
 40
8.0
 40
8.0
 40
8.0
 40
9.0
 40
9.0
 40
9.0
 40
10.0
 40
10.0
 40
10.0
 40
11.0
 40
11.0
 40
11.0
 40
12.0
 40
12.0
 40
12.0
 40
13.0
 40
13.0
 40
13.0
 40
14.0
 40
14.0
 40
14.0
 40
15.0
 40
15.0
 40
15.0
 40
16.0
 40
16.0
 40
16.0
 40
16.0
 10
62.06597898838976
 20
-75.86548120933224
 30
0.0
 10
61.99053139726279
 20
-75.86548120933224
 30
0.0
 10
61.89269068548169
 20
-75.84860024145452
 30
0.0
 10
61.79450546415207
 20
-75.78503822975166
 30
0.0
 10
61.62741833311745
 20
-75.67496742899793
 30
0.0
 10
61.60709226975448
 20
-75.54388154578417
 30
0.0
 10
61.58848875413413
 20
-75.43605005709585
 30
0.0
 10
61.58848875413413
 20
-75.43605005709585
 30
0.0
 10
61.80277369331667
 20
-75.43605005709585
 30
0.0
 10
61.80277369331667
 20
-75.43605005709585
 30
0.0
 10
61.85582816378952
 20
-75.63483206659477
 30
0.0
 10
61.97812905351589
 20
-75.66445988776792
 30
0.0
 10
62.06804604568091
 20
-75.66445988776792
 30
0.0
 10
62.20274927915418
 20
-75.66445988776792
 30
0.0
 10
62.34951034682582
 20
-75.56506888301845
 30
0.0
 10
62.34951034682582
 20
-75.33235268298984
 30
0.0
 10
62.34951034682582
 20
-75.07638208843576
 30
0.0
 10
62.17622204391775
 20
-75.00661890485947
 30
0.0
 10
62.05977781651631
 20
-75.00661890485947
 30
0.0
 10
62.02911646669759
 20
-75.00661890485947
 30
0.0
 10
61.89269068548169
 20
-75.00661890485947
 30
0.0
 10
61.80690780789897
 20
-75.13563773078207
 30
0.0
 10
61.80690780789897
 20
-75.13563773078207
 30
0.0
 10
61.63740911002468
 20
-75.11651745083893
 30
0.0
 10
61.63740911002468
 20
-75.11651745083893
 30
0.0
 10
61.63740911002468
 20
-75.11651745083893
 30
0.0
 10
61.75385333742612
 20
-74.27040199966157
 30
0.0
 10
61.75385333742612
 20
-74.27040199966157
 30
0.0
 10
61.75385333742612
 20
-74.27040199966157
 30
0.0
 10
62.50453964366206
 20
-74.27040199966157
 30
0.0
 10
62.50453964366206
 20
-74.27040199966157
 30
0.0
 10
62.50453964366206
 20
-74.27040199966157
 30
0.0
 10
62.50453964366206
 20
-74.46504989457819
 30
0.0
 10
62.50453964366206
 20
-74.46504989457819
 30
0.0
 10
62.50453964366206
 20
-74.46504989457819
 30
0.0
 10
61.91094969155352
 20
-74.46504989457819
 30
0.0
 10
61.91094969155352
 20
-74.46504989457819
 30
0.0
 10
61.91094969155352
 20
-74.46504989457819
 30
0.0
 10
61.84755993462492
 20
-74.88810762016686
 30
0.0
 10
61.84755993462492
 20
-74.88810762016686
 30
0.0
 10
61.90681557697121
 20
-74.85417342963716
 30
0.0
 10
61.98639728268049
 20
-74.814038067234
 30
0.0
 10
62.10077445279078
 20
-74.814038067234
 30
0.0
 10
62.34537623224352
 20
-74.814038067234
 30
0.0
 10
62.57413057246411
 20
-75.00024547821175
 30
0.0
 10
62.57413057246411
 20
-75.3132324030467
 30
0.0
 10
62.57413057246411
 20
-75.63069795201247
 30
0.0
 10
62.35777857599042
 20
-75.86548120933224
 30
0.0
 10
62.06597898838976
 20
-75.86548120933224
 30
0.0
  0
HATCH
  5
AC
330
A5
100
AcDbEntity
  8
_U+30EC_U+30A4_U+30E4_U+30FC 1
 62
   179
420
  2234388
100
AcDbHatch
 10
0.0
 20
0.0
 30
0.0
210
0.0
220
0.0
230
1.0
  2
SOLID
 70
     1
 71
     0
 91
        1
 92
        1
 93
        1
 72
     4
 94
        3
 73
     0
 74
     1
 95
       53
 96
       49
 40
0.0
 40
0.0
 40
0.0
 40
0.0
 40
1.0
 40
1.0
 40
1.0
 40
2.0
 40
2.0
 40
2.0
 40
3.0
 40
3.0
 40
3.0
 40
4.0
 40
4.0
 40
4.0
 40
5.0
 40
5.0
 40
5.0
 40
6.0
 40
6.0
 40
6.0
 40
7.0
 40
7.0
 40
7.0
 40
8.0
 40
8.0
 40
8.0
 40
9.0
 40
9.0
 40
9.0
 40
10.0
 40
10.0
 40
10.0
 40
11.0
 40
11.0
 40
11.0
 40
12.0
 40
12.0
 40
12.0
 40
13.0
 40
13.0
 40
13.0
 40
14.0
 40
14.0
 40
14.0
 40
15.0
 40
15.0
 40
15.0
 40
16.0
 40
16.0
 40
16.0
 40
16.0
 10
62.06597898838976
 20
-75.86548120933224
 10
61.99053139726279
 20
-75.86548120933224
 10
61.89269068548169
 20
-75.84860024145452
 10
61.79450546415207
 20
-75.78503822975166
 10
61.62741833311745
 20
-75.67496742899793
 10
61.60709226975448
 20
-75.54388154578417
 10
61.58848875413413
 20
-75.43605005709585
 10
61.58848875413413
 20
-75.43605005709585
 10
61.80277369331667
 20
-75.43605005709585
 10
61.80277369331667
 20
-75.43605005709585
 10
61.85582816378952
 20
-75.63483206659477
 10
61.97812905351589
 20
-75.66445988776792
 10
62.06804604568091
 20
-75.66445988776792
 10
62.20274927915418
 20
-75.66445988776792
 10
62.34951034682582
 20
-75.56506888301845
 10
62.34951034682582
 20
-75.33235268298984
 10
62.34951034682582
 20
-75.07638208843576
 10
62.17622204391775
 20
-75.00661890485947
 10
62.05977781651631
 20
-75.00661890485947
 10
62.02911646669759
 20
-75.00661890485947
 10
61.89269068548169
 20
-75.00661890485947
 10
61.80690780789897
 20
-75.13563773078207
 10
61.80690780789897
 20
-75.13563773078207
 10
61.63740911002468
 20
-75.11651745083893
 10
61.63740911002468
 20
-75.11651745083893
 10
61.63740911002468
 20
-75.11651745083893
 10
61.75385333742612
 20
-74.27040199966157
 10
61.75385333742612
 20
-74.27040199966157
 10
61.75385333742612
 20
-74.27040199966157
 10
62.50453964366206
 20
-74.27040199966157
 10
62.50453964366206
 20
-74.27040199966157
 10
62.50453964366206
 20
-74.27040199966157
 10
62.50453964366206
 20
-74.46504989457819
 10
62.50453964366206
 20
-74.46504989457819
 10
62.50453964366206
 20
-74.46504989457819
 10
61.91094969155352
 20
-74.46504989457819
 10
61.91094969155352
 20
-74.46504989457819
 10
61.91094969155352
 20
-74.46504989457819
 10
61.84755993462492
 20
-74.88810762016686
 10
61.84755993462492
 20
-74.88810762016686
 10
61.90681557697121
 20
-74.85417342963716
 10
61.98639728268049
 20
-74.814038067234
 10
62.10077445279078
 20
-74.814038067234
 10
62.34537623224352
 20
-74.814038067234
 10
62.57413057246411
 20
-75.00024547821175
 10
62.57413057246411
 20
-75.3132324030467
 10
62.57413057246411
 20
-75.63069795201247
 10
62.35777857599042
 20
-75.86548120933224
 10
62.06597898838976
 20
-75.86548120933224
 97
        0
 97
        0
 75
     2
 76
     1
 98
        0
  0
ENDBLK
  5
A8
330
A5
100
AcDbEntity
  8
0
100
AcDbBlockEnd
  0
BLOCK
  5
BB
330
B9
100
AcDbEntity
  8
0
100
AcDbBlockBegin
  2
block 4
 70
     0
 10
0.0
 20
0.0
 30
0.0
  3
block 4
  1

  0
POLYLINE
  5
BD
330
B9
100
AcDbEntity
  8
_U+30EC_U+30A4_U+30E4_U+30FC 1
370
     0
100
AcDb2dPolyline
 66
     1
 10
0.0
 20
0.0
 30
0.0
  0
VERTEX
  5
BE
330
BD
100
AcDbEntity
  8
_U+30EC_U+30A4_U+30E4_U+30FC 1
370
     0
100
AcDbVertex
100
AcDb2dVertex
 10
52.43779838098777
 20
-99.46783037877888
 30
0.0
  0
VERTEX
  5
BF
330
BD
100
AcDbEntity
  8
_U+30EC_U+30A4_U+30E4_U+30FC 1
370
     0
100
AcDbVertex
100
AcDb2dVertex
 10
52.43779838098777
 20
-99.81475149414354
 30
0.0
  0
VERTEX
  5
C0
330
BD
100
AcDbEntity
  8
_U+30EC_U+30A4_U+30E4_U+30FC 1
370
     0
100
AcDbVertex
100
AcDb2dVertex
 10
52.22764755638754
 20
-99.81475149414354
 30
0.0
  0
VERTEX
  5
C1
330
BD
100
AcDbEntity
  8
_U+30EC_U+30A4_U+30E4_U+30FC 1
370
     0
100
AcDbVertex
100
AcDb2dVertex
 10
52.22764755638754
 20
-99.46783037877888
 30
0.0
  0
VERTEX
  5
C2
330
BD
100
AcDbEntity
  8
_U+30EC_U+30A4_U+30E4_U+30FC 1
370
     0
100
AcDbVertex
100
AcDb2dVertex
 10
51.59530028006993
 20
-99.46783037877888
 30
0.0
  0
VERTEX
  5
C3
330
BD
100
AcDbEntity
  8
_U+30EC_U+30A4_U+30E4_U+30FC 1
370
     0
100
AcDbVertex
100
AcDb2dVertex
 10
51.59530028006993
 20
-99.24355466268912
 30
0.0
  0
VERTEX
  5
C4
330
BD
100
AcDbEntity
  8
_U+30EC_U+30A4_U+30E4_U+30FC 1
370
     0
100
AcDbVertex
100
AcDb2dVertex
 10
52.25004067704166
 20
-98.27031518810604
 30
0.0
  0
VERTEX
  5
C5
330
BD
100
AcDbEntity
  8
_U+30EC_U+30A4_U+30E4_U+30FC 1
370
     0
100
AcDbVertex
100
AcDb2dVertex
 10
52.43779838098777
 20
-98.27031518810604
 30
0.0
  0
VERTEX
  5
C6
330
BD
100
AcDbEntity
  8
_U+30EC_U+30A4_U+30E4_U+30FC 1
370
     0
100
AcDbVertex
100
AcDb2dVertex
 10
52.43779838098777
 20
-99.26904836927997
 30
0.0
  0
VERTEX
  5
C7
330
BD
100
AcDbEntity
  8
_U+30EC_U+30A4_U+30E4_U+30FC 1
370
     0
100
AcDbVertex
100
AcDb2dVertex
 10
52.63778617390653
 20
-99.26904836927997
 30
0.0
  0
VERTEX
  5
C8
330
BD
100
AcDbEntity
  8
_U+30EC_U+30A4_U+30E4_U+30FC 1
370
     0
100
AcDbVertex
100
AcDb2dVertex
 10
52.63778617390653
 20
-99.46783037877888
 30
0.0
  0
VERTEX
  5
C9
330
BD
100
AcDbEntity
  8
_U+30EC_U+30A4_U+30E4_U+30FC 1
370
     0
100
AcDbVertex
100
AcDb2dVertex
 10
52.43779838098777
 20
-99.46783037877888
 30
0.0
  0
SEQEND
  5
CA
330
BD
100
AcDbEntity
  8
_U+30EC_U+30A4_U+30E4_U+30FC 1
370
     0
  0
POLYLINE
  5
CB
330
B9
100
AcDbEntity
  8
_U+30EC_U+30A4_U+30E4_U+30FC 1
370
     0
100
AcDb2dPolyline
 66
     1
 10
0.0
 20
0.0
 30
0.0
  0
VERTEX
  5
CC
330
CB
100
AcDbEntity
  8
_U+30EC_U+30A4_U+30E4_U+30FC 1
370
     0
100
AcDbVertex
100
AcDb2dVertex
 10
52.22764755638754
 20
-98.61310218888839
 30
0.0
  0
VERTEX
  5
CD
330
CB
100
AcDbEntity
  8
_U+30EC_U+30A4_U+30E4_U+30FC 1
370
     0
100
AcDbVertex
100
AcDb2dVertex
 10
51.78701984382408
 20
-99.26904836927997
 30
0.0
  0
VERTEX
  5
CE
330
CB
100
AcDbEntity
  8
_U+30EC_U+30A4_U+30E4_U+30FC 1
370
     0
100
AcDbVertex
100
AcDb2dVertex
 10
52.22764755638754
 20
-99.26904836927997
 30
0.0
  0
VERTEX
  5
CF
330
CB
100
AcDbEntity
  8
_U+30EC_U+30A4_U+30E4_U+30FC 1
370
     0
100
AcDbVertex
100
AcDb2dVertex
 10
52.22764755638754
 20
-98.61310218888839
 30
0.0
  0
SEQEND
  5
D0
330
CB
100
AcDbEntity
  8
_U+30EC_U+30A4_U+30E4_U+30FC 1
370
     0
  0
HATCH
  5
D1
330
B9
100
AcDbEntity
  8
_U+30EC_U+30A4_U+30E4_U+30FC 1
 62
   179
420
  2234388
100
AcDbHatch
 10
0.0
 20
0.0
 30
0.0
210
0.0
220
0.0
230
1.0
  2
SOLID
 70
     1
 71
     0
 91
        2
 92
        1
 93
       11
 72
     1
 10
52.43779838098777
 20
-99.46783037877888
 11
52.43779838098777
 21
-99.81475149414354
 72
     1
 10
52.43779838098777
 20
-99.81475149414354
 11
52.22764755638754
 21
-99.81475149414354
 72
     1
 10
52.22764755638754
 20
-99.81475149414354
 11
52.22764755638754
 21
-99.46783037877888
 72
     1
 10
52.22764755638754
 20
-99.46783037877888
 11
51.59530028006993
 21
-99.46783037877888
 72
     1
 10
51.59530028006993
 20
-99.46783037877888
 11
51.59530028006993
 21
-99.24355466268912
 72
     1
 10
51.59530028006993
 20
-99.24355466268912
 11
52.25004067704166
 21
-98.27031518810604
 72
     1
 10
52.25004067704166
 20
-98.27031518810604
 11
52.43779838098777
 21
-98.27031518810604
 72
     1
 10
52.43779838098777
 20
-98.27031518810604
 11
52.43779838098777
 21
-99.26904836927997
 72
     1
 10
52.43779838098777
 20
-99.26904836927997
 11
52.63778617390653
 21
-99.26904836927997
 72
     1
 10
52.63778617390653
 20
-99.26904836927997
 11
52.63778617390653
 21
-99.46783037877888
 72
     1
 10
52.63778617390653
 20
-99.46783037877888
 11
52.43779838098777
 21
-99.46783037877888
 97
        0
 92
        1
 93
        3
 72
     1
 10
52.22764755638754
 20
-98.61310218888839
 11
51.78701984382408
 21
-99.26904836927997
 72
     1
 10
51.78701984382408
 20
-99.26904836927997
 11
52.22764755638754
 21
-99.26904836927997
 72
     1
 10
52.22764755638754
 20
-99.26904836927997
 11
52.22764755638754
 21
-98.61310218888839
 97
        0
 75
     2
 76
     1
 98
        0
  0
ENDBLK
  5
BC
330
B9
100
AcDbEntity
  8
0
100
AcDbBlockEnd
  0
BLOCK
  5
E0
330
DE
100
AcDbEntity
  8
0
100
AcDbBlockBegin
  2
block 5
 70
     0
 10
0.0
 20
0.0
 30
0.0
  3
block 5
  1

  0
SPLINE
  5
E2
330
DE
100
AcDbEntity
  8
_U+30EC_U+30A4_U+30E4_U+30FC 1
370
     0
100
AcDbSpline
210
0.0
220
0.0
230
1.0
 70
    11
 71
     3
 72
    26
 73
    22
 74
     0
 42
0.0000000001
 43
0.0000000001
 12
1.0
 22
0.0
 32
0.0
 13
1.0
 23
0.0
 33
0.0
 40
0.0
 40
0.0
 40
0.0
 40
0.0
 40
1.0
 40
1.0
 40
1.0
 40
2.0
 40
2.0
 40
2.0
 40
3.0
 40
3.0
 40
3.0
 40
4.0
 40
4.0
 40
4.0
 40
5.0
 40
5.0
 40
5.0
 40
6.0
 40
6.0
 40
6.0
 40
7.0
 40
7.0
 40
7.0
 40
7.0
 10
49.59835068204486
 20
-103.2250515149924
 30
0.0
 10
49.59835068204486
 20
-103.2250515149924
 30
0.0
 10
49.59835068204486
 20
-102.1208984119698
 30
0.0
 10
49.59835068204486
 20
-102.1208984119698
 30
0.0
 10
49.59835068204486
 20
-102.1208984119698
 30
0.0
 10
49.28019611398204
 20
-102.1208984119698
 30
0.0
 10
49.28019611398204
 20
-102.1208984119698
 30
0.0
 10
49.28019611398204
 20
-102.1208984119698
 30
0.0
 10
49.28019611398204
 20
-101.972759306104
 30
0.0
 10
49.28019611398204
 20
-101.972759306104
 30
0.0
 10
49.60041773933601
 20
-101.9579453955175
 30
0.0
 10
49.64537623541852
 20
-101.7949923790651
 30
0.0
 10
49.67379827317183
 20
-101.6806152089548
 30
0.0
 10
49.67379827317183
 20
-101.6806152089548
 30
0.0
 10
49.81470267851855
 20
-101.6806152089548
 30
0.0
 10
49.81470267851855
 20
-101.6806152089548
 30
0.0
 10
49.81470267851855
 20
-101.6806152089548
 30
0.0
 10
49.81470267851855
 20
-103.2250515149924
 30
0.0
 10
49.81470267851855
 20
-103.2250515149924
 30
0.0
 10
49.81470267851855
 20
-103.2250515149924
 30
0.0
 10
49.59835068204486
 20
-103.2250515149924
 30
0.0
 10
49.59835068204486
 20
-103.2250515149924
 30
0.0
  0
HATCH
  5
E3
330
DE
100
AcDbEntity
  8
_U+30EC_U+30A4_U+30E4_U+30FC 1
 62
   179
420
  2234388
100
AcDbHatch
 10
0.0
 20
0.0
 30
0.0
210
0.0
220
0.0
230
1.0
  2
SOLID
 70
     1
 71
     0
 91
        1
 92
        1
 93
        1
 72
     4
 94
        3
 73
     0
 74
     1
 95
       26
 96
       22
 40
0.0
 40
0.0
 40
0.0
 40
0.0
 40
1.0
 40
1.0
 40
1.0
 40
2.0
 40
2.0
 40
2.0
 40
3.0
 40
3.0
 40
3.0
 40
4.0
 40
4.0
 40
4.0
 40
5.0
 40
5.0
 40
5.0
 40
6.0
 40
6.0
 40
6.0
 40
7.0
 40
7.0
 40
7.0
 40
7.0
 10
49.59835068204486
 20
-103.2250515149924
 10
49.59835068204486
 20
-103.2250515149924
 10
49.59835068204486
 20
-102.1208984119698
 10
49.59835068204486
 20
-102.1208984119698
 10
49.59835068204486
 20
-102.1208984119698
 10
49.28019611398204
 20
-102.1208984119698
 10
49.28019611398204
 20
-102.1208984119698
 10
49.28019611398204
 20
-102.1208984119698
 10
49.28019611398204
 20
-101.972759306104
 10
49.28019611398204
 20
-101.972759306104
 10
49.60041773933601
 20
-101.9579453955175
 10
49.64537623541852
 20
-101.7949923790651
 10
49.67379827317183
 20
-101.6806152089548
 10
49.67379827317183
 20
-101.6806152089548
 10
49.81470267851855
 20
-101.6806152089548
 10
49.81470267851855
 20
-101.6806152089548
 10
49.81470267851855
 20
-101.6806152089548
 10
49.81470267851855
 20
-103.2250515149924
 10
49.81470267851855
 20
-103.2250515149924
 10
49.81470267851855
 20
-103.2250515149924
 10
49.59835068204486
 20
-103.2250515149924
 10
49.59835068204486
 20
-103.2250515149924
 97
        0
 97
        0
 75
     2
 76
     1
 98
        0
  0
ENDBLK
  5
E1
330
DE
100
AcDbEntity
  8
0
100
AcDbBlockEnd
  0
BLOCK
  5
F2
330
F0
100
AcDbEntity
  8
0
100
AcDbBlockBegin
  2
block 6
 70
     0
 10
0.0
 20
0.0
 30
0.0
  3
block 6
  1

  0
SPLINE
  5
F4
330
F0
100
AcDbEntity
  8
_U+30EC_U+30A4_U+30E4_U+30FC 1
370
     0
100
AcDbSpline
210
0.0
220
0.0
230
1.0
 70
    11
 71
     3
 72
    44
 73
    40
 74
     0
 42
0.0000000001
 43
0.0000000001
 12
1.0
 22
0.0
 32
0.0
 13
1.0
 23
0.0
 33
0.0
 40
0.0
 40
0.0
 40
0.0
 40
0.0
 40
1.0
 40
1.0
 40
1.0
 40
2.0
 40
2.0
 40
2.0
 40
3.0
 40
3.0
 40
3.0
 40
4.0
 40
4.0
 40
4.0
 40
5.0
 40
5.0
 40
5.0
 40
6.0
 40
6.0
 40
6.0
 40
7.0
 40
7.0
 40
7.0
 40
8.0
 40
8.0
 40
8.0
 40
9.0
 40
9.0
 40
9.0
 40
10.0
 40
10.0
 40
10.0
 40
11.0
 40
11.0
 40
11.0
 40
12.0
 40
12.0
 40
12.0
 40
13.0
 40
13.0
 40
13.0
 40
13.0
 10
56.95828042195835
 20
-95.34026147790105
 30
0.0
 10
57.11692706905411
 20
-95.55041230250129
 30
0.0
 10
57.19099662198698
 20
-95.64032929466632
 30
0.0
 10
57.33482935849616
 20
-95.6871825932657
 30
0.0
 10
57.33482935849616
 20
-95.6871825932657
 30
0.0
 10
57.33482935849616
 20
-94.93649628702977
 30
0.0
 10
57.33482935849616
 20
-94.93649628702977
 30
0.0
 10
57.33482935849616
 20
-94.93649628702977
 30
0.0
 10
57.53998479464278
 20
-94.93649628702977
 30
0.0
 10
57.53998479464278
 20
-94.93649628702977
 30
0.0
 10
57.53998479464278
 20
-94.93649628702977
 30
0.0
 10
57.53998479464278
 20
-95.92799476768467
 30
0.0
 10
57.53998479464278
 20
-95.92799476768467
 30
0.0
 10
57.18238388327385
 20
-95.89733341786595
 30
0.0
 10
57.10418021575868
 20
-95.83394366093735
 30
0.0
 10
56.80583494673604
 20
-95.46256236762741
 30
0.0
 10
56.60705293723713
 20
-95.21589353088353
 30
0.0
 10
56.53935681095197
 20
-95.15250377395493
 30
0.0
 10
56.4018975010905
 20
-95.15250377395493
 30
0.0
 10
56.28338621639791
 20
-95.15250377395493
 30
0.0
 10
56.15230033318415
 20
-95.22209470275698
 30
0.0
 10
56.15230033318415
 20
-95.41157495444573
 30
0.0
 10
56.15230033318415
 20
-95.66272241532043
 30
0.0
 10
56.38277722114736
 20
-95.67099064448503
 30
0.0
 10
56.49922144854881
 20
-95.6747802495188
 30
0.0
 10
56.49922144854881
 20
-95.6747802495188
 30
0.0
 10
56.49922144854881
 20
-95.8911322459925
 30
0.0
 10
56.49922144854881
 20
-95.8911322459925
 30
0.0
 10
56.37226967991735
 20
-95.8828640168279
 30
0.0
 10
56.26013182187247
 20
-95.87287323992068
 30
0.0
 10
56.14162053717988
 20
-95.79535859150255
 30
0.0
 10
55.98090683279297
 20
-95.68924965055686
 30
0.0
 10
55.94697264226326
 20
-95.50976017577534
 30
0.0
 10
55.94697264226326
 20
-95.3974500629562
 30
0.0
 10
55.94697264226326
 20
-95.1301106533008
 30
0.0
 10
56.13111299594986
 20
-94.93029511515633
 30
0.0
 10
56.40396455838165
 20
-94.93029511515633
 30
0.0
 10
56.63237438905372
 20
-94.93029511515633
 30
0.0
 10
56.73193764857744
 20
-95.04260522797546
 30
0.0
 10
56.95828042195835
 20
-95.34026147790105
 30
0.0
  0
HATCH
  5
F5
330
F0
100
AcDbEntity
  8
_U+30EC_U+30A4_U+30E4_U+30FC 1
 62
   179
420
  2234388
100
AcDbHatch
 10
0.0
 20
0.0
 30
0.0
210
0.0
220
0.0
230
1.0
  2
SOLID
 70
     1
 71
     0
 91
        1
 92
        1
 93
        1
 72
     4
 94
        3
 73
     0
 74
     1
 95
       44
 96
       40
 40
0.0
 40
0.0
 40
0.0
 40
0.0
 40
1.0
 40
1.0
 40
1.0
 40
2.0
 40
2.0
 40
2.0
 40
3.0
 40
3.0
 40
3.0
 40
4.0
 40
4.0
 40
4.0
 40
5.0
 40
5.0
 40
5.0
 40
6.0
 40
6.0
 40
6.0
 40
7.0
 40
7.0
 40
7.0
 40
8.0
 40
8.0
 40
8.0
 40
9.0
 40
9.0
 40
9.0
 40
10.0
 40
10.0
 40
10.0
 40
11.0
 40
11.0
 40
11.0
 40
12.0
 40
12.0
 40
12.0
 40
13.0
 40
13.0
 40
13.0
 40
13.0
 10
56.95828042195835
 20
-95.34026147790105
 10
57.11692706905411
 20
-95.55041230250129
 10
57.19099662198698
 20
-95.64032929466632
 10
57.33482935849616
 20
-95.6871825932657
 10
57.33482935849616
 20
-95.6871825932657
 10
57.33482935849616
 20
-94.93649628702977
 10
57.33482935849616
 20
-94.93649628702977
 10
57.33482935849616
 20
-94.93649628702977
 10
57.53998479464278
 20
-94.93649628702977
 10
57.53998479464278
 20
-94.93649628702977
 10
57.53998479464278
 20
-94.93649628702977
 10
57.53998479464278
 20
-95.92799476768467
 10
57.53998479464278
 20
-95.92799476768467
 10
57.18238388327385
 20
-95.89733341786595
 10
57.10418021575868
 20
-95.83394366093735
 10
56.80583494673604
 20
-95.46256236762741
 10
56.60705293723713
 20
-95.21589353088353
 10
56.53935681095197
 20
-95.15250377395493
 10
56.4018975010905
 20
-95.15250377395493
 10
56.28338621639791
 20
-95.15250377395493
 10
56.15230033318415
 20
-95.22209470275698
 10
56.15230033318415
 20
-95.41157495444573
 10
56.15230033318415
 20
-95.66272241532043
 10
56.38277722114736
 20
-95.67099064448503
 10
56.49922144854881
 20
-95.6747802495188
 10
56.49922144854881
 20
-95.6747802495188
 10
56.49922144854881
 20
-95.8911322459925
 10
56.49922144854881
 20
-95.8911322459925
 10
56.37226967991735
 20
-95.8828640168279
 10
56.26013182187247
 20
-95.87287323992068
 10
56.14162053717988
 20
-95.79535859150255
 10
55.98090683279297
 20
-95.68924965055686
 10
55.94697264226326
 20
-95.50976017577534
 10
55.94697264226326
 20
-95.3974500629562
 10
55.94697264226326
 20
-95.1301106533008
 10
56.13111299594986
 20
-94.93029511515633
 10
56.40396455838165
 20
-94.93029511515633
 10
56.63237438905372
 20
-94.93029511515633
 10
56.73193764857744
 20
-95.04260522797546
 10
56.95828042195835
 20
-95.34026147790105
 97
        0
 97
        0
 75
     2
 76
     1
 98
        0
  0
ENDBLK
  5
F3
330
F0
100
AcDbEntity
  8
0
100
AcDbBlockEnd
  0
BLOCK
  5
100
330
FE
100
AcDbEntity
  8
0
100
AcDbBlockBegin
  2
block 7
 70
     0
 10
0.0
 20
0.0
 30
0.0
  3
block 7
  1

  0
SPLINE
  5
102
330
FE
100
AcDbEntity
  8
_U+30EC_U+30A4_U+30E4_U+30FC 1
370
     0
100
AcDbSpline
210
0.0
220
0.0
230
1.0
 70
    11
 71
     3
 72
    26
 73
    22
 74
     0
 42
0.0000000001
 43
0.0000000001
 12
1.0
 22
0.0
 32
0.0
 13
1.0
 23
0.0
 33
0.0
 40
0.0
 40
0.0
 40
0.0
 40
0.0
 40
1.0
 40
1.0
 40
1.0
 40
2.0
 40
2.0
 40
2.0
 40
3.0
 40
3.0
 40
3.0
 40
4.0
 40
4.0
 40
4.0
 40
5.0
 40
5.0
 40
5.0
 40
6.0
 40
6.0
 40
6.0
 40
7.0
 40
7.0
 40
7.0
 40
7.0
 10
77.54014212471219
 20
-88.64368487367241
 30
0.0
 10
77.54014212471219
 20
-88.64368487367241
 30
0.0
 10
76.4356445121411
 20
-88.64368487367241
 30
0.0
 10
76.4356445121411
 20
-88.64368487367241
 30
0.0
 10
76.4356445121411
 20
-88.64368487367241
 30
0.0
 10
76.4356445121411
 20
-88.9620116965095
 30
0.0
 10
76.4356445121411
 20
-88.9620116965095
 30
0.0
 10
76.4356445121411
 20
-88.9620116965095
 30
0.0
 10
76.28750540627534
 20
-88.9620116965095
 30
0.0
 10
76.28750540627534
 20
-88.9620116965095
 30
0.0
 10
76.2730360052373
 20
-88.64161781638127
 30
0.0
 10
76.10973847923646
 20
-88.59683157507301
 30
0.0
 10
75.99536130912617
 20
-88.56823728254544
 30
0.0
 10
75.99536130912617
 20
-88.56823728254544
 30
0.0
 10
75.99536130912617
 20
-88.42733287719872
 30
0.0
 10
75.99536130912617
 20
-88.42733287719872
 30
0.0
 10
75.99536130912617
 20
-88.42733287719872
 30
0.0
 10
77.54014212471219
 20
-88.42733287719872
 30
0.0
 10
77.54014212471219
 20
-88.42733287719872
 30
0.0
 10
77.54014212471219
 20
-88.42733287719872
 30
0.0
 10
77.54014212471219
 20
-88.64368487367241
 30
0.0
 10
77.54014212471219
 20
-88.64368487367241
 30
0.0
  0
HATCH
  5
103
330
FE
100
AcDbEntity
  8
_U+30EC_U+30A4_U+30E4_U+30FC 1
 62
   179
420
  2234388
100
AcDbHatch
 10
0.0
 20
0.0
 30
0.0
210
0.0
220
0.0
230
1.0
  2
SOLID
 70
     1
 71
     0
 91
        1
 92
        1
 93
        1
 72
     4
 94
        3
 73
     0
 74
     1
 95
       26
 96
       22
 40
0.0
 40
0.0
 40
0.0
 40
0.0
 40
1.0
 40
1.0
 40
1.0
 40
2.0
 40
2.0
 40
2.0
 40
3.0
 40
3.0
 40
3.0
 40
4.0
 40
4.0
 40
4.0
 40
5.0
 40
5.0
 40
5.0
 40
6.0
 40
6.0
 40
6.0
 40
7.0
 40
7.0
 40
7.0
 40
7.0
 10
77.54014212471219
 20
-88.64368487367241
 10
77.54014212471219
 20
-88.64368487367241
 10
76.4356445121411
 20
-88.64368487367241
 10
76.4356445121411
 20
-88.64368487367241
 10
76.4356445121411
 20
-88.64368487367241
 10
76.4356445121411
 20
-88.9620116965095
 10
76.4356445121411
 20
-88.9620116965095
 10
76.4356445121411
 20
-88.9620116965095
 10
76.28750540627534
 20
-88.9620116965095
 10
76.28750540627534
 20
-88.9620116965095
 10
76.2730360052373
 20
-88.64161781638127
 10
76.10973847923646
 20
-88.59683157507301
 10
75.99536130912617
 20
-88.56823728254544
 10
75.99536130912617
 20
-88.56823728254544
 10
75.99536130912617
 20
-88.42733287719872
 10
75.99536130912617
 20
-88.42733287719872
 10
75.99536130912617
 20
-88.42733287719872
 10
77.54014212471219
 20
-88.42733287719872
 10
77.54014212471219
 20
-88.42733287719872
 10
77.54014212471219
 20
-88.42733287719872
 10
77.54014212471219
 20
-88.64368487367241
 10
77.54014212471219
 20
-88.64368487367241
 97
        0
 97
        0
 75
     2
 76
     1
 98
        0
  0
SPLINE
  5
104
330
FE
100
AcDbEntity
  8
_U+30EC_U+30A4_U+30E4_U+30FC 1
370
     0
100
AcDbSpline
210
0.0
220
0.0
230
1.0
 70
    11
 71
     3
 72
    62
 73
    58
 74
     0
 42
0.0000000001
 43
0.0000000001
 12
1.0
 22
0.0
 32
0.0
 13
1.0
 23
0.0
 33
0.0
 40
0.0
 40
0.0
 40
0.0
 40
0.0
 40
1.0
 40
1.0
 40
1.0
 40
2.0
 40
2.0
 40
2.0
 40
3.0
 40
3.0
 40
3.0
 40
4.0
 40
4.0
 40
4.0
 40
5.0
 40
5.0
 40
5.0
 40
6.0
 40
6.0
 40
6.0
 40
7.0
 40
7.0
 40
7.0
 40
8.0
 40
8.0
 40
8.0
 40
9.0
 40
9.0
 40
9.0
 40
10.0
 40
10.0
 40
10.0
 40
11.0
 40
11.0
 40
11.0
 40
12.0
 40
12.0
 40
12.0
 40
13.0
 40
13.0
 40
13.0
 40
14.0
 40
14.0
 40
14.0
 40
15.0
 40
15.0
 40
15.0
 40
16.0
 40
16.0
 40
16.0
 40
17.0
 40
17.0
 40
17.0
 40
18.0
 40
18.0
 40
18.0
 40
19.0
 40
19.0
 40
19.0
 40
19.0
 10
77.59044051879684
 20
-87.47131888004189
 30
0.0
 10
77.59044051879684
 20
-87.56330292949806
 30
0.0
 10
77.56976994588534
 20
-87.77345375409831
 30
0.0
 10
77.38373478968185
 20
-87.89368758653353
 30
0.0
 10
77.27142467686271
 20
-87.9650010630782
 30
0.0
 10
77.17220592688751
 20
-87.9691351776605
 30
0.0
 10
77.08745657795036
 20
-87.9732692922428
 30
0.0
 10
77.08745657795036
 20
-87.9732692922428
 30
0.0
 10
77.08745657795036
 20
-87.76105141035141
 30
0.0
 10
77.08745657795036
 20
-87.76105141035141
 30
0.0
 10
77.1611816213347
 20
-87.75898435306026
 30
0.0
 10
77.39613713342875
 20
-87.74899357615304
 30
0.0
 10
77.39613713342875
 20
-87.47545299462419
 30
0.0
 10
77.39613713342875
 20
-87.34281681844207
 30
0.0
 10
77.3265462046267
 20
-87.19605575077044
 30
0.0
 10
77.0977918644061
 20
-87.19605575077044
 30
0.0
 10
76.98134763700466
 20
-87.19605575077044
 30
0.0
 10
76.93311630021117
 20
-87.23291827246261
 30
0.0
 10
76.90142142174687
 20
-87.2632351127328
 30
0.0
 10
76.82700735926548
 20
-87.334893098826
 30
0.0
 10
76.81460501551858
 20
-87.44685870209662
 30
0.0
 10
76.81460501551858
 20
-87.49991317256946
 30
0.0
 10
76.81460501551858
 20
-87.51851668818982
 30
0.0
 10
76.81667207280972
 20
-87.55296764304232
 30
0.0
 10
76.82080618739202
 20
-87.57949487827874
 30
0.0
 10
76.82080618739202
 20
-87.57949487827874
 30
0.0
 10
76.62581378292688
 20
-87.57949487827874
 30
0.0
 10
76.62581378292688
 20
-87.57949487827874
 30
0.0
 10
76.63270397389738
 20
-87.54297686613509
 30
0.0
 10
76.63477103118854
 20
-87.50198022986062
 30
0.0
 10
76.63477103118854
 20
-87.49577905798716
 30
0.0
 10
76.63477103118854
 20
-87.4327338106071
 30
0.0
 10
76.61341143917998
 20
-87.24084199207869
 30
0.0
 10
76.3763888697948
 20
-87.24084199207869
 30
0.0
 10
76.1986219427559
 20
-87.24084199207869
 30
0.0
 10
76.1435004149919
 20
-87.36727699638735
 30
0.0
 10
76.1435004149919
 20
-87.47338593733305
 30
0.0
 10
76.1435004149919
 20
-87.72866751279005
 30
0.0
 10
76.3763888697948
 20
-87.73659123240613
 30
0.0
 10
76.448046855888
 20
-87.74072534698843
 30
0.0
 10
76.448046855888
 20
-87.74072534698843
 30
0.0
 10
76.448046855888
 20
-87.93675128009914
 30
0.0
 10
76.448046855888
 20
-87.93675128009914
 30
0.0
 10
76.32333439932195
 20
-87.92848305093455
 30
0.0
 10
75.94712997233266
 20
-87.90195581569813
 30
0.0
 10
75.94712997233266
 20
-87.46132810313468
 30
0.0
 10
75.94712997233266
 20
-87.24497610666099
 30
0.0
 10
76.07390948618986
 20
-87.01243216140662
 30
0.0
 10
76.37018769792135
 20
-87.01243216140662
 30
0.0
 10
76.55622285412484
 20
-87.01243216140662
 30
0.0
 10
76.63890514577083
 20
-87.10407170131427
 30
0.0
 10
76.70022784540828
 20
-87.20018986535274
 30
0.0
 10
76.72778860929027
 20
-87.14093422300644
 30
0.0
 10
76.80771482454807
 20
-86.96557886280722
 30
0.0
 10
77.0853895206592
 20
-86.96557886280722
 30
0.0
 10
77.42369789731075
 20
-86.96557886280722
 30
0.0
 10
77.59044051879684
 20
-87.20432397993504
 30
0.0
 10
77.59044051879684
 20
-87.47131888004189
 30
0.0
  0
HATCH
  5
105
330
FE
100
AcDbEntity
  8
_U+30EC_U+30A4_U+30E4_U+30FC 1
 62
   179
420
  2234388
100
AcDbHatch
 10
0.0
 20
0.0
 30
0.0
210
0.0
220
0.0
230
1.0
  2
SOLID
 70
     1
 71
     0
 91
        1
 92
        1
 93
        1
 72
     4
 94
        3
 73
     0
 74
     1
 95
       62
 96
       58
 40
0.0
 40
0.0
 40
0.0
 40
0.0
 40
1.0
 40
1.0
 40
1.0
 40
2.0
 40
2.0
 40
2.0
 40
3.0
 40
3.0
 40
3.0
 40
4.0
 40
4.0
 40
4.0
 40
5.0
 40
5.0
 40
5.0
 40
6.0
 40
6.0
 40
6.0
 40
7.0
 40
7.0
 40
7.0
 40
8.0
 40
8.0
 40
8.0
 40
9.0
 40
9.0
 40
9.0
 40
10.0
 40
10.0
 40
10.0
 40
11.0
 40
11.0
 40
11.0
 40
12.0
 40
12.0
 40
12.0
 40
13.0
 40
13.0
 40
13.0
 40
14.0
 40
14.0
 40
14.0
 40
15.0
 40
15.0
 40
15.0
 40
16.0
 40
16.0
 40
16.0
 40
17.0
 40
17.0
 40
17.0
 40
18.0
 40
18.0
 40
18.0
 40
19.0
 40
19.0
 40
19.0
 40
19.0
 10
77.59044051879684
 20
-87.47131888004189
 10
77.59044051879684
 20
-87.56330292949806
 10
77.56976994588534
 20
-87.77345375409831
 10
77.38373478968185
 20
-87.89368758653353
 10
77.27142467686271
 20
-87.9650010630782
 10
77.17220592688751
 20
-87.9691351776605
 10
77.08745657795036
 20
-87.9732692922428
 10
77.08745657795036
 20
-87.9732692922428
 10
77.08745657795036
 20
-87.76105141035141
 10
77.08745657795036
 20
-87.76105141035141
 10
77.1611816213347
 20
-87.75898435306026
 10
77.39613713342875
 20
-87.74899357615304
 10
77.39613713342875
 20
-87.47545299462419
 10
77.39613713342875
 20
-87.34281681844207
 10
77.3265462046267
 20
-87.19605575077044
 10
77.0977918644061
 20
-87.19605575077044
 10
76.98134763700466
 20
-87.19605575077044
 10
76.93311630021117
 20
-87.23291827246261
 10
76.90142142174687
 20
-87.2632351127328
 10
76.82700735926548
 20
-87.334893098826
 10
76.81460501551858
 20
-87.44685870209662
 10
76.81460501551858
 20
-87.49991317256946
 10
76.81460501551858
 20
-87.51851668818982
 10
76.81667207280972
 20
-87.55296764304232
 10
76.82080618739202
 20
-87.57949487827874
 10
76.82080618739202
 20
-87.57949487827874
 10
76.62581378292688
 20
-87.57949487827874
 10
76.62581378292688
 20
-87.57949487827874
 10
76.63270397389738
 20
-87.54297686613509
 10
76.63477103118854
 20
-87.50198022986062
 10
76.63477103118854
 20
-87.49577905798716
 10
76.63477103118854
 20
-87.4327338106071
 10
76.61341143917998
 20
-87.24084199207869
 10
76.3763888697948
 20
-87.24084199207869
 10
76.1986219427559
 20
-87.24084199207869
 10
76.1435004149919
 20
-87.36727699638735
 10
76.1435004149919
 20
-87.47338593733305
 10
76.1435004149919
 20
-87.72866751279005
 10
76.3763888697948
 20
-87.73659123240613
 10
76.448046855888
 20
-87.74072534698843
 10
76.448046855888
 20
-87.74072534698843
 10
76.448046855888
 20
-87.93675128009914
 10
76.448046855888
 20
-87.93675128009914
 10
76.32333439932195
 20
-87.92848305093455
 10
75.94712997233266
 20
-87.90195581569813
 10
75.94712997233266
 20
-87.46132810313468
 10
75.94712997233266
 20
-87.24497610666099
 10
76.07390948618986
 20
-87.01243216140662
 10
76.37018769792135
 20
-87.01243216140662
 10
76.55622285412484
 20
-87.01243216140662
 10
76.63890514577083
 20
-87.10407170131427
 10
76.70022784540828
 20
-87.20018986535274
 10
76.72778860929027
 20
-87.14093422300644
 10
76.80771482454807
 20
-86.96557886280722
 10
77.0853895206592
 20
-86.96557886280722
 10
77.42369789731075
 20
-86.96557886280722
 10
77.59044051879684
 20
-87.20432397993504
 10
77.59044051879684
 20
-87.47131888004189
 97
        0
 97
        0
 75
     2
 76
     1
 98
        0
  0
ENDBLK
  5
101
330
FE
100
AcDbEntity
  8
0
100
AcDbBlockEnd
  0
ENDSEC
  0
SECTION
  2
ENTITIES
  0
POLYLINE
  5
41
330
1F
100
AcDbEntity
  8
_U+30EC_U+30A4_U+30E4_U+30FC 1
 62
   179
420
  2234388
370
    25
100
AcDb2dPolyline
 66
     1
 10
0.0
 20
0.0
 30
0.0
  0
VERTEX
  5
42
330
41
100
AcDbEntity
  8
_U+30EC_U+30A4_U+30E4_U+30FC 1
 62
   179
420
  2234388
370
    25
100
AcDbVertex
100
AcDb2dVertex
 10
49.13672207975112
 20
-80.41093192434164
 30
0.0
  0
VERTEX
  5
43
330
41
100
AcDbEntity
  8
_U+30EC_U+30A4_U+30E4_U+30FC 1
 62
   179
420
  2234388
370
    25
100
AcDbVertex
100
AcDb2dVertex
 10
74.13638921973426
 20
-80.41093192434164
 30
0.0
  0
SEQEND
  5
44
330
41
100
AcDbEntity
  8
_U+30EC_U+30A4_U+30E4_U+30FC 1
 62
   179
420
  2234388
370
    25
  0
POLYLINE
  5
45
330
1F
100
AcDbEntity
  8
_U+30EC_U+30A4_U+30E4_U+30FC 1
 62
   179
420
  2234388
370
    25
100
AcDb2dPolyline
 66
     1
 10
0.0
 20
0.0
 30
0.0
  0
VERTEX
  5
46
330
45
100
AcDbEntity
  8
_U+30EC_U+30A4_U+30E4_U+30FC 1
 62
   179
420
  2234388
370
    25
100
AcDbVertex
100
AcDb2dVertex
 10
74.13638921973426
 20
-80.41093192434164
 30
0.0
  0
VERTEX
  5
47
330
45
100
AcDbEntity
  8
_U+30EC_U+30A4_U+30E4_U+30FC 1
 62
   179
420
  2234388
370
    25
100
AcDbVertex
100
AcDb2dVertex
 10
74.13638921973426
 20
-81.41105692409162
 30
0.0
  0
SEQEND
  5
48
330
45
100
AcDbEntity
  8
_U+30EC_U+30A4_U+30E4_U+30FC 1
 62
   179
420
  2234388
370
    25
  0
POLYLINE
  5
49
330
1F
100
AcDbEntity
  8
_U+30EC_U+30A4_U+30E4_U+30FC 1
 62
   179
420
  2234388
370
    25
100
AcDb2dPolyline
 66
     1
 10
0.0
 20
0.0
 30
0.0
  0
VERTEX
  5
4A
330
49
100
AcDbEntity
  8
_U+30EC_U+30A4_U+30E4_U+30FC 1
 62
   179
420
  2234388
370
    25
100
AcDbVertex
100
AcDb2dVertex
 10
49.13672207975112
 20
-80.41093192434164
 30
0.0
  0
VERTEX
  5
4B
330
49
100
AcDbEntity
  8
_U+30EC_U+30A4_U+30E4_U+30FC 1
 62
   179
420
  2234388
370
    25
100
AcDbVertex
100
AcDb2dVertex
 10
49.13672207975112
 20
-94.41112969861962
 30
0.0
  0
SEQEND
  5
4C
330
49
100
AcDbEntity
  8
_U+30EC_U+30A4_U+30E4_U+30FC 1
 62
   179
420
  2234388
370
    25
  0
POLYLINE
  5
4D
330
1F
100
AcDbEntity
  8
_U+30EC_U+30A4_U+30E4_U+30FC 1
 62
   179
420
  2234388
370
    25
100
AcDb2dPolyline
 66
     1
 10
0.0
 20
0.0
 30
0.0
  0
VERTEX
  5
4E
330
4D
100
AcDbEntity
  8
_U+30EC_U+30A4_U+30E4_U+30FC 1
 62
   179
420
  2234388
370
    25
100
AcDbVertex
100
AcDb2dVertex
 10
50.13645899869014
 20
-81.41105692409162
 30
0.0
  0
VERTEX
  5
4F
330
4D
100
AcDbEntity
  8
_U+30EC_U+30A4_U+30E4_U+30FC 1
 62
   179
420
  2234388
370
    25
100
AcDbVertex
100
AcDb2dVertex
 10
74.13638921973426
 20
-81.41105692409162
 30
0.0
  0
SEQEND
  5
50
330
4D
100
AcDbEntity
  8
_U+30EC_U+30A4_U+30E4_U+30FC 1
 62
   179
420
  2234388
370
    25
  0
POLYLINE
  5
51
330
1F
100
AcDbEntity
  8
_U+30EC_U+30A4_U+30E4_U+30FC 1
 62
   179
420
  2234388
370
    25
100
AcDb2dPolyline
 66
     1
 10
0.0
 20
0.0
 30
0.0
  0
VERTEX
  5
52
330
51
100
AcDbEntity
  8
_U+30EC_U+30A4_U+30E4_U+30FC 1
 62
   179
420
  2234388
370
    25
100
AcDbVertex
100
AcDb2dVertex
 10
50.13645899869014
 20
-81.41105692409162
 30
0.0
  0
VERTEX
  5
53
330
51
100
AcDbEntity
  8
_U+30EC_U+30A4_U+30E4_U+30FC 1
 62
   179
420
  2234388
370
    25
100
AcDbVertex
100
AcDb2dVertex
 10
50.13645899869014
 20
-93.6611241432515
 30
0.0
  0
SEQEND
  5
54
330
51
100
AcDbEntity
  8
_U+30EC_U+30A4_U+30E4_U+30FC 1
 62
   179
420
  2234388
370
    25
  0
POLYLINE
  5
55
330
1F
100
AcDbEntity
  8
_U+30EC_U+30A4_U+30E4_U+30FC 1
 62
   179
420
  2234388
370
    25
100
AcDb2dPolyline
 66
     1
 10
0.0
 20
0.0
 30
0.0
  0
VERTEX
  5
56
330
55
100
AcDbEntity
  8
_U+30EC_U+30A4_U+30E4_U+30FC 1
 62
   179
420
  2234388
370
    25
100
AcDbVertex
100
AcDb2dVertex
 10
53.13644720893797
 20
-94.41112969861962
 30
0.0
  0
VERTEX
  5
57
330
55
100
AcDbEntity
  8
_U+30EC_U+30A4_U+30E4_U+30FC 1
 62
   179
420
  2234388
370
    25
100
AcDbVertex
100
AcDb2dVertex
 10
54.13621943091051
 20
-94.41112969861962
 30
0.0
  0
SEQEND
  5
58
330
55
100
AcDbEntity
  8
_U+30EC_U+30A4_U+30E4_U+30FC 1
 62
   179
420
  2234388
370
    25
  0
POLYLINE
  5
59
330
1F
100
AcDbEntity
  8
_U+30EC_U+30A4_U+30E4_U+30FC 1
 62
   179
420
  2234388
370
    25
100
AcDb2dPolyline
 66
     1
 10
0.0
 20
0.0
 30
0.0
  0
VERTEX
  5
5A
330
59
100
AcDbEntity
  8
_U+30EC_U+30A4_U+30E4_U+30FC 1
 62
   179
420
  2234388
370
    25
100
AcDbVertex
100
AcDb2dVertex
 10
50.13645899869014
 20
-96.41099164256366
 30
0.0
  0
VERTEX
  5
5B
330
59
100
AcDbEntity
  8
_U+30EC_U+30A4_U+30E4_U+30FC 1
 62
   179
420
  2234388
370
    25
100
AcDbVertex
100
AcDb2dVertex
 10
54.13621943091051
 20
-96.41099164256366
 30
0.0
  0
SEQEND
  5
5C
330
59
100
AcDbEntity
  8
_U+30EC_U+30A4_U+30E4_U+30FC 1
 62
   179
420
  2234388
370
    25
  0
POLYLINE
  5
5D
330
1F
100
AcDbEntity
  8
_U+30EC_U+30A4_U+30E4_U+30FC 1
 62
   179
420
  2234388
370
    25
100
AcDb2dPolyline
 66
     1
 10
0.0
 20
0.0
 30
0.0
  0
VERTEX
  5
5E
330
5D
100
AcDbEntity
  8
_U+30EC_U+30A4_U+30E4_U+30FC 1
 62
   179
420
  2234388
370
    25
100
AcDbVertex
100
AcDb2dVertex
 10
50.13645899869014
 20
-95.41121942059176
 30
0.0
  0
VERTEX
  5
5F
330
5D
100
AcDbEntity
  8
_U+30EC_U+30A4_U+30E4_U+30FC 1
 62
   179
420
  2234388
370
    25
100
AcDbVertex
100
AcDb2dVertex
 10
50.13645899869014
 20
-96.41099164256366
 30
0.0
  0
SEQEND
  5
60
330
5D
100
AcDbEntity
  8
_U+30EC_U+30A4_U+30E4_U+30FC 1
 62
   179
420
  2234388
370
    25
  0
POLYLINE
  5
61
330
1F
100
AcDbEntity
  8
_U+30EC_U+30A4_U+30E4_U+30FC 1
 62
   179
420
  2234388
370
    25
100
AcDb2dPolyline
 66
     1
 10
0.0
 20
0.0
 30
0.0
  0
VERTEX
  5
62
330
61
100
AcDbEntity
  8
_U+30EC_U+30A4_U+30E4_U+30FC 1
 62
   179
420
  2234388
370
    25
100
AcDbVertex
100
AcDb2dVertex
 10
54.13621943091051
 20
-94.41112969861962
 30
0.0
  0
VERTEX
  5
63
330
61
100
AcDbEntity
  8
_U+30EC_U+30A4_U+30E4_U+30FC 1
 62
   179
420
  2234388
370
    25
100
AcDbVertex
100
AcDb2dVertex
 10
54.13621943091051
 20
-96.41099164256366
 30
0.0
  0
SEQEND
  5
64
330
61
100
AcDbEntity
  8
_U+30EC_U+30A4_U+30E4_U+30FC 1
 62
   179
420
  2234388
370
    25
  0
POLYLINE
  5
65
330
1F
100
AcDbEntity
  8
_U+30EC_U+30A4_U+30E4_U+30FC 1
 62
   179
420
  2234388
370
    25
100
AcDb2dPolyline
 66
     1
 10
0.0
 20
0.0
 30
0.0
  0
VERTEX
  5
66
330
65
100
AcDbEntity
  8
_U+30EC_U+30A4_U+30E4_U+30FC 1
 62
   179
420
  2234388
370
    25
100
AcDbVertex
100
AcDb2dVertex
 10
53.13644720893797
 20
-94.41112969861962
 30
0.0
  0
VERTEX
  5
67
330
65
100
AcDbEntity
  8
_U+30EC_U+30A4_U+30E4_U+30FC 1
 62
   179
420
  2234388
370
    25
100
AcDbVertex
100
AcDb2dVertex
 10
53.13644720893797
 20
-95.41121942059176
 30
0.0
  0
SEQEND
  5
68
330
65
100
AcDbEntity
  8
_U+30EC_U+30A4_U+30E4_U+30FC 1
 62
   179
420
  2234388
370
    25
  0
POLYLINE
  5
69
330
1F
100
AcDbEntity
  8
_U+30EC_U+30A4_U+30E4_U+30FC 1
 62
   179
420
  2234388
370
    25
100
AcDb2dPolyline
 66
     1
 10
0.0
 20
0.0
 30
0.0
  0
VERTEX
  5
6A
330
69
100
AcDbEntity
  8
_U+30EC_U+30A4_U+30E4_U+30FC 1
 62
   179
420
  2234388
370
    25
100
AcDbVertex
100
AcDb2dVertex
 10
51.13623119540605
 20
-95.41121942059176
 30
0.0
  0
VERTEX
  5
6B
330
69
100
AcDbEntity
  8
_U+30EC_U+30A4_U+30E4_U+30FC 1
 62
   179
420
  2234388
370
    25
100
AcDbVertex
100
AcDb2dVertex
 10
53.13644720893797
 20
-95.41121942059176
 30
0.0
  0
SEQEND
  5
6C
330
69
100
AcDbEntity
  8
_U+30EC_U+30A4_U+30E4_U+30FC 1
 62
   179
420
  2234388
370
    25
  0
POLYLINE
  5
6D
330
1F
100
AcDbEntity
  8
_U+30EC_U+30A4_U+30E4_U+30FC 1
 62
   179
420
  2234388
370
    25
100
AcDb2dPolyline
 66
     1
 10
0.0
 20
0.0
 30
0.0
  0
VERTEX
  5
6E
330
6D
100
AcDbEntity
  8
_U+30EC_U+30A4_U+30E4_U+30FC 1
 62
   179
420
  2234388
370
    25
100
AcDbVertex
100
AcDb2dVertex
 10
49.13672207975112
 20
-94.41112969861962
 30
0.0
  0
VERTEX
  5
6F
330
6D
100
AcDbEntity
  8
_U+30EC_U+30A4_U+30E4_U+30FC 1
 62
   179
420
  2234388
370
    25
100
AcDbVertex
100
AcDb2dVertex
 10
50.13645899869014
 20
-95.41121942059176
 30
0.0
  0
SEQEND
  5
70
330
6D
100
AcDbEntity
  8
_U+30EC_U+30A4_U+30E4_U+30FC 1
 62
   179
420
  2234388
370
    25
  0
POLYLINE
  5
71
330
1F
100
AcDbEntity
  8
_U+30EC_U+30A4_U+30E4_U+30FC 1
 62
   179
420
  2234388
370
    25
100
AcDb2dPolyline
 66
     1
 10
0.0
 20
0.0
 30
0.0
  0
VERTEX
  5
72
330
71
100
AcDbEntity
  8
_U+30EC_U+30A4_U+30E4_U+30FC 1
 62
   179
420
  2234388
370
    25
100
AcDbVertex
100
AcDb2dVertex
 10
51.13623119540605
 20
-94.66124914300116
 30
0.0
  0
VERTEX
  5
73
330
71
100
AcDbEntity
  8
_U+30EC_U+30A4_U+30E4_U+30FC 1
 62
   179
420
  2234388
370
    25
100
AcDbVertex
100
AcDb2dVertex
 10
51.13623119540605
 20
-95.41121942059176
 30
0.0
  0
SEQEND
  5
74
330
71
100
AcDbEntity
  8
_U+30EC_U+30A4_U+30E4_U+30FC 1
 62
   179
420
  2234388
370
    25
  0
POLYLINE
  5
75
330
1F
100
AcDbEntity
  8
_U+30EC_U+30A4_U+30E4_U+30FC 1
 62
   179
420
  2234388
370
    25
100
AcDb2dPolyline
 66
     1
 10
0.0
 20
0.0
 30
0.0
  0
VERTEX
  5
76
330
75
100
AcDbEntity
  8
_U+30EC_U+30A4_U+30E4_U+30FC 1
 62
   179
420
  2234388
370
    25
100
AcDbVertex
100
AcDb2dVertex
 10
50.13645899869014
 20
-93.6611241432515
 30
0.0
  0
VERTEX
  5
77
330
75
100
AcDbEntity
  8
_U+30EC_U+30A4_U+30E4_U+30FC 1
 62
   179
420
  2234388
370
    25
100
AcDbVertex
100
AcDb2dVertex
 10
51.13623119540605
 20
-94.66124914300116
 30
0.0
  0
SEQEND
  5
78
330
75
100
AcDbEntity
  8
_U+30EC_U+30A4_U+30E4_U+30FC 1
 62
   179
420
  2234388
370
    25
  0
SPLINE
  5
79
330
1F
100
AcDbEntity
  8
_U+30EC_U+30A4_U+30E4_U+30FC 1
 62
   179
420
  2234388
370
     9
100
AcDbSpline
210
0.0
220
0.0
230
1.0
 70
    11
 71
     3
 72
    17
 73
    13
 74
     0
 42
0.0000000001
 43
0.0000000001
 12
1.0
 22
0.0
 32
0.0
 13
1.0
 23
0.0
 33
0.0
 40
0.0
 40
0.0
 40
0.0
 40
0.0
 40
1.0
 40
1.0
 40
1.0
 40
2.0
 40
2.0
 40
2.0
 40
3.0
 40
3.0
 40
3.0
 40
4.0
 40
4.0
 40
4.0
 40
4.0
 10
78.23672522623707
 20
-80.41093192434164
 30
0.0
 10
78.23672522623707
 20
-80.35582803546673
 30
0.0
 10
78.19195772737919
 20
-80.31102525770001
 30
0.0
 10
78.13614828435855
 20
-80.31102525770001
 30
0.0
 10
78.08101109159098
 20
-80.31102525770001
 30
0.0
 10
78.03624162024073
 20
-80.35582803546673
 30
0.0
 10
78.03624162024073
 20
-80.41093192434164
 30
0.0
 10
78.03624162024073
 20
-80.46607109099472
 30
0.0
 10
78.08101109159098
 20
-80.51083859098328
 30
0.0
 10
78.13614828435855
 20
-80.51083859098328
 30
0.0
 10
78.19195772737919
 20
-80.51083859098328
 30
0.0
 10
78.23672522623707
 20
-80.46607109099472
 30
0.0
 10
78.23672522623707
 20
-80.41093192434164
 30
0.0
  0
SPLINE
  5
7A
330
1F
100
AcDbEntity
  8
_U+30EC_U+30A4_U+30E4_U+30FC 1
 62
   179
420
  2234388
370
     9
100
AcDbSpline
210
0.0
220
0.0
230
1.0
 70
    11
 71
     3
 72
    17
 73
    13
 74
     0
 42
0.0000000001
 43
0.0000000001
 12
1.0
 22
0.0
 32
0.0
 13
1.0
 23
0.0
 33
0.0
 40
0.0
 40
0.0
 40
0.0
 40
0.0
 40
1.0
 40
1.0
 40
1.0
 40
2.0
 40
2.0
 40
2.0
 40
3.0
 40
3.0
 40
3.0
 40
4.0
 40
4.0
 40
4.0
 40
4.0
 10
78.23672522623707
 20
-81.41105692409162
 30
0.0
 10
78.23672522623707
 20
-81.35591775743887
 30
0.0
 10
78.19195772737919
 20
-81.31115025744998
 30
0.0
 10
78.13614828435855
 20
-81.31115025744998
 30
0.0
 10
78.08101109159098
 20
-81.31115025744998
 30
0.0
 10
78.03624162024073
 20
-81.35591775743887
 30
0.0
 10
78.03624162024073
 20
-81.41105692409162
 30
0.0
 10
78.03624162024073
 20
-81.46651359074463
 30
0.0
 10
78.08101109159098
 20
-81.51131636851102
 30
0.0
 10
78.13614828435855
 20
-81.51131636851102
 30
0.0
 10
78.19195772737919
 20
-81.51131636851102
 30
0.0
 10
78.23672522623707
 20
-81.46651359074463
 30
0.0
 10
78.23672522623707
 20
-81.41105692409162
 30
0.0
  0
SPLINE
  5
7B
330
1F
100
AcDbEntity
  8
_U+30EC_U+30A4_U+30E4_U+30FC 1
 62
   179
420
  2234388
370
     9
100
AcDbSpline
210
0.0
220
0.0
230
1.0
 70
    11
 71
     3
 72
    17
 73
    13
 74
     0
 42
0.0000000001
 43
0.0000000001
 12
1.0
 22
0.0
 32
0.0
 13
1.0
 23
0.0
 33
0.0
 40
0.0
 40
0.0
 40
0.0
 40
0.0
 40
1.0
 40
1.0
 40
1.0
 40
2.0
 40
2.0
 40
2.0
 40
3.0
 40
3.0
 40
3.0
 40
4.0
 40
4.0
 40
4.0
 40
4.0
 10
74.23629588385208
 20
-76.41117275867508
 30
0.0
 10
74.23629588385208
 20
-76.35606886979984
 30
0.0
 10
74.19149310721733
 20
-76.31126609203345
 30
0.0
 10
74.13638921973426
 20
-76.31126609203345
 30
0.0
 10
74.0812500544743
 20
-76.31126609203345
 30
0.0
 10
74.03648255561642
 20
-76.35606886979984
 30
0.0
 10
74.03648255561642
 20
-76.41117275867508
 30
0.0
 10
74.03648255561642
 20
-76.46631192532784
 30
0.0
 10
74.0812500544743
 20
-76.51107942531672
 30
0.0
 10
74.13638921973426
 20
-76.51107942531672
 30
0.0
 10
74.19149310721733
 20
-76.51107942531672
 30
0.0
 10
74.23629588385208
 20
-76.46631192532784
 30
0.0
 10
74.23629588385208
 20
-76.41117275867508
 30
0.0
  0
SPLINE
  5
7C
330
1F
100
AcDbEntity
  8
_U+30EC_U+30A4_U+30E4_U+30FC 1
 62
   179
420
  2234388
370
     9
100
AcDbSpline
210
0.0
220
0.0
230
1.0
 70
    11
 71
     3
 72
    17
 73
    13
 74
     0
 42
0.0000000001
 43
0.0000000001
 12
1.0
 22
0.0
 32
0.0
 13
1.0
 23
0.0
 33
0.0
 40
0.0
 40
0.0
 40
0.0
 40
0.0
 40
1.0
 40
1.0
 40
1.0
 40
2.0
 40
2.0
 40
2.0
 40
3.0
 40
3.0
 40
3.0
 40
4.0
 40
4.0
 40
4.0
 40
4.0
 10
78.23672522623707
 20
-94.41112969861962
 30
0.0
 10
78.23672522623707
 20
-94.35599053196654
 30
0.0
 10
78.19195772737919
 20
-94.31122303197799
 30
0.0
 10
78.13614828435855
 20
-94.31122303197799
 30
0.0
 10
78.08101109159098
 20
-94.31122303197799
 30
0.0
 10
78.03624162024073
 20
-94.35599053196654
 30
0.0
 10
78.03624162024073
 20
-94.41112969861962
 30
0.0
 10
78.03624162024073
 20
-94.46623358749454
 30
0.0
 10
78.08101109159098
 20
-94.51103636526126
 30
0.0
 10
78.13614828435855
 20
-94.51103636526126
 30
0.0
 10
78.19195772737919
 20
-94.51103636526126
 30
0.0
 10
78.23672522623707
 20
-94.46623358749454
 30
0.0
 10
78.23672522623707
 20
-94.41112969861962
 30
0.0
  0
SPLINE
  5
7D
330
1F
100
AcDbEntity
  8
_U+30EC_U+30A4_U+30E4_U+30FC 1
 62
   179
420
  2234388
370
     9
100
AcDbSpline
210
0.0
220
0.0
230
1.0
 70
    11
 71
     3
 72
    17
 73
    13
 74
     0
 42
0.0000000001
 43
0.0000000001
 12
1.0
 22
0.0
 32
0.0
 13
1.0
 23
0.0
 33
0.0
 40
0.0
 40
0.0
 40
0.0
 40
0.0
 40
1.0
 40
1.0
 40
1.0
 40
2.0
 40
2.0
 40
2.0
 40
3.0
 40
3.0
 40
3.0
 40
4.0
 40
4.0
 40
4.0
 40
4.0
 10
49.23662874386895
 20
-76.41117275867508
 30
0.0
 10
49.23662874386895
 20
-76.35606886979984
 30
0.0
 10
49.19182596723419
 20
-76.31126609203345
 30
0.0
 10
49.13672207975112
 20
-76.31126609203345
 30
0.0
 10
49.08158291449116
 20
-76.31126609203345
 30
0.0
 10
49.03681665440761
 20
-76.35606886979984
 30
0.0
 10
49.03681665440761
 20
-76.41117275867508
 30
0.0
 10
49.03681665440761
 20
-76.46631192532784
 30
0.0
 10
49.08158291449116
 20
-76.51107942531672
 30
0.0
 10
49.13672207975112
 20
-76.51107942531672
 30
0.0
 10
49.19182596723419
 20
-76.51107942531672
 30
0.0
 10
49.23662874386895
 20
-76.46631192532784
 30
0.0
 10
49.23662874386895
 20
-76.41117275867508
 30
0.0
  0
SPLINE
  5
7E
330
1F
100
AcDbEntity
  8
_U+30EC_U+30A4_U+30E4_U+30FC 1
 62
   179
420
  2234388
370
     9
100
AcDbSpline
210
0.0
220
0.0
230
1.0
 70
    11
 71
     3
 72
    17
 73
    13
 74
     0
 42
0.0000000001
 43
0.0000000001
 12
1.0
 22
0.0
 32
0.0
 13
1.0
 23
0.0
 33
0.0
 40
0.0
 40
0.0
 40
0.0
 40
0.0
 40
1.0
 40
1.0
 40
1.0
 40
2.0
 40
2.0
 40
2.0
 40
3.0
 40
3.0
 40
3.0
 40
4.0
 40
4.0
 40
4.0
 40
4.0
 10
50.23636566280798
 20
-100.4111035860083
 30
0.0
 10
50.23636566280798
 20
-100.3559644193552
 30
0.0
 10
50.1915981639501
 20
-100.3111969193667
 30
0.0
 10
50.13645899869014
 20
-100.3111969193667
 30
0.0
 10
50.08135511120707
 20
-100.3111969193667
 30
0.0
 10
50.03655233457231
 20
-100.3559644193552
 30
0.0
 10
50.03655233457231
 20
-100.4111035860083
 30
0.0
 10
50.03655233457231
 20
-100.4662074748832
 30
0.0
 10
50.08135511120707
 20
-100.5110102526499
 30
0.0
 10
50.13645899869014
 20
-100.5110102526499
 30
0.0
 10
50.1915981639501
 20
-100.5110102526499
 30
0.0
 10
50.23636566280798
 20
-100.4662074748832
 30
0.0
 10
50.23636566280798
 20
-100.4111035860083
 30
0.0
  0
SPLINE
  5
7F
330
1F
100
AcDbEntity
  8
_U+30EC_U+30A4_U+30E4_U+30FC 1
 62
   179
420
  2234388
370
     9
100
AcDbSpline
210
0.0
220
0.0
230
1.0
 70
    11
 71
     3
 72
    17
 73
    13
 74
     0
 42
0.0000000001
 43
0.0000000001
 12
1.0
 22
0.0
 32
0.0
 13
1.0
 23
0.0
 33
0.0
 40
0.0
 40
0.0
 40
0.0
 40
0.0
 40
1.0
 40
1.0
 40
1.0
 40
2.0
 40
2.0
 40
2.0
 40
3.0
 40
3.0
 40
3.0
 40
4.0
 40
4.0
 40
4.0
 40
4.0
 10
54.23683028296985
 20
-100.4111035860083
 30
0.0
 10
54.23683028296985
 20
-100.3559644193552
 30
0.0
 10
54.19202750633509
 20
-100.3111969193667
 30
0.0
 10
54.13621943091051
 20
-100.3111969193667
 30
0.0
 10
54.08111417583139
 20
-100.3111969193667
 30
0.0
 10
54.03631139919662
 20
-100.3559644193552
 30
0.0
 10
54.03631139919662
 20
-100.4111035860083
 30
0.0
 10
54.03631139919662
 20
-100.4662074748832
 30
0.0
 10
54.08111417583139
 20
-100.5110102526499
 30
0.0
 10
54.13621943091051
 20
-100.5110102526499
 30
0.0
 10
54.19202750633509
 20
-100.5110102526499
 30
0.0
 10
54.23683028296985
 20
-100.4662074748832
 30
0.0
 10
54.23683028296985
 20
-100.4111035860083
 30
0.0
  0
SPLINE
  5
80
330
1F
100
AcDbEntity
  8
_U+30EC_U+30A4_U+30E4_U+30FC 1
 62
   179
420
  2234388
370
     9
100
AcDbSpline
210
0.0
220
0.0
230
1.0
 70
    11
 71
     3
 72
    17
 73
    13
 74
     0
 42
0.0000000001
 43
0.0000000001
 12
1.0
 22
0.0
 32
0.0
 13
1.0
 23
0.0
 33
0.0
 40
0.0
 40
0.0
 40
0.0
 40
0.0
 40
1.0
 40
1.0
 40
1.0
 40
2.0
 40
2.0
 40
2.0
 40
3.0
 40
3.0
 40
3.0
 40
4.0
 40
4.0
 40
4.0
 40
4.0
 10
49.23662874386895
 20
-100.4111035860083
 30
0.0
 10
49.23662874386895
 20
-100.3559644193552
 30
0.0
 10
49.19182596723419
 20
-100.3111969193667
 30
0.0
 10
49.13672207975112
 20
-100.3111969193667
 30
0.0
 10
49.08158291449116
 20
-100.3111969193667
 30
0.0
 10
49.03681665440761
 20
-100.3559644193552
 30
0.0
 10
49.03681665440761
 20
-100.4111035860083
 30
0.0
 10
49.03681665440761
 20
-100.4662074748832
 30
0.0
 10
49.08158291449116
 20
-100.5110102526499
 30
0.0
 10
49.13672207975112
 20
-100.5110102526499
 30
0.0
 10
49.19182596723419
 20
-100.5110102526499
 30
0.0
 10
49.23662874386895
 20
-100.4662074748832
 30
0.0
 10
49.23662874386895
 20
-100.4111035860083
 30
0.0
  0
SPLINE
  5
81
330
1F
100
AcDbEntity
  8
_U+30EC_U+30A4_U+30E4_U+30FC 1
 62
   179
420
  2234388
370
     9
100
AcDbSpline
210
0.0
220
0.0
230
1.0
 70
    11
 71
     3
 72
    17
 73
    13
 74
     0
 42
0.0000000001
 43
0.0000000001
 12
1.0
 22
0.0
 32
0.0
 13
1.0
 23
0.0
 33
0.0
 40
0.0
 40
0.0
 40
0.0
 40
0.0
 40
1.0
 40
1.0
 40
1.0
 40
2.0
 40
2.0
 40
2.0
 40
3.0
 40
3.0
 40
3.0
 40
4.0
 40
4.0
 40
4.0
 40
4.0
 10
58.23658934759416
 20
-94.41112969861962
 30
0.0
 10
58.23658934759416
 20
-94.35599053196654
 30
0.0
 10
58.19178657095939
 20
-94.31122303197799
 30
0.0
 10
58.13668268347632
 20
-94.31122303197799
 30
0.0
 10
58.08154351821638
 20
-94.31122303197799
 30
0.0
 10
58.03677601935849
 20
-94.35599053196654
 30
0.0
 10
58.03677601935849
 20
-94.41112969861962
 30
0.0
 10
58.03677601935849
 20
-94.46623358749454
 30
0.0
 10
58.08154351821638
 20
-94.51103636526126
 30
0.0
 10
58.13668268347632
 20
-94.51103636526126
 30
0.0
 10
58.19178657095939
 20
-94.51103636526126
 30
0.0
 10
58.23658934759416
 20
-94.46623358749454
 30
0.0
 10
58.23658934759416
 20
-94.41112969861962
 30
0.0
  0
SPLINE
  5
82
330
1F
100
AcDbEntity
  8
_U+30EC_U+30A4_U+30E4_U+30FC 1
 62
   179
420
  2234388
370
     9
100
AcDbSpline
210
0.0
220
0.0
230
1.0
 70
    11
 71
     3
 72
    17
 73
    13
 74
     0
 42
0.0000000001
 43
0.0000000001
 12
1.0
 22
0.0
 32
0.0
 13
1.0
 23
0.0
 33
0.0
 40
0.0
 40
0.0
 40
0.0
 40
0.0
 40
1.0
 40
1.0
 40
1.0
 40
2.0
 40
2.0
 40
2.0
 40
3.0
 40
3.0
 40
3.0
 40
4.0
 40
4.0
 40
4.0
 40
4.0
 10
58.23658934759416
 20
-96.41099164256366
 30
0.0
 10
58.23658934759416
 20
-96.35588775368875
 30
0.0
 10
58.19178657095939
 20
-96.31108497592203
 30
0.0
 10
58.13668268347632
 20
-96.31108497592203
 30
0.0
 10
58.08154351821638
 20
-96.31108497592203
 30
0.0
 10
58.03677601935849
 20
-96.35588775368875
 30
0.0
 10
58.03677601935849
 20
-96.41099164256366
 30
0.0
 10
58.03677601935849
 20
-96.46644830921699
 30
0.0
 10
58.08154351821638
 20
-96.5108983092053
 30
0.0
 10
58.13668268347632
 20
-96.5108983092053
 30
0.0
 10
58.19178657095939
 20
-96.5108983092053
 30
0.0
 10
58.23658934759416
 20
-96.46644830921699
 30
0.0
 10
58.23658934759416
 20
-96.41099164256366
 30
0.0
  0
POLYLINE
  5
83
330
1F
100
AcDbEntity
  8
_U+30EC_U+30A4_U+30E4_U+30FC 1
 62
   179
420
  2234388
370
     9
100
AcDb2dPolyline
 66
     1
 10
0.0
 20
0.0
 30
0.0
  0
VERTEX
  5
84
330
83
100
AcDbEntity
  8
_U+30EC_U+30A4_U+30E4_U+30FC 1
 62
   179
420
  2234388
370
     9
100
AcDbVertex
100
AcDb2dVertex
 10
78.13614828435855
 20
-80.41093192434164
 30
0.0
  0
VERTEX
  5
85
330
83
100
AcDbEntity
  8
_U+30EC_U+30A4_U+30E4_U+30FC 1
 62
   179
420
  2234388
370
     9
100
AcDbVertex
100
AcDb2dVertex
 10
78.13614828435855
 20
-76.64061942528421
 30
0.0
  0
SEQEND
  5
86
330
83
100
AcDbEntity
  8
_U+30EC_U+30A4_U+30E4_U+30FC 1
 62
   179
420
  2234388
370
     9
  0
POLYLINE
  5
87
330
1F
100
AcDbEntity
  8
_U+30EC_U+30A4_U+30E4_U+30FC 1
 62
   179
420
  2234388
370
     9
100
AcDb2dPolyline
 66
     1
 10
0.0
 20
0.0
 30
0.0
  0
VERTEX
  5
88
330
87
100
AcDbEntity
  8
_U+30EC_U+30A4_U+30E4_U+30FC 1
 62
   179
420
  2234388
370
     9
100
AcDbVertex
100
AcDb2dVertex
 10
78.13614828435855
 20
-80.41093192434164
 30
0.0
  0
VERTEX
  5
89
330
87
100
AcDbEntity
  8
_U+30EC_U+30A4_U+30E4_U+30FC 1
 62
   179
420
  2234388
370
     9
100
AcDbVertex
100
AcDb2dVertex
 10
78.13614828435855
 20
-81.41105692409162
 30
0.0
  0
SEQEND
  5
8A
330
87
100
AcDbEntity
  8
_U+30EC_U+30A4_U+30E4_U+30FC 1
 62
   179
420
  2234388
370
     9
  0
POLYLINE
  5
8B
330
1F
100
AcDbEntity
  8
_U+30EC_U+30A4_U+30E4_U+30FC 1
 62
   179
420
  2234388
370
     9
100
AcDb2dPolyline
 66
     1
 10
0.0
 20
0.0
 30
0.0
  0
VERTEX
  5
8C
330
8B
100
AcDbEntity
  8
_U+30EC_U+30A4_U+30E4_U+30FC 1
 62
   179
420
  2234388
370
     9
100
AcDbVertex
100
AcDb2dVertex
 10
76.67610693271843
 20
-80.41093192434164
 30
0.0
  0
VERTEX
  5
8D
330
8B
100
AcDbEntity
  8
_U+30EC_U+30A4_U+30E4_U+30FC 1
 62
   179
420
  2234388
370
     9
100
AcDbVertex
100
AcDb2dVertex
 10
79.13659075883515
 20
-80.41093192434164
 30
0.0
  0
SEQEND
  5
8E
330
8B
100
AcDbEntity
  8
_U+30EC_U+30A4_U+30E4_U+30FC 1
 62
   179
420
  2234388
370
     9
  0
POLYLINE
  5
8F
330
1F
100
AcDbEntity
  8
_U+30EC_U+30A4_U+30E4_U+30FC 1
 62
   179
420
  2234388
370
     9
100
AcDb2dPolyline
 66
     1
 10
0.0
 20
0.0
 30
0.0
  0
VERTEX
  5
90
330
8F
100
AcDbEntity
  8
_U+30EC_U+30A4_U+30E4_U+30FC 1
 62
   179
420
  2234388
370
     9
100
AcDbVertex
100
AcDb2dVertex
 10
76.67610693271843
 20
-81.41105692409162
 30
0.0
  0
VERTEX
  5
91
330
8F
100
AcDbEntity
  8
_U+30EC_U+30A4_U+30E4_U+30FC 1
 62
   179
420
  2234388
370
     9
100
AcDbVertex
100
AcDb2dVertex
 10
79.13659075883515
 20
-81.41105692409162
 30
0.0
  0
SEQEND
  5
92
330
8F
100
AcDbEntity
  8
_U+30EC_U+30A4_U+30E4_U+30FC 1
 62
   179
420
  2234388
370
     9
  0
INSERT
  5
94
330
1F
100
AcDbEntity
  8
_U+30EC_U+30A4_U+30E4_U+30FC 1
100
AcDbBlockReference
  2
block 2
 10
0.0
 20
0.0
 30
0.0
  0
POLYLINE
  5
99
330
1F
100
AcDbEntity
  8
_U+30EC_U+30A4_U+30E4_U+30FC 1
 62
   179
420
  2234388
370
     9
100
AcDb2dPolyline
 66
     1
 10
0.0
 20
0.0
 30
0.0
  0
VERTEX
  5
9A
330
99
100
AcDbEntity
  8
_U+30EC_U+30A4_U+30E4_U+30FC 1
 62
   179
420
  2234388
370
     9
100
AcDbVertex
100
AcDb2dVertex
 10
49.13672207975112
 20
-76.41117275867508
 30
0.0
  0
VERTEX
  5
9B
330
99
100
AcDbEntity
  8
_U+30EC_U+30A4_U+30E4_U+30FC 1
 62
   179
420
  2234388
370
     9
100
AcDbVertex
100
AcDb2dVertex
 10
74.13638921973426
 20
-76.41117275867508
 30
0.0
  0
SEQEND
  5
9C
330
99
100
AcDbEntity
  8
_U+30EC_U+30A4_U+30E4_U+30FC 1
 62
   179
420
  2234388
370
     9
  0
POLYLINE
  5
9D
330
1F
100
AcDbEntity
  8
_U+30EC_U+30A4_U+30E4_U+30FC 1
 62
   179
420
  2234388
370
     9
100
AcDb2dPolyline
 66
     1
 10
0.0
 20
0.0
 30
0.0
  0
VERTEX
  5
9E
330
9D
100
AcDbEntity
  8
_U+30EC_U+30A4_U+30E4_U+30FC 1
 62
   179
420
  2234388
370
     9
100
AcDbVertex
100
AcDb2dVertex
 10
49.13672207975112
 20
-77.87121414719878
 30
0.0
  0
VERTEX
  5
9F
330
9D
100
AcDbEntity
  8
_U+30EC_U+30A4_U+30E4_U+30FC 1
 62
   179
420
  2234388
370
     9
100
AcDbVertex
100
AcDb2dVertex
 10
49.13672207975112
 20
-75.41108303670293
 30
0.0
  0
SEQEND
  5
A0
330
9D
100
AcDbEntity
  8
_U+30EC_U+30A4_U+30E4_U+30FC 1
 62
   179
420
  2234388
370
     9
  0
POLYLINE
  5
A1
330
1F
100
AcDbEntity
  8
_U+30EC_U+30A4_U+30E4_U+30FC 1
 62
   179
420
  2234388
370
     9
100
AcDb2dPolyline
 66
     1
 10
0.0
 20
0.0
 30
0.0
  0
VERTEX
  5
A2
330
A1
100
AcDbEntity
  8
_U+30EC_U+30A4_U+30E4_U+30FC 1
 62
   179
420
  2234388
370
     9
100
AcDbVertex
100
AcDb2dVertex
 10
74.13638921973426
 20
-77.87121414719878
 30
0.0
  0
VERTEX
  5
A3
330
A1
100
AcDbEntity
  8
_U+30EC_U+30A4_U+30E4_U+30FC 1
 62
   179
420
  2234388
370
     9
100
AcDbVertex
100
AcDb2dVertex
 10
74.13638921973426
 20
-75.41108303670293
 30
0.0
  0
SEQEND
  5
A4
330
A1
100
AcDbEntity
  8
_U+30EC_U+30A4_U+30E4_U+30FC 1
 62
   179
420
  2234388
370
     9
  0
INSERT
  5
A6
330
1F
100
AcDbEntity
  8
_U+30EC_U+30A4_U+30E4_U+30FC 1
100
AcDbBlockReference
  2
block 3
 10
0.0
 20
0.0
 30
0.0
  0
POLYLINE
  5
AD
330
1F
100
AcDbEntity
  8
_U+30EC_U+30A4_U+30E4_U+30FC 1
 62
   179
420
  2234388
370
     9
100
AcDb2dPolyline
 66
     1
 10
0.0
 20
0.0
 30
0.0
  0
VERTEX
  5
AE
330
AD
100
AcDbEntity
  8
_U+30EC_U+30A4_U+30E4_U+30FC 1
 62
   179
420
  2234388
370
     9
100
AcDbVertex
100
AcDb2dVertex
 10
50.13645899869014
 20
-100.4111035860083
 30
0.0
  0
VERTEX
  5
AF
330
AD
100
AcDbEntity
  8
_U+30EC_U+30A4_U+30E4_U+30FC 1
 62
   179
420
  2234388
370
     9
100
AcDbVertex
100
AcDb2dVertex
 10
54.13621943091051
 20
-100.4111035860083
 30
0.0
  0
SEQEND
  5
B0
330
AD
100
AcDbEntity
  8
_U+30EC_U+30A4_U+30E4_U+30FC 1
 62
   179
420
  2234388
370
     9
  0
POLYLINE
  5
B1
330
1F
100
AcDbEntity
  8
_U+30EC_U+30A4_U+30E4_U+30FC 1
 62
   179
420
  2234388
370
     9
100
AcDb2dPolyline
 66
     1
 10
0.0
 20
0.0
 30
0.0
  0
VERTEX
  5
B2
330
B1
100
AcDbEntity
  8
_U+30EC_U+30A4_U+30E4_U+30FC 1
 62
   179
420
  2234388
370
     9
100
AcDbVertex
100
AcDb2dVertex
 10
50.13645899869014
 20
-98.9510621974846
 30
0.0
  0
VERTEX
  5
B3
330
B1
100
AcDbEntity
  8
_U+30EC_U+30A4_U+30E4_U+30FC 1
 62
   179
420
  2234388
370
     9
100
AcDbVertex
100
AcDb2dVertex
 10
50.13645899869014
 20
-101.4111933079805
 30
0.0
  0
SEQEND
  5
B4
330
B1
100
AcDbEntity
  8
_U+30EC_U+30A4_U+30E4_U+30FC 1
 62
   179
420
  2234388
370
     9
  0
POLYLINE
  5
B5
330
1F
100
AcDbEntity
  8
_U+30EC_U+30A4_U+30E4_U+30FC 1
 62
   179
420
  2234388
370
     9
100
AcDb2dPolyline
 66
     1
 10
0.0
 20
0.0
 30
0.0
  0
VERTEX
  5
B6
330
B5
100
AcDbEntity
  8
_U+30EC_U+30A4_U+30E4_U+30FC 1
 62
   179
420
  2234388
370
     9
100
AcDbVertex
100
AcDb2dVertex
 10
54.13621943091051
 20
-98.9510621974846
 30
0.0
  0
VERTEX
  5
B7
330
B5
100
AcDbEntity
  8
_U+30EC_U+30A4_U+30E4_U+30FC 1
 62
   179
420
  2234388
370
     9
100
AcDbVertex
100
AcDb2dVertex
 10
54.13621943091051
 20
-101.4111933079805
 30
0.0
  0
SEQEND
  5
B8
330
B5
100
AcDbEntity
  8
_U+30EC_U+30A4_U+30E4_U+30FC 1
 62
   179
420
  2234388
370
     9
  0
INSERT
  5
BA
330
1F
100
AcDbEntity
  8
_U+30EC_U+30A4_U+30E4_U+30FC 1
100
AcDbBlockReference
  2
block 4
 10
0.0
 20
0.0
 30
0.0
  0
POLYLINE
  5
D2
330
1F
100
AcDbEntity
  8
_U+30EC_U+30A4_U+30E4_U+30FC 1
 62
   179
420
  2234388
370
     9
100
AcDb2dPolyline
 66
     1
 10
0.0
 20
0.0
 30
0.0
  0
VERTEX
  5
D3
330
D2
100
AcDbEntity
  8
_U+30EC_U+30A4_U+30E4_U+30FC 1
 62
   179
420
  2234388
370
     9
100
AcDbVertex
100
AcDb2dVertex
 10
49.13672207975112
 20
-100.4111035860083
 30
0.0
  0
VERTEX
  5
D4
330
D2
100
AcDbEntity
  8
_U+30EC_U+30A4_U+30E4_U+30FC 1
 62
   179
420
  2234388
370
     9
100
AcDbVertex
100
AcDb2dVertex
 10
45.3664096759398
 20
-100.4111035860083
 30
0.0
  0
SEQEND
  5
D5
330
D2
100
AcDbEntity
  8
_U+30EC_U+30A4_U+30E4_U+30FC 1
 62
   179
420
  2234388
370
     9
  0
POLYLINE
  5
D6
330
1F
100
AcDbEntity
  8
_U+30EC_U+30A4_U+30E4_U+30FC 1
 62
   179
420
  2234388
370
     9
100
AcDb2dPolyline
 66
     1
 10
0.0
 20
0.0
 30
0.0
  0
VERTEX
  5
D7
330
D6
100
AcDbEntity
  8
_U+30EC_U+30A4_U+30E4_U+30FC 1
 62
   179
420
  2234388
370
     9
100
AcDbVertex
100
AcDb2dVertex
 10
49.13672207975112
 20
-100.4111035860083
 30
0.0
  0
VERTEX
  5
D8
330
D6
100
AcDbEntity
  8
_U+30EC_U+30A4_U+30E4_U+30FC 1
 62
   179
420
  2234388
370
     9
100
AcDbVertex
100
AcDb2dVertex
 10
50.13645899869014
 20
-100.4111035860083
 30
0.0
  0
SEQEND
  5
D9
330
D6
100
AcDbEntity
  8
_U+30EC_U+30A4_U+30E4_U+30FC 1
 62
   179
420
  2234388
370
     9
  0
POLYLINE
  5
DA
330
1F
100
AcDbEntity
  8
_U+30EC_U+30A4_U+30E4_U+30FC 1
 62
   179
420
  2234388
370
     9
100
AcDb2dPolyline
 66
     1
 10
0.0
 20
0.0
 30
0.0
  0
VERTEX
  5
DB
330
DA
100
AcDbEntity
  8
_U+30EC_U+30A4_U+30E4_U+30FC 1
 62
   179
420
  2234388
370
     9
100
AcDbVertex
100
AcDb2dVertex
 10
49.13672207975112
 20
-96.95120025353992
 30
0.0
  0
VERTEX
  5
DC
330
DA
100
AcDbEntity
  8
_U+30EC_U+30A4_U+30E4_U+30FC 1
 62
   179
420
  2234388
370
     9
100
AcDbVertex
100
AcDb2dVertex
 10
49.13672207975112
 20
-101.4111933079805
 30
0.0
  0
SEQEND
  5
DD
330
DA
100
AcDbEntity
  8
_U+30EC_U+30A4_U+30E4_U+30FC 1
 62
   179
420
  2234388
370
     9
  0
INSERT
  5
DF
330
1F
100
AcDbEntity
  8
_U+30EC_U+30A4_U+30E4_U+30FC 1
100
AcDbBlockReference
  2
block 5
 10
0.0
 20
0.0
 30
0.0
  0
POLYLINE
  5
E4
330
1F
100
AcDbEntity
  8
_U+30EC_U+30A4_U+30E4_U+30FC 1
 62
   179
420
  2234388
370
     9
100
AcDb2dPolyline
 66
     1
 10
0.0
 20
0.0
 30
0.0
  0
VERTEX
  5
E5
330
E4
100
AcDbEntity
  8
_U+30EC_U+30A4_U+30E4_U+30FC 1
 62
   179
420
  2234388
370
     9
100
AcDbVertex
100
AcDb2dVertex
 10
58.13668268347632
 20
-94.41112969861962
 30
0.0
  0
VERTEX
  5
E6
330
E4
100
AcDbEntity
  8
_U+30EC_U+30A4_U+30E4_U+30FC 1
 62
   179
420
  2234388
370
     9
100
AcDbVertex
100
AcDb2dVertex
 10
58.13668268347632
 20
-96.41099164256366
 30
0.0
  0
SEQEND
  5
E7
330
E4
100
AcDbEntity
  8
_U+30EC_U+30A4_U+30E4_U+30FC 1
 62
   179
420
  2234388
370
     9
  0
POLYLINE
  5
E8
330
1F
100
AcDbEntity
  8
_U+30EC_U+30A4_U+30E4_U+30FC 1
 62
   179
420
  2234388
370
     9
100
AcDb2dPolyline
 66
     1
 10
0.0
 20
0.0
 30
0.0
  0
VERTEX
  5
E9
330
E8
100
AcDbEntity
  8
_U+30EC_U+30A4_U+30E4_U+30FC 1
 62
   179
420
  2234388
370
     9
100
AcDbVertex
100
AcDb2dVertex
 10
56.67664133183619
 20
-94.41112969861962
 30
0.0
  0
VERTEX
  5
EA
330
E8
100
AcDbEntity
  8
_U+30EC_U+30A4_U+30E4_U+30FC 1
 62
   179
420
  2234388
370
     9
100
AcDbVertex
100
AcDb2dVertex
 10
59.13645488019223
 20
-94.41112969861962
 30
0.0
  0
SEQEND
  5
EB
330
E8
100
AcDbEntity
  8
_U+30EC_U+30A4_U+30E4_U+30FC 1
 62
   179
420
  2234388
370
     9
  0
POLYLINE
  5
EC
330
1F
100
AcDbEntity
  8
_U+30EC_U+30A4_U+30E4_U+30FC 1
 62
   179
420
  2234388
370
     9
100
AcDb2dPolyline
 66
     1
 10
0.0
 20
0.0
 30
0.0
  0
VERTEX
  5
ED
330
EC
100
AcDbEntity
  8
_U+30EC_U+30A4_U+30E4_U+30FC 1
 62
   179
420
  2234388
370
     9
100
AcDbVertex
100
AcDb2dVertex
 10
56.67664133183619
 20
-96.41099164256366
 30
0.0
  0
VERTEX
  5
EE
330
EC
100
AcDbEntity
  8
_U+30EC_U+30A4_U+30E4_U+30FC 1
 62
   179
420
  2234388
370
     9
100
AcDbVertex
100
AcDb2dVertex
 10
59.13645488019223
 20
-96.41099164256366
 30
0.0
  0
SEQEND
  5
EF
330
EC
100
AcDbEntity
  8
_U+30EC_U+30A4_U+30E4_U+30FC 1
 62
   179
420
  2234388
370
     9
  0
INSERT
  5
F1
330
1F
100
AcDbEntity
  8
_U+30EC_U+30A4_U+30E4_U+30FC 1
100
AcDbBlockReference
  2
block 6
 10
0.0
 20
0.0
 30
0.0
  0
POLYLINE
  5
F6
330
1F
100
AcDbEntity
  8
_U+30EC_U+30A4_U+30E4_U+30FC 1
 62
   179
420
  2234388
370
     9
100
AcDb2dPolyline
 66
     1
 10
0.0
 20
0.0
 30
0.0
  0
VERTEX
  5
F7
330
F6
100
AcDbEntity
  8
_U+30EC_U+30A4_U+30E4_U+30FC 1
 62
   179
420
  2234388
370
     9
100
AcDbVertex
100
AcDb2dVertex
 10
78.13614828435855
 20
-81.41105692409162
 30
0.0
  0
VERTEX
  5
F8
330
F6
100
AcDbEntity
  8
_U+30EC_U+30A4_U+30E4_U+30FC 1
 62
   179
420
  2234388
370
     9
100
AcDbVertex
100
AcDb2dVertex
 10
78.13614828435855
 20
-94.41112969861962
 30
0.0
  0
SEQEND
  5
F9
330
F6
100
AcDbEntity
  8
_U+30EC_U+30A4_U+30E4_U+30FC 1
 62
   179
420
  2234388
370
     9
  0
POLYLINE
  5
FA
330
1F
100
AcDbEntity
  8
_U+30EC_U+30A4_U+30E4_U+30FC 1
 62
   179
420
  2234388
370
     9
100
AcDb2dPolyline
 66
     1
 10
0.0
 20
0.0
 30
0.0
  0
VERTEX
  5
FB
330
FA
100
AcDbEntity
  8
_U+30EC_U+30A4_U+30E4_U+30FC 1
 62
   179
420
  2234388
370
     9
100
AcDbVertex
100
AcDb2dVertex
 10
56.67664133183619
 20
-94.41112969861962
 30
0.0
  0
VERTEX
  5
FC
330
FA
100
AcDbEntity
  8
_U+30EC_U+30A4_U+30E4_U+30FC 1
 62
   179
420
  2234388
370
     9
100
AcDbVertex
100
AcDb2dVertex
 10
79.13659075883515
 20
-94.41112969861962
 30
0.0
  0
SEQEND
  5
FD
330
FA
100
AcDbEntity
  8
_U+30EC_U+30A4_U+30E4_U+30FC 1
 62
   179
420
  2234388
370
     9
  0
INSERT
  5
FF
330
1F
100
AcDbEntity
  8
_U+30EC_U+30A4_U+30E4_U+30FC 1
100
AcDbBlockReference
  2
block 7
 10
0.0
 20
0.0
 30
0.0
  0
ENDSEC
  0
SECTION
  2
OBJECTS
  0
DICTIONARY
  5
C
330
0
100
AcDbDictionary
281
     1
  3
ACAD_GROUP
350
D
  3
ACAD_LAYOUT
350
1A
  3
ACAD_MATERIAL
350
3B
  3
ACAD_MLEADERSTYLE
350
107
  3
ACAD_MLINESTYLE
350
17
  3
ACAD_PLOTSETTINGS
350
19
  3
ACAD_PLOTSTYLENAME
350
E
  3
ACAD_TABLESTYLE
350
106
  3
ACAD_VISUALSTYLE
350
2A
  0
SUN
  5
3F
330
29
100
AcDbSun
 90
        1
290
     0
 63
     7
421
 16777215
 40
1.0
291
     1
 91
  2455826
 92
 54000000
292
     0
 70
     2
 71
   256
280
     1
  0
DICTIONARY
  5
D
102
{ACAD_REACTORS
330
C
102
}
330
C
100
AcDbDictionary
281
     1
  0
DICTIONARY
  5
1A
102
{ACAD_REACTORS
330
C
102
}
330
C
100
AcDbDictionary
281
     1
  3
Layout1
350
1E
  3
Layout2
350
26
  3
Model
350
22
  0
DICTIONARY
  5
3B
102
{ACAD_REACTORS
330
C
102
}
330
C
100
AcDbDictionary
281
     1
  3
ByBlock
350
3D
  3
ByLayer
350
3C
  3
Global
350
3E
  0
DICTIONARY
  5
107
102
{ACAD_REACTORS
330
C
102
}
330
C
100
AcDbDictionary
281
     1
  0
DICTIONARY
  5
17
102
{ACAD_REACTORS
330
C
102
}
330
C
100
AcDbDictionary
281
     1
  3
Standard
350
18
  0
DICTIONARY
  5
19
102
{ACAD_REACTORS
330
C
102
}
330
C
100
AcDbDictionary
281
     1
  0
ACDBDICTIONARYWDFLT
  5
E
102
{ACAD_REACTORS
330
C
102
}
330
C
100
AcDbDictionary
281
     1
  3
Normal
350
F
100
AcDbDictionaryWithDefault
340
F
  0
DICTIONARY
  5
106
102
{ACAD_REACTORS
330
C
102
}
330
C
100
AcDbDictionary
281
     1
  0
DICTIONARY
  5
2A
102
{ACAD_REACTORS
330
C
102
}
330
C
100
AcDbDictionary
281
     1
  3
2dWireframe
350
2F
  3
3D Hidden
350
31
  3
3dWireframe
350
30
  3
Basic
350
32
  3
Brighten
350
36
  3
ColorChange
350
3A
  3
Conceptual
350
34
  3
Dim
350
35
  3
Facepattern
350
39
  3
Flat
350
2B
  3
FlatWithEdges
350
2C
  3
Gouraud
350
2D
  3
GouraudWithEdges
350
2E
  3
Linepattern
350
38
  3
Realistic
350
33
  3
Thicken
350
37
  0
LAYOUT
  5
1E
102
{ACAD_REACTORS
330
1A
102
}
330
1A
100
AcDbPlotSettings
  1

  2
none_device
  4

  6

 40
0.0
 41
0.0
 42
0.0
 43
0.0
 44
0.0
 45
0.0
 46
0.0
 47
0.0
 48
0.0
 49
0.0
140
0.0
141
0.0
142
1.0
143
1.0
 70
   688
 72
     0
 73
     0
 74
     5
  7

 75
    16
 76
     0
 77
     2
 78
   300
147
1.0
148
0.0
149
0.0
100
AcDbLayout
  1
Layout1
 70
     1
 71
     1
 10
0.0
 20
0.0
 11
12.0
 21
9.0
 12
0.0
 22
0.0
 32
0.0
 14
1.000000000000000E+20
 24
1.000000000000000E+20
 34
1.000000000000000E+20
 15
-1.000000000000000E+20
 25
-1.000000000000000E+20
 35
-1.000000000000000E+20
146
0.0
 13
0.0
 23
0.0
 33
0.0
 16
1.0
 26
0.0
 36
0.0
 17
0.0
 27
1.0
 37
0.0
 76
     0
330
1B
  0
LAYOUT
  5
26
102
{ACAD_REACTORS
330
1A
102
}
330
1A
100
AcDbPlotSettings
  1

  2
none_device
  4

  6

 40
0.0
 41
0.0
 42
0.0
 43
0.0
 44
0.0
 45
0.0
 46
0.0
 47
0.0
 48
0.0
 49
0.0
140
0.0
141
0.0
142
1.0
143
1.0
 70
   688
 72
     0
 73
     0
 74
     5
  7

 75
    16
 76
     0
 77
     2
 78
   300
147
1.0
148
0.0
149
0.0
100
AcDbLayout
  1
Layout2
 70
     1
 71
     2
 10
0.0
 20
0.0
 11
0.0
 21
0.0
 12
0.0
 22
0.0
 32
0.0
 14
0.0
 24
0.0
 34
0.0
 15
0.0
 25
0.0
 35
0.0
146
0.0
 13
0.0
 23
0.0
 33
0.0
 16
1.0
 26
0.0
 36
0.0
 17
0.0
 27
1.0
 37
0.0
 76
     0
330
23
  0
LAYOUT
  5
22
102
{ACAD_REACTORS
330
1A
102
}
330
1A
100
AcDbPlotSettings
  1

  2
none_device
  4

  6

 40
0.0
 41
0.0
 42
0.0
 43
0.0
 44
0.0
 45
0.0
 46
0.0
 47
0.0
 48
0.0
 49
0.0
140
0.0
141
0.0
142
1.0
143
1.0
 70
  1712
 72
     0
 73
     0
 74
     0
  7

 75
     0
 76
     0
 77
     2
 78
   300
147
1.0
148
0.0
149
0.0
100
AcDbLayout
  1
Model
 70
     1
 71
     0
 10
0.0
 20
0.0
 11
12.0
 21
9.0
 12
0.0
 22
0.0
 32
0.0
 14
1.000000000000000E+20
 24
1.000000000000000E+20
 34
1.000000000000000E+20
 15
-1.000000000000000E+20
 25
-1.000000000000000E+20
 35
-1.000000000000000E+20
146
0.0
 13
0.0
 23
0.0
 33
0.0
 16
1.0
 26
0.0
 36
0.0
 17
0.0
 27
1.0
 37
0.0
 76
     0
330
1F
331
29
  0
MATERIAL
  5
3D
102
{ACAD_REACTORS
330
3B
102
}
330
3B
100
AcDbMaterial
  1
ByBlock
 72
     1
 94
      127
  0
MATERIAL
  5
3C
102
{ACAD_REACTORS
330
3B
102
}
330
3B
100
AcDbMaterial
  1
ByLayer
 72
     1
 94
      127
  0
MATERIAL
  5
3E
102
{ACAD_REACTORS
330
3B
102
}
330
3B
100
AcDbMaterial
  1
Global
 72
     1
 94
      127
  0
MLINESTYLE
  5
18
102
{ACAD_REACTORS
330
17
102
}
330
17
100
AcDbMlineStyle
  2
Standard
 70
     0
  3

 62
   256
 51
90.0
 52
90.0
 71
     2
 49
0.5
 62
   256
  6
BYLAYER
 49
-0.5
 62
   256
  6
BYLAYER
  0
ACDBPLACEHOLDER
  5
F
102
{ACAD_REACTORS
330
E
102
}
330
E
  0
VISUALSTYLE
  5
2F
102
{ACAD_REACTORS
330
2A
102
}
330
2A
100
AcDbVisualStyle
  2
2dWireframe
 70
     4
177
     2
291
     0
 71
     0
176
     1
 72
     2
176
     1
 73
     0
176
     1
 90
        0
176
     1
 40
-0.6
176
     1
 41
-30.0
176
     1
 62
     5
 63
     7
421
 16777215
176
     1
 74
     1
176
     1
 91
        4
176
     1
 64
     7
176
     1
 65
   257
176
     1
 75
     1
176
     1
175
     1
176
     1
 42
1.0
176
     1
 92
        0
176
     1
 66
   257
176
     1
 43
1.0
176
     1
 76
     1
176
     1
 77
     6
176
     1
 78
     2
176
     1
 67
     7
176
     1
 79
     5
176
     1
170
     0
176
     1
171
     0
176
     1
290
     0
176
     1
 93
        1
176
     1
 44
0.0
176
     1
173
     0
176
     1
  0
VISUALSTYLE
  5
31
102
{ACAD_REACTORS
330
2A
102
}
330
2A
100
AcDbVisualStyle
  2
3D Hidden
 70
     6
177
     2
291
     0
 71
     1
176
     1
 72
     2
176
     1
 73
     2
176
     1
 90
        0
176
     1
 40
-0.6
176
     1
 41
-30.0
176
     1
 62
     5
 63
     7
421
 16777215
176
     1
 74
     2
176
     1
 91
        2
176
     1
 64
     7
176
     1
 65
   257
176
     1
 75
     2
176
     1
175
     1
176
     1
 42
40.0
176
     1
 92
        0
176
     1
 66
   257
176
     1
 43
1.0
176
     1
 76
     1
176
     1
 77
     6
176
     1
 78
     2
176
     1
 67
     7
176
     1
 79
     3
176
     1
170
     0
176
     1
171
     0
176
     1
290
     0
176
     1
 93
        1
176
     1
 44
0.0
176
     1
173
     0
176
     1
  0
VISUALSTYLE
  5
30
102
{ACAD_REACTORS
330
2A
102
}
330
2A
100
AcDbVisualStyle
  2
3dWireframe
 70
     5
177
     2
291
     0
 71
     0
176
     1
 72
     2
176
     1
 73
     0
176
     1
 90
        0
176
     1
 40
-0.6
176
     1
 41
-30.0
176
     1
 62
     5
 63
     7
421
 16777215
176
     1
 74
     1
176
     1
 91
        4
176
     1
 64
     7
176
     1
 65
   257
176
     1
 75
     1
176
     1
175
     1
176
     1
 42
1.0
176
     1
 92
        0
176
     1
 66
   257
176
     1
 43
1.0
176
     1
 76
     1
176
     1
 77
     6
176
     1
 78
     2
176
     1
 67
     7
176
     1
 79
     5
176
     1
170
     0
176
     1
171
     0
176
     1
290
     0
176
     1
 93
        1
176
     1
 44
0.0
176
     1
173
     0
176
     1
  0
VISUALSTYLE
  5
32
102
{ACAD_REACTORS
330
2A
102
}
330
2A
100
AcDbVisualStyle
  2
Basic
 70
     7
177
     2
291
     1
 71
     1
176
     1
 72
     0
176
     1
 73
     1
176
     1
 90
        0
176
     1
 40
-0.6
176
     1
 41
-30.0
176
     1
 62
     5
 63
     7
421
 16777215
176
     1
 74
     0
176
     1
 91
        4
176
     1
 64
     7
176
     1
 65
   257
176
     1
 75
     1
176
     1
175
     1
176
     1
 42
1.0
176
     1
 92
        8
176
     1
 66
     7
176
     1
 43
1.0
176
     1
 76
     1
176
     1
 77
     6
176
     1
 78
     2
176
     1
 67
     7
176
     1
 79
     5
176
     1
170
     0
176
     1
171
     0
176
     1
290
     0
176
     1
 93
        1
176
     1
 44
0.0
176
     1
173
     0
176
     1
  0
VISUALSTYLE
  5
36
102
{ACAD_REACTORS
330
2A
102
}
330
2A
100
AcDbVisualStyle
  2
Brighten
 70
    12
177
     2
291
     1
 71
     2
176
     1
 72
     2
176
     1
 73
     0
176
     1
 90
        0
176
     1
 40
-0.6
176
     1
 41
-30.0
176
     1
 62
     5
 63
     7
421
 16777215
176
     1
 74
     1
176
     1
 91
        4
176
     1
 64
     7
176
     1
 65
   257
176
     1
 75
     1
176
     1
175
     1
176
     1
 42
1.0
176
     1
 92
        8
176
     1
 66
     7
176
     1
 43
1.0
176
     1
 76
     1
176
     1
 77
     6
176
     1
 78
     2
176
     1
 67
     7
176
     1
 79
     5
176
     1
170
     0
176
     1
171
     0
176
     1
290
     0
176
     1
 93
        1
176
     1
 44
50.0
176
     1
173
     0
176
     1
  0
VISUALSTYLE
  5
3A
102
{ACAD_REACTORS
330
2A
102
}
330
2A
100
AcDbVisualStyle
  2
ColorChange
 70
    16
177
     2
291
     1
 71
     2
176
     1
 72
     2
176
     1
 73
     3
176
     1
 90
        0
176
     1
 40
-0.6
176
     1
 41
-30.0
176
     1
 62
     5
 63
     8
421
  8421504
176
     1
 74
     1
176
     1
 91
        4
176
     1
 64
     7
176
     1
 65
   257
176
     1
 75
     1
176
     1
175
     1
176
     1
 42
1.0
176
     1
 92
        8
176
     1
 66
     8
424
  8421504
176
     1
 43
1.0
176
     1
 76
     1
176
     1
 77
     6
176
     1
 78
     2
176
     1
 67
     7
176
     1
 79
     5
176
     1
170
     0
176
     1
171
     0
176
     1
290
     0
176
     1
 93
        1
176
     1
 44
0.0
176
     1
173
     0
176
     1
  0
VISUALSTYLE
  5
34
102
{ACAD_REACTORS
330
2A
102
}
330
2A
100
AcDbVisualStyle
  2
Conceptual
 70
     9
177
     2
291
     0
 71
     3
176
     1
 72
     2
176
     1
 73
     0
176
     1
 90
        0
176
     1
 40
-0.6
176
     1
 41
-30.0
176
     1
 62
     5
 63
     7
421
 16777215
176
     1
 74
     2
176
     1
 91
        2
176
     1
 64
     7
176
     1
 65
   257
176
     1
 75
     1
176
     1
175
     1
176
     1
 42
40.0
176
     1
 92
        8
176
     1
 66
     7
176
     1
 43
1.0
176
     1
 76
     1
176
     1
 77
     6
176
     1
 78
     2
176
     1
 67
     7
176
     1
 79
     3
176
     1
170
     0
176
     1
171
     0
176
     1
290
     0
176
     1
 93
        1
176
     1
 44
0.0
176
     1
173
     0
176
     1
  0
VISUALSTYLE
  5
35
102
{ACAD_REACTORS
330
2A
102
}
330
2A
100
AcDbVisualStyle
  2
Dim
 70
    11
177
     2
291
     1
 71
     2
176
     1
 72
     2
176
     1
 73
     0
176
     1
 90
        0
176
     1
 40
-0.6
176
     1
 41
-30.0
176
     1
 62
     5
 63
     7
421
 16777215
176
     1
 74
     1
176
     1
 91
        4
176
     1
 64
     7
176
     1
 65
   257
176
     1
 75
     1
176
     1
175
     1
176
     1
 42
1.0
176
     1
 92
        8
176
     1
 66
     7
176
     1
 43
1.0
176
     1
 76
     1
176
     1
 77
     6
176
     1
 78
     2
176
     1
 67
     7
176
     1
 79
     5
176
     1
170
     0
176
     1
171
     0
176
     1
290
     0
176
     1
 93
        1
176
     1
 44
-50.0
176
     1
173
     0
176
     1
  0
VISUALSTYLE
  5
39
102
{ACAD_REACTORS
330
2A
102
}
330
2A
100
AcDbVisualStyle
  2
Facepattern
 70
    15
177
     2
291
     1
 71
     2
176
     1
 72
     2
176
     1
 73
     0
176
     1
 90
        0
176
     1
 40
-0.6
176
     1
 41
-30.0
176
     1
 62
     5
 63
     7
421
 16777215
176
     1
 74
     1
176
     1
 91
        4
176
     1
 64
     7
176
     1
 65
   257
176
     1
 75
     1
176
     1
175
     1
176
     1
 42
1.0
176
     1
 92
        8
176
     1
 66
     7
176
     1
 43
1.0
176
     1
 76
     1
176
     1
 77
     6
176
     1
 78
     2
176
     1
 67
     7
176
     1
 79
     5
176
     1
170
     0
176
     1
171
     0
176
     1
290
     0
176
     1
 93
        1
176
     1
 44
0.0
176
     1
173
     0
176
     1
  0
VISUALSTYLE
  5
2B
102
{ACAD_REACTORS
330
2A
102
}
330
2A
100
AcDbVisualStyle
  2
Flat
 70
     0
177
     2
291
     1
 71
     2
176
     1
 72
     1
176
     1
 73
     1
176
     1
 90
        2
176
     1
 40
-0.6
176
     1
 41
30.0
176
     1
 62
     5
 63
     7
421
 16777215
176
     1
 74
     0
176
     1
 91
        4
176
     1
 64
     7
176
     1
 65
   257
176
     1
 75
     1
176
     1
175
     1
176
     1
 42
1.0
176
     1
 92
        8
176
     1
 66
     7
176
     1
 43
1.0
176
     1
 76
     1
176
     1
 77
     6
176
     1
 78
     2
176
     1
 67
     7
176
     1
 79
     5
176
     1
170
     0
176
     1
171
     0
176
     1
290
     0
176
     1
 93
       13
176
     1
 44
0.0
176
     1
173
     0
176
     1
  0
VISUALSTYLE
  5
2C
102
{ACAD_REACTORS
330
2A
102
}
330
2A
100
AcDbVisualStyle
  2
FlatWithEdges
 70
     1
177
     2
291
     1
 71
     2
176
     1
 72
     1
176
     1
 73
     1
176
     1
 90
        2
176
     1
 40
-0.6
176
     1
 41
30.0
176
     1
 62
     5
 63
     7
421
 16777215
176
     1
 74
     1
176
     1
 91
        4
176
     1
 64
     7
176
     1
 65
   257
176
     1
 75
     1
176
     1
175
     1
176
     1
 42
1.0
176
     1
 92
        0
176
     1
 66
   257
176
     1
 43
1.0
176
     1
 76
     1
176
     1
 77
     6
176
     1
 78
     2
176
     1
 67
     7
176
     1
 79
     5
176
     1
170
     0
176
     1
171
     0
176
     1
290
     0
176
     1
 93
       13
176
     1
 44
0.0
176
     1
173
     0
176
     1
  0
VISUALSTYLE
  5
2D
102
{ACAD_REACTORS
330
2A
102
}
330
2A
100
AcDbVisualStyle
  2
Gouraud
 70
     2
177
     2
291
     1
 71
     2
176
     1
 72
     2
176
     1
 73
     1
176
     1
 90
        2
176
     1
 40
-0.6
176
     1
 41
30.0
176
     1
 62
     5
 63
     7
421
 16777215
176
     1
 74
     0
176
     1
 91
        4
176
     1
 64
     7
176
     1
 65
   257
176
     1
 75
     1
176
     1
175
     1
176
     1
 42
1.0
176
     1
 92
        0
176
     1
 66
     7
176
     1
 43
1.0
176
     1
 76
     1
176
     1
 77
     6
176
     1
 78
     2
176
     1
 67
     7
176
     1
 79
     5
176
     1
170
     0
176
     1
171
     0
176
     1
290
     0
176
     1
 93
       13
176
     1
 44
0.0
176
     1
173
     0
176
     1
  0
VISUALSTYLE
  5
2E
102
{ACAD_REACTORS
330
2A
102
}
330
2A
100
AcDbVisualStyle
  2
GouraudWithEdges
 70
     3
177
     2
291
     1
 71
     2
176
     1
 72
     2
176
     1
 73
     1
176
     1
 90
        2
176
     1
 40
-0.6
176
     1
 41
30.0
176
     1
 62
     5
 63
     7
421
 16777215
176
     1
 74
     1
176
     1
 91
        4
176
     1
 64
     7
176
     1
 65
   257
176
     1
 75
     1
176
     1
175
     1
176
     1
 42
1.0
176
     1
 92
        0
176
     1
 66
   257
176
     1
 43
1.0
176
     1
 76
     1
176
     1
 77
     6
176
     1
 78
     2
176
     1
 67
     7
176
     1
 79
     5
176
     1
170
     0
176
     1
171
     0
176
     1
290
     0
176
     1
 93
       13
176
     1
 44
0.0
176
     1
173
     0
176
     1
  0
VISUALSTYLE
  5
38
102
{ACAD_REACTORS
330
2A
102
}
330
2A
100
AcDbVisualStyle
  2
Linepattern
 70
    14
177
     2
291
     1
 71
     2
176
     1
 72
     2
176
     1
 73
     0
176
     1
 90
        0
176
     1
 40
-0.6
176
     1
 41
-30.0
176
     1
 62
     5
 63
     7
421
 16777215
176
     1
 74
     1
176
     1
 91
        4
176
     1
 64
     7
176
     1
 65
   257
176
     1
 75
     7
176
     1
175
     7
176
     1
 42
1.0
176
     1
 92
        8
176
     1
 66
     7
176
     1
 43
1.0
176
     1
 76
     1
176
     1
 77
     6
176
     1
 78
     2
176
     1
 67
     7
176
     1
 79
     5
176
     1
170
     0
176
     1
171
     0
176
     1
290
     0
176
     1
 93
        1
176
     1
 44
0.0
176
     1
173
     0
176
     1
  0
VISUALSTYLE
  5
33
102
{ACAD_REACTORS
330
2A
102
}
330
2A
100
AcDbVisualStyle
  2
Realistic
 70
     8
177
     2
291
     0
 71
     2
176
     1
 72
     2
176
     1
 73
     0
176
     1
 90
        0
176
     1
 40
-0.6
176
     1
 41
-30.0
176
     1
 62
     5
 63
     7
421
 16777215
176
     1
 74
     1
176
     1
 91
        0
176
     1
 64
     7
176
     1
 65
   257
176
     1
 75
     1
176
     1
175
     1
176
     1
 42
1.0
176
     1
 92
        8
176
     1
 66
     8
424
  7895160
176
     1
 43
1.0
176
     1
 76
     1
176
     1
 77
     6
176
     1
 78
     2
176
     1
 67
     7
176
     1
 79
     5
176
     1
170
     0
176
     1
171
     0
176
     1
290
     0
176
     1
 93
       13
176
     1
 44
0.0
176
     1
173
     0
176
     1
  0
VISUALSTYLE
  5
37
102
{ACAD_REACTORS
330
2A
102
}
330
2A
100
AcDbVisualStyle
  2
Thicken
 70
    13
177
     2
291
     1
 71
     2
176
     1
 72
     2
176
     1
 73
     0
176
     1
 90
        0
176
     1
 40
-0.6
176
     1
 41
-30.0
176
     1
 62
     5
 63
     7
421
 16777215
176
     1
 74
     1
176
     1
 91
        4
176
     1
 64
     7
176
     1
 65
   257
176
     1
 75
     1
176
     1
175
     1
176
     1
 42
1.0
176
     1
 92
       12
176
     1
 66
     7
176
     1
 43
1.0
176
     1
 76
     1
176
     1
 77
     6
176
     1
 78
     2
176
     1
 67
     7
176
     1
 79
     5
176
     1
170
     0
176
     1
171
     0
176
     1
290
     0
176
     1
 93
        1
176
     1
 44
0.0
176
     1
173
     0
176
     1
  0
ENDSEC
  0
EOF
