  0
SECTION
  2
HEADER
  9
$ACADVER
  1
AC1024
  9
$ACADMAINTVER
 70
     6
  9
$DWGCODEPAGE
  3
UNDEFINED
  9
$INSBASE
 10
0.0
 20
0.0
 30
0.0
  9
$EXTMIN
 10
1.000000000000000E+20
 20
1.000000000000000E+20
 30
1.000000000000000E+20
  9
$EXTMAX
 10
-1.000000000000000E+20
 20
-1.000000000000000E+20
 30
-1.000000000000000E+20
  9
$LIMMIN
 10
0.0
 20
0.0
  9
$LIMMAX
 10
12.0
 20
9.0
  9
$ORTHOMODE
 70
     0
  9
$REGENMODE
 70
     1
  9
$FILLMODE
 70
     1
  9
$QTEXTMODE
 70
     0
  9
$MIRRTEXT
 70
     1
  9
$LTSCALE
 40
1.0
  9
$ATTMODE
 70
     1
  9
$TEXTSIZE
 40
0.2
  9
$TRACEWID
 40
0.05
  9
$TEXTSTYLE
  7
Standard
  9
$CLAYER
  8
0
  9
$CELTYPE
  6
ByLayer
  9
$CECOLOR
 62
   256
  9
$CELTSCALE
 40
1.0
  9
$DISPSILH
 70
     0
  9
$DIMSCALE
 40
1.0
  9
$DIMASZ
 40
0.18
  9
$DIMEXO
 40
0.0625
  9
$DIMDLI
 40
0.38
  9
$DIMRND
 40
0.0
  9
$DIMDLE
 40
0.0
  9
$DIMEXE
 40
0.18
  9
$DIMTP
 40
0.0
  9
$DIMTM
 40
0.0
  9
$DIMTXT
 40
0.18
  9
$DIMCEN
 40
0.09
  9
$DIMTSZ
 40
0.0
  9
$DIMTOL
 70
     0
  9
$DIMLIM
 70
     0
  9
$DIMTIH
 70
     1
  9
$DIMTOH
 70
     1
  9
$DIMSE1
 70
     0
  9
$DIMSE2
 70
     0
  9
$DIMTAD
 70
     0
  9
$DIMZIN
 70
     0
  9
$DIMBLK
  1

  9
$DIMASO
 70
     1
  9
$DIMSHO
 70
     1
  9
$DIMPOST
  1

  9
$DIMAPOST
  1

  9
$DIMALT
 70
     0
  9
$DIMALTD
 70
     2
  9
$DIMALTF
 40
25.4
  9
$DIMLFAC
 40
1.0
  9
$DIMTOFL
 70
     0
  9
$DIMTVP
 40
0.0
  9
$DIMTIX
 70
     0
  9
$DIMSOXD
 70
     0
  9
$DIMSAH
 70
     0
  9
$DIMBLK1
  1

  9
$DIMBLK2
  1

  9
$DIMSTYLE
  2
Standard
  9
$DIMCLRD
 70
     0
  9
$DIMCLRE
 70
     0
  9
$DIMCLRT
 70
     0
  9
$DIMTFAC
 40
1.0
  9
$DIMGAP
 40
0.09
  9
$DIMJUST
 70
     0
  9
$DIMSD1
 70
     0
  9
$DIMSD2
 70
     0
  9
$DIMTOLJ
 70
     1
  9
$DIMTZIN
 70
     0
  9
$DIMALTZ
 70
     0
  9
$DIMALTTZ
 70
     0
  9
$DIMUPT
 70
     0
  9
$DIMDEC
 70
     4
  9
$DIMTDEC
 70
     4
  9
$DIMALTU
 70
     2
  9
$DIMALTTD
 70
     2
  9
$DIMTXSTY
  7
Standard
  9
$DIMAUNIT
 70
     0
  9
$DIMADEC
 70
     0
  9
$DIMALTRND
 40
0.0
  9
$DIMAZIN
 70
     0
  9
$DIMDSEP
 70
    46
  9
$DIMATFIT
 70
     3
  9
$DIMFRAC
 70
     0
  9
$DIMLDRBLK
  1

  9
$DIMLUNIT
 70
     2
  9
$DIMLWD
 70
    -2
  9
$DIMLWE
 70
    -2
  9
$DIMTMOVE
 70
     0
  9
$DIMFXL
 40
1.0
  9
$DIMFXLON
 70
     0
  9
$DIMJOGANG
 40
0.7853981633974483
  9
$DIMTFILL
 70
     0
  9
$DIMTFILLCLR
 70
     0
  9
$DIMARCSYM
 70
     0
  9
$DIMLTYPE
  6

  9
$DIMLTEX1
  6

  9
$DIMLTEX2
  6

  9
$DIMTXTDIRECTION
 70
     0
  9
$LUNITS
 70
     2
  9
$LUPREC
 70
     4
  9
$SKETCHINC
 40
0.1
  9
$FILLETRAD
 40
0.5
  9
$AUNITS
 70
     0
  9
$AUPREC
 70
     0
  9
$MENU
  1
.
  9
$ELEVATION
 40
0.0
  9
$PELEVATION
 40
0.0
  9
$THICKNESS
 40
0.0
  9
$LIMCHECK
 70
     0
  9
$CHAMFERA
 40
0.5
  9
$CHAMFERB
 40
0.5
  9
$CHAMFERC
 40
1.0
  9
$CHAMFERD
 40
0.0
  9
$SKPOLY
 70
     0
  9
$TDCREATE
 40
2457917.586469896
  9
$TDUCREATE
 40
2457917.211469907
  9
$TDUPDATE
 40
2457917.586469896
  9
$TDUUPDATE
 40
2457917.211469907
  9
$TDINDWG
 40
0.0000000116
  9
$TDUSRTIMER
 40
0.0000000116
  9
$USRTIMER
 70
     1
  9
$ANGBASE
 50
0.0
  9
$ANGDIR
 70
     0
  9
$PDMODE
 70
     0
  9
$PDSIZE
 40
0.0
  9
$PLINEWID
 40
0.0
  9
$SPLFRAME
 70
     0
  9
$SPLINETYPE
 70
     6
  9
$SPLINESEGS
 70
     8
  9
$HANDSEED
  5
18C
  9
$SURFTAB1
 70
     6
  9
$SURFTAB2
 70
     6
  9
$SURFTYPE
 70
     6
  9
$SURFU
 70
     6
  9
$SURFV
 70
     6
  9
$UCSBASE
  2

  9
$UCSNAME
  2

  9
$UCSORG
 10
0.0
 20
0.0
 30
0.0
  9
$UCSXDIR
 10
1.0
 20
0.0
 30
0.0
  9
$UCSYDIR
 10
0.0
 20
1.0
 30
0.0
  9
$UCSORTHOREF
  2

  9
$UCSORTHOVIEW
 70
     0
  9
$UCSORGTOP
 10
0.0
 20
0.0
 30
0.0
  9
$UCSORGBOTTOM
 10
0.0
 20
0.0
 30
0.0
  9
$UCSORGLEFT
 10
0.0
 20
0.0
 30
0.0
  9
$UCSORGRIGHT
 10
0.0
 20
0.0
 30
0.0
  9
$UCSORGFRONT
 10
0.0
 20
0.0
 30
0.0
  9
$UCSORGBACK
 10
0.0
 20
0.0
 30
0.0
  9
$PUCSBASE
  2

  9
$PUCSNAME
  2

  9
$PUCSORG
 10
0.0
 20
0.0
 30
0.0
  9
$PUCSXDIR
 10
1.0
 20
0.0
 30
0.0
  9
$PUCSYDIR
 10
0.0
 20
1.0
 30
0.0
  9
$PUCSORTHOREF
  2

  9
$PUCSORTHOVIEW
 70
     0
  9
$PUCSORGTOP
 10
0.0
 20
0.0
 30
0.0
  9
$PUCSORGBOTTOM
 10
0.0
 20
0.0
 30
0.0
  9
$PUCSORGLEFT
 10
0.0
 20
0.0
 30
0.0
  9
$PUCSORGRIGHT
 10
0.0
 20
0.0
 30
0.0
  9
$PUCSORGFRONT
 10
0.0
 20
0.0
 30
0.0
  9
$PUCSORGBACK
 10
0.0
 20
0.0
 30
0.0
  9
$USERI1
 70
     0
  9
$USERI2
 70
     0
  9
$USERI3
 70
     0
  9
$USERI4
 70
     0
  9
$USERI5
 70
     0
  9
$USERR1
 40
0.0
  9
$USERR2
 40
0.0
  9
$USERR3
 40
0.0
  9
$USERR4
 40
0.0
  9
$USERR5
 40
0.0
  9
$WORLDVIEW
 70
     1
  9
$SHADEDGE
 70
     3
  9
$SHADEDIF
 70
    70
  9
$TILEMODE
 70
     1
  9
$MAXACTVP
 70
    64
  9
$PINSBASE
 10
0.0
 20
0.0
 30
0.0
  9
$PLIMCHECK
 70
     0
  9
$PEXTMIN
 10
1.000000000000000E+20
 20
1.000000000000000E+20
 30
1.000000000000000E+20
  9
$PEXTMAX
 10
-1.000000000000000E+20
 20
-1.000000000000000E+20
 30
-1.000000000000000E+20
  9
$PLIMMIN
 10
0.0
 20
0.0
  9
$PLIMMAX
 10
12.0
 20
9.0
  9
$UNITMODE
 70
     0
  9
$VISRETAIN
 70
     1
  9
$PLINEGEN
 70
     0
  9
$PSLTSCALE
 70
     1
  9
$TREEDEPTH
 70
  3020
  9
$CMLSTYLE
  2
Standard
  9
$CMLJUST
 70
     0
  9
$CMLSCALE
 40
1.0
  9
$PROXYGRAPHICS
 70
     1
  9
$MEASUREMENT
 70
     0
  9
$CELWEIGHT
370
    -1
  9
$ENDCAPS
280
     0
  9
$JOINSTYLE
280
     0
  9
$LWDISPLAY
290
     1
  9
$INSUNITS
 70
     1
  9
$HYPERLINKBASE
  1

  9
$STYLESHEET
  1

  9
$XEDIT
290
     1
  9
$CEPSNTYPE
380
     0
  9
$PSTYLEMODE
290
     1
  9
$FINGERPRINTGUID
  2
{8F75BCC1-825C-DE44-54F9-65AC6EFF06FF}
  9
$VERSIONGUID
  2
{FAEB1C32-E019-11D5-929B-00C0DF256EC4}
  9
$EXTNAMES
290
     1
  9
$PSVPSCALE
 40
0.0
  9
$OLESTARTUP
290
     0
  9
$SORTENTS
280
   127
  9
$INDEXCTL
280
     0
  9
$HIDETEXT
280
     1
  9
$XCLIPFRAME
280
     2
  9
$HALOGAP
280
     0
  9
$OBSCOLOR
 70
   257
  9
$OBSLTYPE
280
     0
  9
$INTERSECTIONDISPLAY
280
     0
  9
$INTERSECTIONCOLOR
 70
   257
  9
$DIMASSOC
280
     2
  9
$PROJECTNAME
  1

  9
$CAMERADISPLAY
290
     0
  9
$LENSLENGTH
 40
50.0
  9
$CAMERAHEIGHT
 40
0.0
  9
$STEPSPERSEC
 40
2.0
  9
$STEPSIZE
 40
6.0
  9
$3DDWFPREC
 40
2.0
  9
$PSOLWIDTH
 40
0.25
  9
$PSOLHEIGHT
 40
4.0
  9
$LOFTANG1
 40
1.570796326794897
  9
$LOFTANG2
 40
1.570796326794897
  9
$LOFTMAG1
 40
0.0
  9
$LOFTMAG2
 40
0.0
  9
$LOFTPARAM
 70
     7
  9
$LOFTNORMALS
280
     1
  9
$LATITUDE
 40
37.795
  9
$LONGITUDE
 40
-122.394
  9
$NORTHDIRECTION
 40
0.0
  9
$TIMEZONE
 70
 -8000
  9
$LIGHTGLYPHDISPLAY
280
     1
  9
$TILEMODELIGHTSYNCH
280
     1
  9
$CMATERIAL
347
3C
  9
$SOLIDHIST
280
     1
  9
$SHOWHIST
280
     1
  9
$DWFFRAME
280
     2
  9
$DGNFRAME
280
     2
  9
$REALWORLDSCALE
290
     1
  9
$INTERFERECOLOR
 62
   256
  9
$CSHADOW
280
     0
  9
$SHADOWPLANELOCATION
 40
0.0
  0
ENDSEC
  0
SECTION
  2
CLASSES
  0
CLASS
  1
ACDBDICTIONARYWDFLT
  2
AcDbDictionaryWithDefault
  3
ObjectDBX Classes
 90
        0
 91
        4
280
     0
281
     0
  0
CLASS
  1
VISUALSTYLE
  2
AcDbVisualStyle
  3
ObjectDBX Classes
 90
     4095
 91
        4
280
     0
281
     0
  0
CLASS
  1
MATERIAL
  2
AcDbMaterial
  3
ObjectDBX Classes
 90
     1153
 91
        4
280
     0
281
     0
  0
CLASS
  1
SUN
  2
AcDbSun
  3
SCENEOE
 90
     1024
 91
        4
280
     0
281
     0
  0
ENDSEC
  0
SECTION
  2
TABLES
  0
TABLE
  2
VPORT
  5
8
330
0
100
AcDbSymbolTable
 70
     1
  0
VPORT
  5
29
330
8
100
AcDbSymbolTableRecord
100
AcDbViewportTableRecord
  2
*Active
 70
     0
 10
0.0
 20
0.0
 11
1.0
 21
1.0
 12
0.0
 22
0.0
 13
0.0
 23
0.0
 14
0.5
 24
0.5
 15
0.5
 25
0.5
 16
0.0
 26
0.0
 36
1.0
 17
63.499999984125
 27
-89.00059456108309
 37
0.0
 40
178.0011891221662
 41
0.7134783795241226
 42
50.0
 43
0.0
 44
0.0
 50
0.0
 51
0.0
 71
     0
 72
   100
 73
     1
 74
     3
 75
     0
 76
     0
 77
     0
 78
     0
281
     0
 65
     1
110
0.0
120
0.0
130
0.0
111
1.0
121
0.0
131
0.0
112
0.0
122
1.0
132
0.0
 79
     0
146
0.0
 60
     3
 61
     5
292
     1
282
     1
141
0.0
142
0.0
 63
   250
361
3F
  0
ENDTAB
  0
TABLE
  2
LTYPE
  5
5
330
0
100
AcDbSymbolTable
 70
     4
  0
LTYPE
  5
14
330
5
100
AcDbSymbolTableRecord
100
AcDbLinetypeTableRecord
  2
ByBlock
 70
     0
  3

 72
    65
 73
     0
 40
0.0
  0
LTYPE
  5
15
330
5
100
AcDbSymbolTableRecord
100
AcDbLinetypeTableRecord
  2
ByLayer
 70
     0
  3

 72
    65
 73
     0
 40
0.0
  0
LTYPE
  5
16
330
5
100
AcDbSymbolTableRecord
100
AcDbLinetypeTableRecord
  2
Continuous
 70
     0
  3
Solid line
 72
    65
 73
     0
 40
0.0
  0
LTYPE
  5
7C
330
5
100
AcDbSymbolTableRecord
100
AcDbLinetypeTableRecord
  2
AI-Linetype-1
 70
     0
  3
Adobe Illustrator Linetype No. 1
 72
    65
 73
     2
 40
1.411111110758333
 49
0.7055555553791667
 74
     0
 49
-0.7055555553791667
 74
     0
  0
LTYPE
  5
81
330
5
100
AcDbSymbolTableRecord
100
AcDbLinetypeTableRecord
  2
AI-Linetype-2
 70
     0
  3
Adobe Illustrator Linetype No. 2
 72
    65
 73
     2
 40
1.411111110758333
 49
0.7055555553791667
 74
     0
 49
-0.7055555553791667
 74
     0
  0
LTYPE
  5
86
330
5
100
AcDbSymbolTableRecord
100
AcDbLinetypeTableRecord
  2
AI-Linetype-3
 70
     0
  3
Adobe Illustrator Linetype No. 3
 72
    65
 73
     2
 40
1.411111110758333
 49
0.7055555553791667
 74
     0
 49
-0.7055555553791667
 74
     0
  0
ENDTAB
  0
TABLE
  2
LAYER
  5
2
330
0
100
AcDbSymbolTable
 70
     2
  0
LAYER
  5
10
330
2
100
AcDbSymbolTableRecord
100
AcDbLayerTableRecord
  2
0
 70
     0
 62
     7
  6
Continuous
370
    -3
390
F
347
3E
  0
LAYER
  5
40
330
2
100
AcDbSymbolTableRecord
100
AcDbLayerTableRecord
  2
_U+30EC_U+30A4_U+30E4_U+30FC 1
 70
     0
 62
     7
  6
Continuous
370
    -3
390
F
347
3E
  0
ENDTAB
  0
TABLE
  2
STYLE
  5
3
330
0
100
AcDbSymbolTable
 70
     1
  0
STYLE
  5
11
330
3
100
AcDbSymbolTableRecord
100
AcDbTextStyleTableRecord
  2
Standard
 70
     0
 40
0.0
 41
1.0
 50
0.0
 71
     0
 42
0.2
  3
txt
  4

  0
ENDTAB
  0
TABLE
  2
VIEW
  5
6
330
0
100
AcDbSymbolTable
 70
     0
  0
ENDTAB
  0
TABLE
  2
UCS
  5
7
330
0
100
AcDbSymbolTable
 70
     0
  0
ENDTAB
  0
TABLE
  2
APPID
  5
9
330
0
100
AcDbSymbolTable
 70
     1
  0
APPID
  5
12
330
9
100
AcDbSymbolTableRecord
100
AcDbRegAppTableRecord
  2
ACAD
 70
     0
  0
ENDTAB
  0
TABLE
  2
DIMSTYLE
  5
A
330
0
100
AcDbSymbolTable
 70
     1
100
AcDbDimStyleTable
  0
DIMSTYLE
105
27
330
A
100
AcDbSymbolTableRecord
100
AcDbDimStyleTableRecord
  2
Standard
 70
     0
178
     0
340
11
  0
ENDTAB
  0
TABLE
  2
BLOCK_RECORD
  5
1
330
0
100
AcDbSymbolTable
 70
    17
  0
BLOCK_RECORD
  5
1F
330
1
100
AcDbSymbolTableRecord
100
AcDbBlockTableRecord
  2
*Model_Space
340
22
 70
     0
280
     1
281
     0
  0
BLOCK_RECORD
  5
1B
330
1
100
AcDbSymbolTableRecord
100
AcDbBlockTableRecord
  2
*Paper_Space
340
1E
 70
     0
280
     1
281
     0
  0
BLOCK_RECORD
  5
23
330
1
100
AcDbSymbolTableRecord
100
AcDbBlockTableRecord
  2
*Paper_Space0
340
26
 70
     0
280
     1
281
     0
  0
BLOCK_RECORD
  5
A4
330
1
100
AcDbSymbolTableRecord
100
AcDbBlockTableRecord
  2
block 2
340
0
102
{BLKREFS
331
A5
102
}
 70
     0
280
     1
281
     0
  0
BLOCK_RECORD
  5
B8
330
1
100
AcDbSymbolTableRecord
100
AcDbBlockTableRecord
  2
block 3
340
0
102
{BLKREFS
331
B9
102
}
 70
     0
280
     1
281
     0
  0
BLOCK_RECORD
  5
BE
330
1
100
AcDbSymbolTableRecord
100
AcDbBlockTableRecord
  2
block 4
340
0
102
{BLKREFS
331
BF
102
}
 70
     0
280
     1
281
     0
  0
BLOCK_RECORD
  5
CE
330
1
100
AcDbSymbolTableRecord
100
AcDbBlockTableRecord
  2
block 5
340
0
102
{BLKREFS
331
CF
102
}
 70
     0
280
     1
281
     0
  0
BLOCK_RECORD
  5
D6
330
1
100
AcDbSymbolTableRecord
100
AcDbBlockTableRecord
  2
block 6
340
0
102
{BLKREFS
331
D7
102
}
 70
     0
280
     1
281
     0
  0
BLOCK_RECORD
  5
EA
330
1
100
AcDbSymbolTableRecord
100
AcDbBlockTableRecord
  2
block 7
340
0
102
{BLKREFS
331
EB
102
}
 70
     0
280
     1
281
     0
  0
BLOCK_RECORD
  5
FB
330
1
100
AcDbSymbolTableRecord
100
AcDbBlockTableRecord
  2
block 8
340
0
102
{BLKREFS
331
FC
102
}
 70
     0
280
     1
281
     0
  0
BLOCK_RECORD
  5
10B
330
1
100
AcDbSymbolTableRecord
100
AcDbBlockTableRecord
  2
block 9
340
0
102
{BLKREFS
331
10C
102
}
 70
     0
280
     1
281
     0
  0
BLOCK_RECORD
  5
114
330
1
100
AcDbSymbolTableRecord
100
AcDbBlockTableRecord
  2
block 10
340
0
102
{BLKREFS
331
115
102
}
 70
     0
280
     1
281
     0
  0
BLOCK_RECORD
  5
120
330
1
100
AcDbSymbolTableRecord
100
AcDbBlockTableRecord
  2
block 11
340
0
102
{BLKREFS
331
121
102
}
 70
     0
280
     1
281
     0
  0
BLOCK_RECORD
  5
128
330
1
100
AcDbSymbolTableRecord
100
AcDbBlockTableRecord
  2
block 12
340
0
102
{BLKREFS
331
129
102
}
 70
     0
280
     1
281
     0
  0
BLOCK_RECORD
  5
13C
330
1
100
AcDbSymbolTableRecord
100
AcDbBlockTableRecord
  2
block 13
340
0
102
{BLKREFS
331
13D
102
}
 70
     0
280
     1
281
     0
  0
BLOCK_RECORD
  5
14C
330
1
100
AcDbSymbolTableRecord
100
AcDbBlockTableRecord
  2
block 14
340
0
102
{BLKREFS
331
14D
102
}
 70
     0
280
     1
281
     0
  0
BLOCK_RECORD
  5
158
330
1
100
AcDbSymbolTableRecord
100
AcDbBlockTableRecord
  2
block 15
340
0
102
{BLKREFS
331
159
102
}
 70
     0
280
     1
281
     0
  0
BLOCK_RECORD
  5
160
330
1
100
AcDbSymbolTableRecord
100
AcDbBlockTableRecord
  2
block 16
340
0
102
{BLKREFS
331
161
102
}
 70
     0
280
     1
281
     0
  0
BLOCK_RECORD
  5
179
330
1
100
AcDbSymbolTableRecord
100
AcDbBlockTableRecord
  2
block 17
340
0
102
{BLKREFS
331
17A
102
}
 70
     0
280
     1
281
     0
  0
ENDTAB
  0
ENDSEC
  0
SECTION
  2
BLOCKS
  0
BLOCK
  5
20
330
1F
100
AcDbEntity
  8
0
100
AcDbBlockBegin
  2
*Model_Space
 70
     0
 10
0.0
 20
0.0
 30
0.0
  3
*Model_Space
  1

  0
ENDBLK
  5
21
330
1F
100
AcDbEntity
  8
0
100
AcDbBlockEnd
  0
BLOCK
  5
1C
330
1B
100
AcDbEntity
 67
     1
  8
0
100
AcDbBlockBegin
  2
*Paper_Space
 70
     0
 10
0.0
 20
0.0
 30
0.0
  3
*Paper_Space
  1

  0
ENDBLK
  5
1D
330
1B
100
AcDbEntity
 67
     1
  8
0
100
AcDbBlockEnd
  0
BLOCK
  5
24
330
23
100
AcDbEntity
  8
0
100
AcDbBlockBegin
  2
*Paper_Space0
 70
     0
 10
0.0
 20
0.0
 30
0.0
  3
*Paper_Space0
  1

  0
ENDBLK
  5
25
330
23
100
AcDbEntity
  8
0
100
AcDbBlockEnd
  0
BLOCK
  5
A6
330
A4
100
AcDbEntity
  8
0
100
AcDbBlockBegin
  2
block 2
 70
     0
 10
0.0
 20
0.0
 30
0.0
  3
block 2
  1

  0
POLYLINE
  5
A8
330
A4
100
AcDbEntity
  8
_U+30EC_U+30A4_U+30E4_U+30FC 1
 62
   179
420
  2234388
370
     9
100
AcDb2dPolyline
 66
     1
 10
0.0
 20
0.0
 30
0.0
  0
VERTEX
  5
A9
330
A8
100
AcDbEntity
  8
_U+30EC_U+30A4_U+30E4_U+30FC 1
 62
   179
420
  2234388
370
     9
100
AcDbVertex
100
AcDb2dVertex
 10
85.23371949217332
 20
-82.34672942385761
 30
0.0
  0
VERTEX
  5
AA
330
A8
100
AcDbEntity
  8
_U+30EC_U+30A4_U+30E4_U+30FC 1
 62
   179
420
  2234388
370
     9
100
AcDbVertex
100
AcDb2dVertex
 10
85.23371949217332
 20
-78.5764169248002
 30
0.0
  0
SEQEND
  5
AB
330
A8
100
AcDbEntity
  8
_U+30EC_U+30A4_U+30E4_U+30FC 1
 62
   179
420
  2234388
370
     9
  0
POLYLINE
  5
AC
330
A4
100
AcDbEntity
  8
_U+30EC_U+30A4_U+30E4_U+30FC 1
 62
   179
420
  2234388
370
     9
100
AcDb2dPolyline
 66
     1
 10
0.0
 20
0.0
 30
0.0
  0
VERTEX
  5
AD
330
AC
100
AcDbEntity
  8
_U+30EC_U+30A4_U+30E4_U+30FC 1
 62
   179
420
  2234388
370
     9
100
AcDbVertex
100
AcDb2dVertex
 10
85.23371949217332
 20
-82.34672942385761
 30
0.0
  0
VERTEX
  5
AE
330
AC
100
AcDbEntity
  8
_U+30EC_U+30A4_U+30E4_U+30FC 1
 62
   179
420
  2234388
370
     9
100
AcDbVertex
100
AcDb2dVertex
 10
85.23371949217332
 20
-83.34720720138536
 30
0.0
  0
SEQEND
  5
AF
330
AC
100
AcDbEntity
  8
_U+30EC_U+30A4_U+30E4_U+30FC 1
 62
   179
420
  2234388
370
     9
  0
POLYLINE
  5
B0
330
A4
100
AcDbEntity
  8
_U+30EC_U+30A4_U+30E4_U+30FC 1
 62
   179
420
  2234388
370
     9
100
AcDb2dPolyline
 66
     1
 10
0.0
 20
0.0
 30
0.0
  0
VERTEX
  5
B1
330
B0
100
AcDbEntity
  8
_U+30EC_U+30A4_U+30E4_U+30FC 1
 62
   179
420
  2234388
370
     9
100
AcDbVertex
100
AcDb2dVertex
 10
83.77371341831007
 20
-82.34672942385761
 30
0.0
  0
VERTEX
  5
B2
330
B0
100
AcDbEntity
  8
_U+30EC_U+30A4_U+30E4_U+30FC 1
 62
   179
420
  2234388
370
     9
100
AcDbVertex
100
AcDb2dVertex
 10
86.23349168888923
 20
-82.34672942385761
 30
0.0
  0
SEQEND
  5
B3
330
B0
100
AcDbEntity
  8
_U+30EC_U+30A4_U+30E4_U+30FC 1
 62
   179
420
  2234388
370
     9
  0
POLYLINE
  5
B4
330
A4
100
AcDbEntity
  8
_U+30EC_U+30A4_U+30E4_U+30FC 1
 62
   179
420
  2234388
370
     9
100
AcDb2dPolyline
 66
     1
 10
0.0
 20
0.0
 30
0.0
  0
VERTEX
  5
B5
330
B4
100
AcDbEntity
  8
_U+30EC_U+30A4_U+30E4_U+30FC 1
 62
   179
420
  2234388
370
     9
100
AcDbVertex
100
AcDb2dVertex
 10
83.77371341831007
 20
-83.34720720138536
 30
0.0
  0
VERTEX
  5
B6
330
B4
100
AcDbEntity
  8
_U+30EC_U+30A4_U+30E4_U+30FC 1
 62
   179
420
  2234388
370
     9
100
AcDbVertex
100
AcDb2dVertex
 10
86.23349168888923
 20
-83.34720720138536
 30
0.0
  0
SEQEND
  5
B7
330
B4
100
AcDbEntity
  8
_U+30EC_U+30A4_U+30E4_U+30FC 1
 62
   179
420
  2234388
370
     9
  0
INSERT
  5
B9
330
A4
100
AcDbEntity
  8
_U+30EC_U+30A4_U+30E4_U+30FC 1
100
AcDbBlockReference
  2
block 3
 10
0.0
 20
0.0
 30
0.0
  0
ENDBLK
  5
A7
330
A4
100
AcDbEntity
  8
0
100
AcDbBlockEnd
  0
BLOCK
  5
BA
330
B8
100
AcDbEntity
  8
0
100
AcDbBlockBegin
  2
block 3
 70
     0
 10
0.0
 20
0.0
 30
0.0
  3
block 3
  1

  0
SPLINE
  5
BC
330
B8
100
AcDbEntity
  8
_U+30EC_U+30A4_U+30E4_U+30FC 1
370
     0
100
AcDbSpline
210
0.0
220
0.0
230
1.0
 70
    11
 71
     3
 72
    26
 73
    22
 74
     0
 42
0.0000000001
 43
0.0000000001
 12
1.0
 22
0.0
 32
0.0
 13
1.0
 23
0.0
 33
0.0
 40
0.0
 40
0.0
 40
0.0
 40
0.0
 40
1.0
 40
1.0
 40
1.0
 40
2.0
 40
2.0
 40
2.0
 40
3.0
 40
3.0
 40
3.0
 40
4.0
 40
4.0
 40
4.0
 40
5.0
 40
5.0
 40
5.0
 40
6.0
 40
6.0
 40
6.0
 40
7.0
 40
7.0
 40
7.0
 40
7.0
 10
84.58777395888778
 20
-79.38671330480611
 30
0.0
 10
84.58777395888778
 20
-79.38671330480611
 30
0.0
 10
83.48362085586521
 20
-79.38671330480611
 30
0.0
 10
83.48362085586521
 20
-79.38671330480611
 30
0.0
 10
83.48362085586521
 20
-79.38671330480611
 30
0.0
 10
83.48362085586521
 20
-79.66817760595102
 30
0.0
 10
83.48362085586521
 20
-79.66817760595102
 30
0.0
 10
83.48362085586521
 20
-79.66817760595102
 30
0.0
 10
83.33548174999947
 20
-79.66817760595102
 30
0.0
 10
83.33548174999947
 20
-79.66817760595102
 30
0.0
 10
83.32066783941289
 20
-79.38499075706348
 30
0.0
 10
83.15771482296057
 20
-79.34537215898311
 30
0.0
 10
83.04333765285028
 20
-79.32022296194079
 30
0.0
 10
83.04333765285028
 20
-79.32022296194079
 30
0.0
 10
83.04333765285028
 20
-79.19551050537474
 30
0.0
 10
83.04333765285028
 20
-79.19551050537474
 30
0.0
 10
83.04333765285028
 20
-79.19551050537474
 30
0.0
 10
84.58777395888778
 20
-79.19551050537474
 30
0.0
 10
84.58777395888778
 20
-79.19551050537474
 30
0.0
 10
84.58777395888778
 20
-79.19551050537474
 30
0.0
 10
84.58777395888778
 20
-79.38671330480611
 30
0.0
 10
84.58777395888778
 20
-79.38671330480611
 30
0.0
  0
HATCH
  5
BD
330
B8
100
AcDbEntity
  8
_U+30EC_U+30A4_U+30E4_U+30FC 1
 62
   179
420
  2234388
100
AcDbHatch
 10
0.0
 20
0.0
 30
0.0
210
0.0
220
0.0
230
1.0
  2
SOLID
 70
     1
 71
     0
 91
        1
 92
        1
 93
        1
 72
     4
 94
        3
 73
     0
 74
     1
 95
       26
 96
       22
 40
0.0
 40
0.0
 40
0.0
 40
0.0
 40
1.0
 40
1.0
 40
1.0
 40
2.0
 40
2.0
 40
2.0
 40
3.0
 40
3.0
 40
3.0
 40
4.0
 40
4.0
 40
4.0
 40
5.0
 40
5.0
 40
5.0
 40
6.0
 40
6.0
 40
6.0
 40
7.0
 40
7.0
 40
7.0
 40
7.0
 10
84.58777395888778
 20
-79.38671330480611
 10
84.58777395888778
 20
-79.38671330480611
 10
83.48362085586521
 20
-79.38671330480611
 10
83.48362085586521
 20
-79.38671330480611
 10
83.48362085586521
 20
-79.38671330480611
 10
83.48362085586521
 20
-79.66817760595102
 10
83.48362085586521
 20
-79.66817760595102
 10
83.48362085586521
 20
-79.66817760595102
 10
83.33548174999947
 20
-79.66817760595102
 10
83.33548174999947
 20
-79.66817760595102
 10
83.32066783941289
 20
-79.38499075706348
 10
83.15771482296057
 20
-79.34537215898311
 10
83.04333765285028
 20
-79.32022296194079
 10
83.04333765285028
 20
-79.32022296194079
 10
83.04333765285028
 20
-79.19551050537474
 10
83.04333765285028
 20
-79.19551050537474
 10
83.04333765285028
 20
-79.19551050537474
 10
84.58777395888778
 20
-79.19551050537474
 10
84.58777395888778
 20
-79.19551050537474
 10
84.58777395888778
 20
-79.19551050537474
 10
84.58777395888778
 20
-79.38671330480611
 10
84.58777395888778
 20
-79.38671330480611
 97
        0
 97
        0
 75
     2
 76
     1
 98
        0
  0
ENDBLK
  5
BB
330
B8
100
AcDbEntity
  8
0
100
AcDbBlockEnd
  0
BLOCK
  5
C0
330
BE
100
AcDbEntity
  8
0
100
AcDbBlockBegin
  2
block 4
 70
     0
 10
0.0
 20
0.0
 30
0.0
  3
block 4
  1

  0
POLYLINE
  5
C2
330
BE
100
AcDbEntity
  8
_U+30EC_U+30A4_U+30E4_U+30FC 1
 62
   179
420
  2234388
370
     9
100
AcDb2dPolyline
 66
     1
 10
0.0
 20
0.0
 30
0.0
  0
VERTEX
  5
C3
330
C2
100
AcDbEntity
  8
_U+30EC_U+30A4_U+30E4_U+30FC 1
 62
   179
420
  2234388
370
     9
100
AcDbVertex
100
AcDb2dVertex
 10
81.23396042754901
 20
-78.34697025819105
 30
0.0
  0
VERTEX
  5
C4
330
C2
100
AcDbEntity
  8
_U+30EC_U+30A4_U+30E4_U+30FC 1
 62
   179
420
  2234388
370
     9
100
AcDbVertex
100
AcDb2dVertex
 10
44.23364026039471
 20
-78.34697025819105
 30
0.0
  0
SEQEND
  5
C5
330
C2
100
AcDbEntity
  8
_U+30EC_U+30A4_U+30E4_U+30FC 1
 62
   179
420
  2234388
370
     9
  0
POLYLINE
  5
C6
330
BE
100
AcDbEntity
  8
_U+30EC_U+30A4_U+30E4_U+30FC 1
 62
   179
420
  2234388
370
     9
100
AcDb2dPolyline
 66
     1
 10
0.0
 20
0.0
 30
0.0
  0
VERTEX
  5
C7
330
C6
100
AcDbEntity
  8
_U+30EC_U+30A4_U+30E4_U+30FC 1
 62
   179
420
  2234388
370
     9
100
AcDbVertex
100
AcDb2dVertex
 10
81.23396042754901
 20
-79.80701164671476
 30
0.0
  0
VERTEX
  5
C8
330
C6
100
AcDbEntity
  8
_U+30EC_U+30A4_U+30E4_U+30FC 1
 62
   179
420
  2234388
370
     9
100
AcDbVertex
100
AcDb2dVertex
 10
81.23396042754901
 20
-77.3468805362189
 30
0.0
  0
SEQEND
  5
C9
330
C6
100
AcDbEntity
  8
_U+30EC_U+30A4_U+30E4_U+30FC 1
 62
   179
420
  2234388
370
     9
  0
POLYLINE
  5
CA
330
BE
100
AcDbEntity
  8
_U+30EC_U+30A4_U+30E4_U+30FC 1
 62
   179
420
  2234388
370
     9
100
AcDb2dPolyline
 66
     1
 10
0.0
 20
0.0
 30
0.0
  0
VERTEX
  5
CB
330
CA
100
AcDbEntity
  8
_U+30EC_U+30A4_U+30E4_U+30FC 1
 62
   179
420
  2234388
370
     9
100
AcDbVertex
100
AcDb2dVertex
 10
44.23364026039471
 20
-79.80701164671476
 30
0.0
  0
VERTEX
  5
CC
330
CA
100
AcDbEntity
  8
_U+30EC_U+30A4_U+30E4_U+30FC 1
 62
   179
420
  2234388
370
     9
100
AcDbVertex
100
AcDb2dVertex
 10
44.23364026039471
 20
-77.3468805362189
 30
0.0
  0
SEQEND
  5
CD
330
CA
100
AcDbEntity
  8
_U+30EC_U+30A4_U+30E4_U+30FC 1
 62
   179
420
  2234388
370
     9
  0
INSERT
  5
CF
330
BE
100
AcDbEntity
  8
_U+30EC_U+30A4_U+30E4_U+30FC 1
100
AcDbBlockReference
  2
block 5
 10
0.0
 20
0.0
 30
0.0
  0
ENDBLK
  5
C1
330
BE
100
AcDbEntity
  8
0
100
AcDbBlockEnd
  0
BLOCK
  5
D0
330
CE
100
AcDbEntity
  8
0
100
AcDbBlockBegin
  2
block 5
 70
     0
 10
0.0
 20
0.0
 30
0.0
  3
block 5
  1

  0
SPLINE
  5
D2
330
CE
100
AcDbEntity
  8
_U+30EC_U+30A4_U+30E4_U+30FC 1
370
     0
100
AcDbSpline
210
0.0
220
0.0
230
1.0
 70
    11
 71
     3
 72
    62
 73
    58
 74
     0
 42
0.0000000001
 43
0.0000000001
 12
1.0
 22
0.0
 32
0.0
 13
1.0
 23
0.0
 33
0.0
 40
0.0
 40
0.0
 40
0.0
 40
0.0
 40
1.0
 40
1.0
 40
1.0
 40
2.0
 40
2.0
 40
2.0
 40
3.0
 40
3.0
 40
3.0
 40
4.0
 40
4.0
 40
4.0
 40
5.0
 40
5.0
 40
5.0
 40
6.0
 40
6.0
 40
6.0
 40
7.0
 40
7.0
 40
7.0
 40
8.0
 40
8.0
 40
8.0
 40
9.0
 40
9.0
 40
9.0
 40
10.0
 40
10.0
 40
10.0
 40
11.0
 40
11.0
 40
11.0
 40
12.0
 40
12.0
 40
12.0
 40
13.0
 40
13.0
 40
13.0
 40
14.0
 40
14.0
 40
14.0
 40
15.0
 40
15.0
 40
15.0
 40
16.0
 40
16.0
 40
16.0
 40
17.0
 40
17.0
 40
17.0
 40
18.0
 40
18.0
 40
18.0
 40
19.0
 40
19.0
 40
19.0
 40
19.0
 10
62.22600367367961
 20
-77.75115422318375
 30
0.0
 10
62.14487167500198
 20
-77.75115422318375
 30
0.0
 10
61.95918102834701
 20
-77.72996688594945
 30
0.0
 10
61.8527275778528
 20
-77.54375947497171
 30
0.0
 10
61.78968233047272
 20
-77.43162161692682
 30
0.0
 10
61.78606498021321
 20
-77.33223061217737
 30
0.0
 10
61.78244762995369
 20
-77.24765351801447
 30
0.0
 10
61.78244762995369
 20
-77.24765351801447
 30
0.0
 10
61.97003307912555
 20
-77.24765351801447
 30
0.0
 10
61.97003307912555
 20
-77.24765351801447
 30
0.0
 10
61.97175562686817
 20
-77.32172307094736
 30
0.0
 10
61.98088512990409
 20
-77.55650632826713
 30
0.0
 10
62.2223863234201
 20
-77.55650632826713
 30
0.0
 10
62.33969182469286
 20
-77.55650632826713
 30
0.0
 10
62.46957192448678
 20
-77.48674314469082
 30
0.0
 10
62.46957192448678
 20
-77.25816105924449
 30
0.0
 10
62.46957192448678
 20
-77.14188908661731
 30
0.0
 10
62.43701577215116
 20
-77.09314098550102
 30
0.0
 10
62.40997177259195
 20
-77.06144610703673
 30
0.0
 10
62.34692652521188
 20
-76.98737655410386
 30
0.0
 10
62.24770777523668
 20
-76.97480195558269
 30
0.0
 10
62.20085447663729
 20
-76.97480195558269
 30
0.0
 10
62.18466252785662
 20
-76.97480195558269
 30
0.0
 10
62.15400117803789
 20
-76.97686901287385
 30
0.0
 10
62.13057452873819
 20
-76.98100312745615
 30
0.0
 10
62.13057452873819
 20
-76.98100312745615
 30
0.0
 10
62.13057452873819
 20
-76.78635523253952
 30
0.0
 10
62.13057452873819
 20
-76.78635523253952
 30
0.0
 10
62.16295842629954
 20
-76.79272865918723
 30
0.0
 10
62.1989596741204
 20
-76.79496797125265
 30
0.0
 10
62.2044718268968
 20
-76.79496797125265
 30
0.0
 10
62.26028237375785
 20
-76.79496797125265
 30
0.0
 10
62.42978107163214
 20
-76.77378063401837
 30
0.0
 10
62.42978107163214
 20
-76.53675806463318
 30
0.0
 10
62.42978107163214
 20
-76.35916339236854
 30
0.0
 10
62.31798772313579
 20
-76.30404186460454
 30
0.0
 10
62.22428112593699
 20
-76.30404186460454
 30
0.0
 10
61.99879962642738
 20
-76.30404186460454
 30
0.0
 10
61.99156492590836
 20
-76.53675806463318
 30
0.0
 10
61.98811983042311
 20
-76.6087605602749
 30
0.0
 10
61.98811983042311
 20
-76.6087605602749
 30
0.0
 10
61.81500378228931
 20
-76.6087605602749
 30
0.0
 10
61.81500378228931
 20
-76.6087605602749
 30
0.0
 10
61.82206622803407
 20
-76.48387584893459
 30
0.0
 10
61.84566513210803
 20
-76.10732691239679
 30
0.0
 10
62.23513317671552
 20
-76.10732691239679
 30
0.0
 10
62.42616372137263
 20
-76.10732691239679
 30
0.0
 10
62.63183592184205
 20
-76.23427868102824
 30
0.0
 10
62.63183592184205
 20
-76.53038463798546
 30
0.0
 10
62.63183592184205
 20
-76.71659204896322
 30
0.0
 10
62.55070392316441
 20
-76.79910208583495
 30
0.0
 10
62.46595457422726
 20
-76.8604247854724
 30
0.0
 10
62.5181477708288
 20
-76.8879855493544
 30
0.0
 10
62.67334932243931
 20
-76.96842852893498
 30
0.0
 10
62.67334932243931
 20
-77.24558646072333
 30
0.0
 10
62.67334932243931
 20
-77.58406709214913
 30
0.0
 10
62.46233722396775
 20
-77.75115422318375
 30
0.0
 10
62.22600367367961
 20
-77.75115422318375
 30
0.0
  0
HATCH
  5
D3
330
CE
100
AcDbEntity
  8
_U+30EC_U+30A4_U+30E4_U+30FC 1
 62
   179
420
  2234388
100
AcDbHatch
 10
0.0
 20
0.0
 30
0.0
210
0.0
220
0.0
230
1.0
  2
SOLID
 70
     1
 71
     0
 91
        1
 92
        1
 93
        1
 72
     4
 94
        3
 73
     0
 74
     1
 95
       62
 96
       58
 40
0.0
 40
0.0
 40
0.0
 40
0.0
 40
1.0
 40
1.0
 40
1.0
 40
2.0
 40
2.0
 40
2.0
 40
3.0
 40
3.0
 40
3.0
 40
4.0
 40
4.0
 40
4.0
 40
5.0
 40
5.0
 40
5.0
 40
6.0
 40
6.0
 40
6.0
 40
7.0
 40
7.0
 40
7.0
 40
8.0
 40
8.0
 40
8.0
 40
9.0
 40
9.0
 40
9.0
 40
10.0
 40
10.0
 40
10.0
 40
11.0
 40
11.0
 40
11.0
 40
12.0
 40
12.0
 40
12.0
 40
13.0
 40
13.0
 40
13.0
 40
14.0
 40
14.0
 40
14.0
 40
15.0
 40
15.0
 40
15.0
 40
16.0
 40
16.0
 40
16.0
 40
17.0
 40
17.0
 40
17.0
 40
18.0
 40
18.0
 40
18.0
 40
19.0
 40
19.0
 40
19.0
 40
19.0
 10
62.22600367367961
 20
-77.75115422318375
 10
62.14487167500198
 20
-77.75115422318375
 10
61.95918102834701
 20
-77.72996688594945
 10
61.8527275778528
 20
-77.54375947497171
 10
61.78968233047272
 20
-77.43162161692682
 10
61.78606498021321
 20
-77.33223061217737
 10
61.78244762995369
 20
-77.24765351801447
 10
61.78244762995369
 20
-77.24765351801447
 10
61.97003307912555
 20
-77.24765351801447
 10
61.97003307912555
 20
-77.24765351801447
 10
61.97175562686817
 20
-77.32172307094736
 10
61.98088512990409
 20
-77.55650632826713
 10
62.2223863234201
 20
-77.55650632826713
 10
62.33969182469286
 20
-77.55650632826713
 10
62.46957192448678
 20
-77.48674314469082
 10
62.46957192448678
 20
-77.25816105924449
 10
62.46957192448678
 20
-77.14188908661731
 10
62.43701577215116
 20
-77.09314098550102
 10
62.40997177259195
 20
-77.06144610703673
 10
62.34692652521188
 20
-76.98737655410386
 10
62.24770777523668
 20
-76.97480195558269
 10
62.20085447663729
 20
-76.97480195558269
 10
62.18466252785662
 20
-76.97480195558269
 10
62.15400117803789
 20
-76.97686901287385
 10
62.13057452873819
 20
-76.98100312745615
 10
62.13057452873819
 20
-76.98100312745615
 10
62.13057452873819
 20
-76.78635523253952
 10
62.13057452873819
 20
-76.78635523253952
 10
62.16295842629954
 20
-76.79272865918723
 10
62.1989596741204
 20
-76.79496797125265
 10
62.2044718268968
 20
-76.79496797125265
 10
62.26028237375785
 20
-76.79496797125265
 10
62.42978107163214
 20
-76.77378063401837
 10
62.42978107163214
 20
-76.53675806463318
 10
62.42978107163214
 20
-76.35916339236854
 10
62.31798772313579
 20
-76.30404186460454
 10
62.22428112593699
 20
-76.30404186460454
 10
61.99879962642738
 20
-76.30404186460454
 10
61.99156492590836
 20
-76.53675806463318
 10
61.98811983042311
 20
-76.6087605602749
 10
61.98811983042311
 20
-76.6087605602749
 10
61.81500378228931
 20
-76.6087605602749
 10
61.81500378228931
 20
-76.6087605602749
 10
61.82206622803407
 20
-76.48387584893459
 10
61.84566513210803
 20
-76.10732691239679
 10
62.23513317671552
 20
-76.10732691239679
 10
62.42616372137263
 20
-76.10732691239679
 10
62.63183592184205
 20
-76.23427868102824
 10
62.63183592184205
 20
-76.53038463798546
 10
62.63183592184205
 20
-76.71659204896322
 10
62.55070392316441
 20
-76.79910208583495
 10
62.46595457422726
 20
-76.8604247854724
 10
62.5181477708288
 20
-76.8879855493544
 10
62.67334932243931
 20
-76.96842852893498
 10
62.67334932243931
 20
-77.24558646072333
 10
62.67334932243931
 20
-77.58406709214913
 10
62.46233722396775
 20
-77.75115422318375
 10
62.22600367367961
 20
-77.75115422318375
 97
        0
 97
        0
 75
     2
 76
     1
 98
        0
  0
SPLINE
  5
D4
330
CE
100
AcDbEntity
  8
_U+30EC_U+30A4_U+30E4_U+30FC 1
370
     0
100
AcDbSpline
210
0.0
220
0.0
230
1.0
 70
    11
 71
     3
 72
    26
 73
    22
 74
     0
 42
0.0000000001
 43
0.0000000001
 12
1.0
 22
0.0
 32
0.0
 13
1.0
 23
0.0
 33
0.0
 40
0.0
 40
0.0
 40
0.0
 40
0.0
 40
1.0
 40
1.0
 40
1.0
 40
2.0
 40
2.0
 40
2.0
 40
3.0
 40
3.0
 40
3.0
 40
4.0
 40
4.0
 40
4.0
 40
5.0
 40
5.0
 40
5.0
 40
6.0
 40
6.0
 40
6.0
 40
7.0
 40
7.0
 40
7.0
 40
7.0
 10
63.15945229540806
 20
-77.7003390647763
 30
0.0
 10
63.15945229540806
 20
-77.7003390647763
 30
0.0
 10
62.95739744519815
 20
-77.7003390647763
 30
0.0
 10
62.95739744519815
 20
-77.7003390647763
 30
0.0
 10
62.97910154675522
 20
-77.39148625452366
 30
0.0
 10
63.14308809185312
 20
-76.87317163876781
 30
0.0
 10
63.48932018812073
 20
-76.36760387630741
 30
0.0
 10
63.48932018812073
 20
-76.36760387630741
 30
0.0
 10
62.7753241488027
 20
-76.36760387630741
 30
0.0
 10
62.7753241488027
 20
-76.36760387630741
 30
0.0
 10
62.7753241488027
 20
-76.36760387630741
 30
0.0
 10
62.7753241488027
 20
-76.15607501351307
 30
0.0
 10
62.7753241488027
 20
-76.15607501351307
 30
0.0
 10
62.7753241488027
 20
-76.15607501351307
 30
0.0
 10
63.69137503833063
 20
-76.15607501351307
 30
0.0
 10
63.69137503833063
 20
-76.15607501351307
 30
0.0
 10
63.69137503833063
 20
-76.15607501351307
 30
0.0
 10
63.69137503833063
 20
-76.36760387630741
 30
0.0
 10
63.69137503833063
 20
-76.36760387630741
 30
0.0
 10
63.41542288996212
 20
-76.65733640661692
 30
0.0
 10
63.18821884270989
 20
-77.24972057530563
 30
0.0
 10
63.15945229540806
 20
-77.7003390647763
 30
0.0
  0
HATCH
  5
D5
330
CE
100
AcDbEntity
  8
_U+30EC_U+30A4_U+30E4_U+30FC 1
 62
   179
420
  2234388
100
AcDbHatch
 10
0.0
 20
0.0
 30
0.0
210
0.0
220
0.0
230
1.0
  2
SOLID
 70
     1
 71
     0
 91
        1
 92
        1
 93
        1
 72
     4
 94
        3
 73
     0
 74
     1
 95
       26
 96
       22
 40
0.0
 40
0.0
 40
0.0
 40
0.0
 40
1.0
 40
1.0
 40
1.0
 40
2.0
 40
2.0
 40
2.0
 40
3.0
 40
3.0
 40
3.0
 40
4.0
 40
4.0
 40
4.0
 40
5.0
 40
5.0
 40
5.0
 40
6.0
 40
6.0
 40
6.0
 40
7.0
 40
7.0
 40
7.0
 40
7.0
 10
63.15945229540806
 20
-77.7003390647763
 10
63.15945229540806
 20
-77.7003390647763
 10
62.95739744519815
 20
-77.7003390647763
 10
62.95739744519815
 20
-77.7003390647763
 10
62.97910154675522
 20
-77.39148625452366
 10
63.14308809185312
 20
-76.87317163876781
 10
63.48932018812073
 20
-76.36760387630741
 10
63.48932018812073
 20
-76.36760387630741
 10
62.7753241488027
 20
-76.36760387630741
 10
62.7753241488027
 20
-76.36760387630741
 10
62.7753241488027
 20
-76.36760387630741
 10
62.7753241488027
 20
-76.15607501351307
 10
62.7753241488027
 20
-76.15607501351307
 10
62.7753241488027
 20
-76.15607501351307
 10
63.69137503833063
 20
-76.15607501351307
 10
63.69137503833063
 20
-76.15607501351307
 10
63.69137503833063
 20
-76.15607501351307
 10
63.69137503833063
 20
-76.36760387630741
 10
63.69137503833063
 20
-76.36760387630741
 10
63.41542288996212
 20
-76.65733640661692
 10
63.18821884270989
 20
-77.24972057530563
 10
63.15945229540806
 20
-77.7003390647763
 97
        0
 97
        0
 75
     2
 76
     1
 98
        0
  0
ENDBLK
  5
D1
330
CE
100
AcDbEntity
  8
0
100
AcDbBlockEnd
  0
BLOCK
  5
D8
330
D6
100
AcDbEntity
  8
0
100
AcDbBlockBegin
  2
block 6
 70
     0
 10
0.0
 20
0.0
 30
0.0
  3
block 6
  1

  0
POLYLINE
  5
DA
330
D6
100
AcDbEntity
  8
_U+30EC_U+30A4_U+30E4_U+30FC 1
 62
   179
420
  2234388
370
     9
100
AcDb2dPolyline
 66
     1
 10
0.0
 20
0.0
 30
0.0
  0
VERTEX
  5
DB
330
DA
100
AcDbEntity
  8
_U+30EC_U+30A4_U+30E4_U+30FC 1
 62
   179
420
  2234388
370
     9
100
AcDbVertex
100
AcDb2dVertex
 10
70.23378515263131
 20
-96.34692719813528
 30
0.0
  0
VERTEX
  5
DC
330
DA
100
AcDbEntity
  8
_U+30EC_U+30A4_U+30E4_U+30FC 1
 62
   179
420
  2234388
370
     9
100
AcDbVertex
100
AcDb2dVertex
 10
70.23378515263131
 20
-91.08902136611636
 30
0.0
  0
SEQEND
  5
DD
330
DA
100
AcDbEntity
  8
_U+30EC_U+30A4_U+30E4_U+30FC 1
 62
   179
420
  2234388
370
     9
  0
POLYLINE
  5
DE
330
D6
100
AcDbEntity
  8
_U+30EC_U+30A4_U+30E4_U+30FC 1
 62
   179
420
  2234388
370
     9
100
AcDb2dPolyline
 66
     1
 10
0.0
 20
0.0
 30
0.0
  0
VERTEX
  5
DF
330
DE
100
AcDbEntity
  8
_U+30EC_U+30A4_U+30E4_U+30FC 1
 62
   179
420
  2234388
370
     9
100
AcDbVertex
100
AcDb2dVertex
 10
70.23378515263131
 20
-96.34692719813528
 30
0.0
  0
VERTEX
  5
E0
330
DE
100
AcDbEntity
  8
_U+30EC_U+30A4_U+30E4_U+30FC 1
 62
   179
420
  2234388
370
     9
100
AcDbVertex
100
AcDb2dVertex
 10
70.23378515263131
 20
-97.64708969781073
 30
0.0
  0
SEQEND
  5
E1
330
DE
100
AcDbEntity
  8
_U+30EC_U+30A4_U+30E4_U+30FC 1
 62
   179
420
  2234388
370
     9
  0
POLYLINE
  5
E2
330
D6
100
AcDbEntity
  8
_U+30EC_U+30A4_U+30E4_U+30FC 1
 62
   179
420
  2234388
370
     9
100
AcDb2dPolyline
 66
     1
 10
0.0
 20
0.0
 30
0.0
  0
VERTEX
  5
E3
330
E2
100
AcDbEntity
  8
_U+30EC_U+30A4_U+30E4_U+30FC 1
 62
   179
420
  2234388
370
     9
100
AcDbVertex
100
AcDb2dVertex
 10
68.77374380099118
 20
-96.34692719813528
 30
0.0
  0
VERTEX
  5
E4
330
E2
100
AcDbEntity
  8
_U+30EC_U+30A4_U+30E4_U+30FC 1
 62
   179
420
  2234388
370
     9
100
AcDbVertex
100
AcDb2dVertex
 10
71.23355734934722
 20
-96.34692719813528
 30
0.0
  0
SEQEND
  5
E5
330
E2
100
AcDbEntity
  8
_U+30EC_U+30A4_U+30E4_U+30FC 1
 62
   179
420
  2234388
370
     9
  0
POLYLINE
  5
E6
330
D6
100
AcDbEntity
  8
_U+30EC_U+30A4_U+30E4_U+30FC 1
 62
   179
420
  2234388
370
     9
100
AcDb2dPolyline
 66
     1
 10
0.0
 20
0.0
 30
0.0
  0
VERTEX
  5
E7
330
E6
100
AcDbEntity
  8
_U+30EC_U+30A4_U+30E4_U+30FC 1
 62
   179
420
  2234388
370
     9
100
AcDbVertex
100
AcDb2dVertex
 10
68.77374380099118
 20
-96.64664719806083
 30
0.0
  0
VERTEX
  5
E8
330
E6
100
AcDbEntity
  8
_U+30EC_U+30A4_U+30E4_U+30FC 1
 62
   179
420
  2234388
370
     9
100
AcDbVertex
100
AcDb2dVertex
 10
71.23355734934722
 20
-96.64664719806083
 30
0.0
  0
SEQEND
  5
E9
330
E6
100
AcDbEntity
  8
_U+30EC_U+30A4_U+30E4_U+30FC 1
 62
   179
420
  2234388
370
     9
  0
INSERT
  5
EB
330
D6
100
AcDbEntity
  8
_U+30EC_U+30A4_U+30E4_U+30FC 1
100
AcDbBlockReference
  2
block 7
 10
0.0
 20
0.0
 30
0.0
  0
ENDBLK
  5
D9
330
D6
100
AcDbEntity
  8
0
100
AcDbBlockEnd
  0
BLOCK
  5
EC
330
EA
100
AcDbEntity
  8
0
100
AcDbBlockBegin
  2
block 7
 70
     0
 10
0.0
 20
0.0
 30
0.0
  3
block 7
  1

  0
SPLINE
  5
EE
330
EA
100
AcDbEntity
  8
_U+30EC_U+30A4_U+30E4_U+30FC 1
370
     0
100
AcDbSpline
210
0.0
220
0.0
230
1.0
 70
    11
 71
     3
 72
    29
 73
    25
 74
     0
 42
0.0000000001
 43
0.0000000001
 12
1.0
 22
0.0
 32
0.0
 13
1.0
 23
0.0
 33
0.0
 40
0.0
 40
0.0
 40
0.0
 40
0.0
 40
1.0
 40
1.0
 40
1.0
 40
2.0
 40
2.0
 40
2.0
 40
3.0
 40
3.0
 40
3.0
 40
4.0
 40
4.0
 40
4.0
 40
5.0
 40
5.0
 40
5.0
 40
6.0
 40
6.0
 40
6.0
 40
7.0
 40
7.0
 40
7.0
 40
8.0
 40
8.0
 40
8.0
 40
8.0
 10
69.4100612890711
 20
-93.74070364409955
 30
0.0
 10
69.61952309457429
 20
-93.83268769355573
 30
0.0
 10
69.63847111974316
 20
-93.98048228987294
 30
0.0
 10
69.63847111974316
 20
-94.07970103984813
 30
0.0
 10
69.63847111974316
 20
-94.21681584016108
 30
0.0
 10
69.5919623306923
 20
-94.33739418214482
 30
0.0
 10
69.4100612890711
 20
-94.41869843559672
 30
0.0
 10
69.21541339415448
 20
-94.50689288001911
 30
0.0
 10
68.97839082476929
 20
-94.52308482879978
 30
0.0
 10
68.8157823178655
 20
-94.52308482879978
 30
0.0
 10
68.67177732658206
 20
-94.52308482879978
 30
0.0
 10
68.4199408466103
 20
-94.50895993731027
 30
0.0
 10
68.22115883711137
 20
-94.41869843559672
 30
0.0
 10
68.01824271303016
 20
-94.32671438614055
 30
0.0
 10
67.99481606373047
 20
-94.18959958582761
 30
0.0
 10
67.99481606373047
 20
-94.07970103984813
 30
0.0
 10
67.99481606373047
 20
-93.94430878727782
 30
0.0
 10
68.03925779549019
 20
-93.82166338800292
 30
0.0
 10
68.22115883711137
 20
-93.74070364409955
 30
0.0
 10
68.41373967473685
 20
-93.6559542951624
 30
0.0
 10
68.64214950540891
 20
-93.63597274134796
 30
0.0
 10
68.8157823178655
 20
-93.63597274134796
 30
0.0
 10
68.98700356348242
 20
-93.63597274134796
 30
0.0
 10
69.21748045144564
 20
-93.65423174741979
 30
0.0
 10
69.4100612890711
 20
-93.74070364409955
 30
0.0
  0
SPLINE
  5
EF
330
EA
100
AcDbEntity
  8
_U+30EC_U+30A4_U+30E4_U+30FC 1
370
     0
100
AcDbSpline
210
0.0
220
0.0
230
1.0
 70
    11
 71
     3
 72
    17
 73
    13
 74
     0
 42
0.0000000001
 43
0.0000000001
 12
1.0
 22
0.0
 32
0.0
 13
1.0
 23
0.0
 33
0.0
 40
0.0
 40
0.0
 40
0.0
 40
0.0
 40
1.0
 40
1.0
 40
1.0
 40
2.0
 40
2.0
 40
2.0
 40
3.0
 40
3.0
 40
3.0
 40
4.0
 40
4.0
 40
4.0
 40
4.0
 10
68.18739690135592
 20
-94.07970103984813
 30
0.0
 10
68.18739690135592
 20
-94.29226343128805
 30
0.0
 10
68.47092825979199
 20
-94.33222653891694
 30
0.0
 10
68.8157823178655
 20
-94.33222653891694
 30
0.0
 10
69.13514266934816
 20
-94.33222653891694
 30
0.0
 10
69.44382322482655
 20
-94.30156518909823
 30
0.0
 10
69.44382322482655
 20
-94.07970103984813
 30
0.0
 10
69.44382322482655
 20
-93.86851668660232
 30
0.0
 10
69.16270343323016
 20
-93.82717554077932
 30
0.0
 10
68.8157823178655
 20
-93.82717554077932
 30
0.0
 10
68.49607745683431
 20
-93.82717554077932
 30
0.0
 10
68.18739690135592
 20
-93.85955943834067
 30
0.0
 10
68.18739690135592
 20
-94.07970103984813
 30
0.0
  0
HATCH
  5
F0
330
EA
100
AcDbEntity
  8
_U+30EC_U+30A4_U+30E4_U+30FC 1
 62
   179
420
  2234388
100
AcDbHatch
 10
0.0
 20
0.0
 30
0.0
210
0.0
220
0.0
230
1.0
  2
SOLID
 70
     1
 71
     0
 91
        2
 92
        1
 93
        1
 72
     4
 94
        3
 73
     0
 74
     1
 95
       29
 96
       25
 40
0.0
 40
0.0
 40
0.0
 40
0.0
 40
1.0
 40
1.0
 40
1.0
 40
2.0
 40
2.0
 40
2.0
 40
3.0
 40
3.0
 40
3.0
 40
4.0
 40
4.0
 40
4.0
 40
5.0
 40
5.0
 40
5.0
 40
6.0
 40
6.0
 40
6.0
 40
7.0
 40
7.0
 40
7.0
 40
8.0
 40
8.0
 40
8.0
 40
8.0
 10
69.4100612890711
 20
-93.74070364409955
 10
69.61952309457429
 20
-93.83268769355573
 10
69.63847111974316
 20
-93.98048228987294
 10
69.63847111974316
 20
-94.07970103984813
 10
69.63847111974316
 20
-94.21681584016108
 10
69.5919623306923
 20
-94.33739418214482
 10
69.4100612890711
 20
-94.41869843559672
 10
69.21541339415448
 20
-94.50689288001911
 10
68.97839082476929
 20
-94.52308482879978
 10
68.8157823178655
 20
-94.52308482879978
 10
68.67177732658206
 20
-94.52308482879978
 10
68.4199408466103
 20
-94.50895993731027
 10
68.22115883711137
 20
-94.41869843559672
 10
68.01824271303016
 20
-94.32671438614055
 10
67.99481606373047
 20
-94.18959958582761
 10
67.99481606373047
 20
-94.07970103984813
 10
67.99481606373047
 20
-93.94430878727782
 10
68.03925779549019
 20
-93.82166338800292
 10
68.22115883711137
 20
-93.74070364409955
 10
68.41373967473685
 20
-93.6559542951624
 10
68.64214950540891
 20
-93.63597274134796
 10
68.8157823178655
 20
-93.63597274134796
 10
68.98700356348242
 20
-93.63597274134796
 10
69.21748045144564
 20
-93.65423174741979
 10
69.4100612890711
 20
-93.74070364409955
 97
        0
 97
        0
 92
        1
 93
        1
 72
     4
 94
        3
 73
     0
 74
     1
 95
       17
 96
       13
 40
0.0
 40
0.0
 40
0.0
 40
0.0
 40
1.0
 40
1.0
 40
1.0
 40
2.0
 40
2.0
 40
2.0
 40
3.0
 40
3.0
 40
3.0
 40
4.0
 40
4.0
 40
4.0
 40
4.0
 10
68.18739690135592
 20
-94.07970103984813
 10
68.18739690135592
 20
-94.29226343128805
 10
68.47092825979199
 20
-94.33222653891694
 10
68.8157823178655
 20
-94.33222653891694
 10
69.13514266934816
 20
-94.33222653891694
 10
69.44382322482655
 20
-94.30156518909823
 10
69.44382322482655
 20
-94.07970103984813
 10
69.44382322482655
 20
-93.86851668660232
 10
69.16270343323016
 20
-93.82717554077932
 10
68.8157823178655
 20
-93.82717554077932
 10
68.49607745683431
 20
-93.82717554077932
 10
68.18739690135592
 20
-93.85955943834067
 10
68.18739690135592
 20
-94.07970103984813
 97
        0
 97
        0
 75
     2
 76
     1
 98
        0
  0
POLYLINE
  5
F1
330
EA
100
AcDbEntity
  8
_U+30EC_U+30A4_U+30E4_U+30FC 1
370
     0
100
AcDb2dPolyline
 66
     1
 10
0.0
 20
0.0
 30
0.0
  0
VERTEX
  5
F2
330
F1
100
AcDbEntity
  8
_U+30EC_U+30A4_U+30E4_U+30FC 1
370
     0
100
AcDbVertex
100
AcDb2dVertex
 10
69.58782821611
 20
-93.45303817108119
 30
0.0
  0
VERTEX
  5
F3
330
F1
100
AcDbEntity
  8
_U+30EC_U+30A4_U+30E4_U+30FC 1
370
     0
100
AcDbVertex
100
AcDb2dVertex
 10
69.33599173613823
 20
-93.45303817108119
 30
0.0
  0
VERTEX
  5
F4
330
F1
100
AcDbEntity
  8
_U+30EC_U+30A4_U+30E4_U+30FC 1
370
     0
100
AcDbVertex
100
AcDb2dVertex
 10
69.33599173613823
 20
-93.23840872235013
 30
0.0
  0
VERTEX
  5
F5
330
F1
100
AcDbEntity
  8
_U+30EC_U+30A4_U+30E4_U+30FC 1
370
     0
100
AcDbVertex
100
AcDb2dVertex
 10
69.58782821611
 20
-93.23840872235013
 30
0.0
  0
VERTEX
  5
F6
330
F1
100
AcDbEntity
  8
_U+30EC_U+30A4_U+30E4_U+30FC 1
370
     0
100
AcDbVertex
100
AcDb2dVertex
 10
69.58782821611
 20
-93.45303817108119
 30
0.0
  0
SEQEND
  5
F7
330
F1
100
AcDbEntity
  8
_U+30EC_U+30A4_U+30E4_U+30FC 1
370
     0
  0
HATCH
  5
F8
330
EA
100
AcDbEntity
  8
_U+30EC_U+30A4_U+30E4_U+30FC 1
 62
   179
420
  2234388
100
AcDbHatch
 10
0.0
 20
0.0
 30
0.0
210
0.0
220
0.0
230
1.0
  2
SOLID
 70
     1
 71
     0
 91
        1
 92
        1
 93
        4
 72
     1
 10
69.58782821611
 20
-93.45303817108119
 11
69.33599173613823
 21
-93.45303817108119
 72
     1
 10
69.33599173613823
 20
-93.45303817108119
 11
69.33599173613823
 21
-93.23840872235013
 72
     1
 10
69.33599173613823
 20
-93.23840872235013
 11
69.58782821611
 21
-93.23840872235013
 72
     1
 10
69.58782821611
 20
-93.23840872235013
 11
69.58782821611
 21
-93.45303817108119
 97
        0
 75
     2
 76
     1
 98
        0
  0
SPLINE
  5
F9
330
EA
100
AcDbEntity
  8
_U+30EC_U+30A4_U+30E4_U+30FC 1
370
     0
100
AcDbSpline
210
0.0
220
0.0
230
1.0
 70
    11
 71
     3
 72
    62
 73
    58
 74
     0
 42
0.0000000001
 43
0.0000000001
 12
1.0
 22
0.0
 32
0.0
 13
1.0
 23
0.0
 33
0.0
 40
0.0
 40
0.0
 40
0.0
 40
0.0
 40
1.0
 40
1.0
 40
1.0
 40
2.0
 40
2.0
 40
2.0
 40
3.0
 40
3.0
 40
3.0
 40
4.0
 40
4.0
 40
4.0
 40
5.0
 40
5.0
 40
5.0
 40
6.0
 40
6.0
 40
6.0
 40
7.0
 40
7.0
 40
7.0
 40
8.0
 40
8.0
 40
8.0
 40
9.0
 40
9.0
 40
9.0
 40
10.0
 40
10.0
 40
10.0
 40
11.0
 40
11.0
 40
11.0
 40
12.0
 40
12.0
 40
12.0
 40
13.0
 40
13.0
 40
13.0
 40
14.0
 40
14.0
 40
14.0
 40
15.0
 40
15.0
 40
15.0
 40
16.0
 40
16.0
 40
16.0
 40
17.0
 40
17.0
 40
17.0
 40
18.0
 40
18.0
 40
18.0
 40
19.0
 40
19.0
 40
19.0
 40
19.0
 10
69.63847111974316
 20
-92.61829153500516
 30
0.0
 10
69.63847111974316
 20
-92.69925127890852
 30
0.0
 10
69.61745603728313
 20
-92.8849419255635
 30
0.0
 10
69.43142088107965
 20
-92.99139537605771
 30
0.0
 10
69.3191107682605
 20
-93.05478513298631
 30
0.0
 10
69.21989201828531
 20
-93.05823022847156
 30
0.0
 10
69.13514266934816
 20
-93.0616753239568
 30
0.0
 10
69.13514266934816
 20
-93.0616753239568
 30
0.0
 10
69.13514266934816
 20
-92.87426212955921
 30
0.0
 10
69.13514266934816
 20
-92.87426212955921
 30
0.0
 10
69.20921222228104
 20
-92.8725395818166
 30
0.0
 10
69.44382322482655
 20
-92.86358233355494
 30
0.0
 10
69.44382322482655
 20
-92.6217366304904
 30
0.0
 10
69.44382322482655
 20
-92.5046033839919
 30
0.0
 10
69.3742322960245
 20
-92.37472328419798
 30
0.0
 10
69.14582246535244
 20
-92.37472328419798
 30
0.0
 10
69.029378237951
 20
-92.37472328419798
 30
0.0
 10
68.98080239160898
 20
-92.40710718175934
 30
0.0
 10
68.94910751314467
 20
-92.43432343609281
 30
0.0
 10
68.8750379602118
 20
-92.49736868347289
 30
0.0
 10
68.86229110691637
 20
-92.59658743344808
 30
0.0
 10
68.86229110691637
 20
-92.64344073204748
 30
0.0
 10
68.86229110691637
 20
-92.65963268082815
 30
0.0
 10
68.86435816420753
 20
-92.69029403064688
 30
0.0
 10
68.86849227878983
 20
-92.71372067994658
 30
0.0
 10
68.86849227878983
 20
-92.71372067994658
 30
0.0
 10
68.6738443838732
 20
-92.71372067994658
 30
0.0
 10
68.6738443838732
 20
-92.71372067994658
 30
0.0
 10
68.68039006529519
 20
-92.68133678238523
 30
0.0
 10
68.68245712258633
 20
-92.6451632797901
 30
0.0
 10
68.68245712258633
 20
-92.63999563656223
 30
0.0
 10
68.68245712258633
 20
-92.58384058015265
 30
0.0
 10
68.66109753057779
 20
-92.41434188227836
 30
0.0
 10
68.42441947074111
 20
-92.41434188227836
 30
0.0
 10
68.24665254370223
 20
-92.41434188227836
 30
0.0
 10
68.19153101593822
 20
-92.52630748554898
 30
0.0
 10
68.19153101593822
 20
-92.62001408274777
 30
0.0
 10
68.19153101593822
 20
-92.84532332748311
 30
0.0
 10
68.42441947074111
 20
-92.85255802800214
 30
0.0
 10
68.49607745683431
 20
-92.85634763303592
 30
0.0
 10
68.49607745683431
 20
-92.85634763303592
 30
0.0
 10
68.49607745683431
 20
-93.02929142639546
 30
0.0
 10
68.49607745683431
 20
-93.02929142639546
 30
0.0
 10
68.37136500026827
 20
-93.02205672587644
 30
0.0
 10
67.99481606373047
 20
-92.99863007657673
 30
0.0
 10
67.99481606373047
 20
-92.6093342867435
 30
0.0
 10
67.99481606373047
 20
-92.41813148731214
 30
0.0
 10
68.12194008713618
 20
-92.21245928684272
 30
0.0
 10
68.41787378931915
 20
-92.21245928684272
 30
0.0
 10
68.60425345507116
 20
-92.21245928684272
 30
0.0
 10
68.68659123716863
 20
-92.29376354029462
 30
0.0
 10
68.74791393680609
 20
-92.37851288923177
 30
0.0
 10
68.77547470068808
 20
-92.32614743785597
 30
0.0
 10
68.8557454254944
 20
-92.17111814101972
 30
0.0
 10
69.13307561205701
 20
-92.17111814101972
 30
0.0
 10
69.47138398870855
 20
-92.17111814101972
 30
0.0
 10
69.63847111974316
 20
-92.38195798471702
 30
0.0
 10
69.63847111974316
 20
-92.61829153500516
 30
0.0
  0
HATCH
  5
FA
330
EA
100
AcDbEntity
  8
_U+30EC_U+30A4_U+30E4_U+30FC 1
 62
   179
420
  2234388
100
AcDbHatch
 10
0.0
 20
0.0
 30
0.0
210
0.0
220
0.0
230
1.0
  2
SOLID
 70
     1
 71
     0
 91
        1
 92
        1
 93
        1
 72
     4
 94
        3
 73
     0
 74
     1
 95
       62
 96
       58
 40
0.0
 40
0.0
 40
0.0
 40
0.0
 40
1.0
 40
1.0
 40
1.0
 40
2.0
 40
2.0
 40
2.0
 40
3.0
 40
3.0
 40
3.0
 40
4.0
 40
4.0
 40
4.0
 40
5.0
 40
5.0
 40
5.0
 40
6.0
 40
6.0
 40
6.0
 40
7.0
 40
7.0
 40
7.0
 40
8.0
 40
8.0
 40
8.0
 40
9.0
 40
9.0
 40
9.0
 40
10.0
 40
10.0
 40
10.0
 40
11.0
 40
11.0
 40
11.0
 40
12.0
 40
12.0
 40
12.0
 40
13.0
 40
13.0
 40
13.0
 40
14.0
 40
14.0
 40
14.0
 40
15.0
 40
15.0
 40
15.0
 40
16.0
 40
16.0
 40
16.0
 40
17.0
 40
17.0
 40
17.0
 40
18.0
 40
18.0
 40
18.0
 40
19.0
 40
19.0
 40
19.0
 40
19.0
 10
69.63847111974316
 20
-92.61829153500516
 10
69.63847111974316
 20
-92.69925127890852
 10
69.61745603728313
 20
-92.8849419255635
 10
69.43142088107965
 20
-92.99139537605771
 10
69.3191107682605
 20
-93.05478513298631
 10
69.21989201828531
 20
-93.05823022847156
 10
69.13514266934816
 20
-93.0616753239568
 10
69.13514266934816
 20
-93.0616753239568
 10
69.13514266934816
 20
-92.87426212955921
 10
69.13514266934816
 20
-92.87426212955921
 10
69.20921222228104
 20
-92.8725395818166
 10
69.44382322482655
 20
-92.86358233355494
 10
69.44382322482655
 20
-92.6217366304904
 10
69.44382322482655
 20
-92.5046033839919
 10
69.3742322960245
 20
-92.37472328419798
 10
69.14582246535244
 20
-92.37472328419798
 10
69.029378237951
 20
-92.37472328419798
 10
68.98080239160898
 20
-92.40710718175934
 10
68.94910751314467
 20
-92.43432343609281
 10
68.8750379602118
 20
-92.49736868347289
 10
68.86229110691637
 20
-92.59658743344808
 10
68.86229110691637
 20
-92.64344073204748
 10
68.86229110691637
 20
-92.65963268082815
 10
68.86435816420753
 20
-92.69029403064688
 10
68.86849227878983
 20
-92.71372067994658
 10
68.86849227878983
 20
-92.71372067994658
 10
68.6738443838732
 20
-92.71372067994658
 10
68.6738443838732
 20
-92.71372067994658
 10
68.68039006529519
 20
-92.68133678238523
 10
68.68245712258633
 20
-92.6451632797901
 10
68.68245712258633
 20
-92.63999563656223
 10
68.68245712258633
 20
-92.58384058015265
 10
68.66109753057779
 20
-92.41434188227836
 10
68.42441947074111
 20
-92.41434188227836
 10
68.24665254370223
 20
-92.41434188227836
 10
68.19153101593822
 20
-92.52630748554898
 10
68.19153101593822
 20
-92.62001408274777
 10
68.19153101593822
 20
-92.84532332748311
 10
68.42441947074111
 20
-92.85255802800214
 10
68.49607745683431
 20
-92.85634763303592
 10
68.49607745683431
 20
-92.85634763303592
 10
68.49607745683431
 20
-93.02929142639546
 10
68.49607745683431
 20
-93.02929142639546
 10
68.37136500026827
 20
-93.02205672587644
 10
67.99481606373047
 20
-92.99863007657673
 10
67.99481606373047
 20
-92.6093342867435
 10
67.99481606373047
 20
-92.41813148731214
 10
68.12194008713618
 20
-92.21245928684272
 10
68.41787378931915
 20
-92.21245928684272
 10
68.60425345507116
 20
-92.21245928684272
 10
68.68659123716863
 20
-92.29376354029462
 10
68.74791393680609
 20
-92.37851288923177
 10
68.77547470068808
 20
-92.32614743785597
 10
68.8557454254944
 20
-92.17111814101972
 10
69.13307561205701
 20
-92.17111814101972
 10
69.47138398870855
 20
-92.17111814101972
 10
69.63847111974316
 20
-92.38195798471702
 10
69.63847111974316
 20
-92.61829153500516
 97
        0
 97
        0
 75
     2
 76
     1
 98
        0
  0
ENDBLK
  5
ED
330
EA
100
AcDbEntity
  8
0
100
AcDbBlockEnd
  0
BLOCK
  5
FD
330
FB
100
AcDbEntity
  8
0
100
AcDbBlockBegin
  2
block 8
 70
     0
 10
0.0
 20
0.0
 30
0.0
  3
block 8
  1

  0
POLYLINE
  5
FF
330
FB
100
AcDbEntity
  8
_U+30EC_U+30A4_U+30E4_U+30FC 1
 62
   179
420
  2234388
370
     9
100
AcDb2dPolyline
 66
     1
 10
0.0
 20
0.0
 30
0.0
  0
VERTEX
  5
100
330
FF
100
AcDbEntity
  8
_U+30EC_U+30A4_U+30E4_U+30FC 1
 62
   179
420
  2234388
370
     9
100
AcDbVertex
100
AcDb2dVertex
 10
56.23358773202833
 20
-101.3471288635521
 30
0.0
  0
VERTEX
  5
101
330
FF
100
AcDbEntity
  8
_U+30EC_U+30A4_U+30E4_U+30FC 1
 62
   179
420
  2234388
370
     9
100
AcDbVertex
100
AcDb2dVertex
 10
66.23402776121928
 20
-101.3471288635521
 30
0.0
  0
SEQEND
  5
102
330
FF
100
AcDbEntity
  8
_U+30EC_U+30A4_U+30E4_U+30FC 1
 62
   179
420
  2234388
370
     9
  0
POLYLINE
  5
103
330
FB
100
AcDbEntity
  8
_U+30EC_U+30A4_U+30E4_U+30FC 1
 62
   179
420
  2234388
370
     9
100
AcDb2dPolyline
 66
     1
 10
0.0
 20
0.0
 30
0.0
  0
VERTEX
  5
104
330
103
100
AcDbEntity
  8
_U+30EC_U+30A4_U+30E4_U+30FC 1
 62
   179
420
  2234388
370
     9
100
AcDbVertex
100
AcDb2dVertex
 10
56.23358773202833
 20
-99.88708747502835
 30
0.0
  0
VERTEX
  5
105
330
103
100
AcDbEntity
  8
_U+30EC_U+30A4_U+30E4_U+30FC 1
 62
   179
420
  2234388
370
     9
100
AcDbVertex
100
AcDb2dVertex
 10
56.23358773202833
 20
-102.3469010855246
 30
0.0
  0
SEQEND
  5
106
330
103
100
AcDbEntity
  8
_U+30EC_U+30A4_U+30E4_U+30FC 1
 62
   179
420
  2234388
370
     9
  0
POLYLINE
  5
107
330
FB
100
AcDbEntity
  8
_U+30EC_U+30A4_U+30E4_U+30FC 1
 62
   179
420
  2234388
370
     9
100
AcDb2dPolyline
 66
     1
 10
0.0
 20
0.0
 30
0.0
  0
VERTEX
  5
108
330
107
100
AcDbEntity
  8
_U+30EC_U+30A4_U+30E4_U+30FC 1
 62
   179
420
  2234388
370
     9
100
AcDbVertex
100
AcDb2dVertex
 10
66.23402776121928
 20
-99.18707053075889
 30
0.0
  0
VERTEX
  5
109
330
107
100
AcDbEntity
  8
_U+30EC_U+30A4_U+30E4_U+30FC 1
 62
   179
420
  2234388
370
     9
100
AcDbVertex
100
AcDb2dVertex
 10
66.23402776121928
 20
-102.3469010855246
 30
0.0
  0
SEQEND
  5
10A
330
107
100
AcDbEntity
  8
_U+30EC_U+30A4_U+30E4_U+30FC 1
 62
   179
420
  2234388
370
     9
  0
INSERT
  5
10C
330
FB
100
AcDbEntity
  8
_U+30EC_U+30A4_U+30E4_U+30FC 1
100
AcDbBlockReference
  2
block 9
 10
0.0
 20
0.0
 30
0.0
  0
ENDBLK
  5
FE
330
FB
100
AcDbEntity
  8
0
100
AcDbBlockEnd
  0
BLOCK
  5
10D
330
10B
100
AcDbEntity
  8
0
100
AcDbBlockBegin
  2
block 9
 70
     0
 10
0.0
 20
0.0
 30
0.0
  3
block 9
  1

  0
SPLINE
  5
10F
330
10B
100
AcDbEntity
  8
_U+30EC_U+30A4_U+30E4_U+30FC 1
370
     0
100
AcDbSpline
210
0.0
220
0.0
230
1.0
 70
    11
 71
     3
 72
    26
 73
    22
 74
     0
 42
0.0000000001
 43
0.0000000001
 12
1.0
 22
0.0
 32
0.0
 13
1.0
 23
0.0
 33
0.0
 40
0.0
 40
0.0
 40
0.0
 40
0.0
 40
1.0
 40
1.0
 40
1.0
 40
2.0
 40
2.0
 40
2.0
 40
3.0
 40
3.0
 40
3.0
 40
4.0
 40
4.0
 40
4.0
 40
5.0
 40
5.0
 40
5.0
 40
6.0
 40
6.0
 40
6.0
 40
7.0
 40
7.0
 40
7.0
 40
7.0
 10
60.69190265409786
 20
-100.7008300529498
 30
0.0
 10
60.69190265409786
 20
-100.7008300529498
 30
0.0
 10
60.69190265409786
 20
-99.59667694992723
 30
0.0
 10
60.69190265409786
 20
-99.59667694992723
 30
0.0
 10
60.69190265409786
 20
-99.59667694992723
 30
0.0
 10
60.41043835295295
 20
-99.59667694992723
 30
0.0
 10
60.41043835295295
 20
-99.59667694992723
 30
0.0
 10
60.41043835295295
 20
-99.59667694992723
 30
0.0
 10
60.41043835295295
 20
-99.44853784406148
 30
0.0
 10
60.41043835295295
 20
-99.44853784406148
 30
0.0
 10
60.69362520184048
 20
-99.43372393347491
 30
0.0
 10
60.73324379992086
 20
-99.27077091702259
 30
0.0
 10
60.75856525173744
 20
-99.1563937469123
 30
0.0
 10
60.75856525173744
 20
-99.1563937469123
 30
0.0
 10
60.88293319875496
 20
-99.1563937469123
 30
0.0
 10
60.88293319875496
 20
-99.1563937469123
 30
0.0
 10
60.88293319875496
 20
-99.1563937469123
 30
0.0
 10
60.88293319875496
 20
-100.7008300529498
 30
0.0
 10
60.88293319875496
 20
-100.7008300529498
 30
0.0
 10
60.88293319875496
 20
-100.7008300529498
 30
0.0
 10
60.69190265409786
 20
-100.7008300529498
 30
0.0
 10
60.69190265409786
 20
-100.7008300529498
 30
0.0
  0
HATCH
  5
110
330
10B
100
AcDbEntity
  8
_U+30EC_U+30A4_U+30E4_U+30FC 1
 62
   179
420
  2234388
100
AcDbHatch
 10
0.0
 20
0.0
 30
0.0
210
0.0
220
0.0
230
1.0
  2
SOLID
 70
     1
 71
     0
 91
        1
 92
        1
 93
        1
 72
     4
 94
        3
 73
     0
 74
     1
 95
       26
 96
       22
 40
0.0
 40
0.0
 40
0.0
 40
0.0
 40
1.0
 40
1.0
 40
1.0
 40
2.0
 40
2.0
 40
2.0
 40
3.0
 40
3.0
 40
3.0
 40
4.0
 40
4.0
 40
4.0
 40
5.0
 40
5.0
 40
5.0
 40
6.0
 40
6.0
 40
6.0
 40
7.0
 40
7.0
 40
7.0
 40
7.0
 10
60.69190265409786
 20
-100.7008300529498
 10
60.69190265409786
 20
-100.7008300529498
 10
60.69190265409786
 20
-99.59667694992723
 10
60.69190265409786
 20
-99.59667694992723
 10
60.69190265409786
 20
-99.59667694992723
 10
60.41043835295295
 20
-99.59667694992723
 10
60.41043835295295
 20
-99.59667694992723
 10
60.41043835295295
 20
-99.59667694992723
 10
60.41043835295295
 20
-99.44853784406148
 10
60.41043835295295
 20
-99.44853784406148
 10
60.69362520184048
 20
-99.43372393347491
 10
60.73324379992086
 20
-99.27077091702259
 10
60.75856525173744
 20
-99.1563937469123
 10
60.75856525173744
 20
-99.1563937469123
 10
60.88293319875496
 20
-99.1563937469123
 10
60.88293319875496
 20
-99.1563937469123
 10
60.88293319875496
 20
-99.1563937469123
 10
60.88293319875496
 20
-100.7008300529498
 10
60.88293319875496
 20
-100.7008300529498
 10
60.88293319875496
 20
-100.7008300529498
 10
60.69190265409786
 20
-100.7008300529498
 10
60.69190265409786
 20
-100.7008300529498
 97
        0
 97
        0
 75
     2
 76
     1
 98
        0
  0
SPLINE
  5
111
330
10B
100
AcDbEntity
  8
_U+30EC_U+30A4_U+30E4_U+30FC 1
370
     0
100
AcDbSpline
210
0.0
220
0.0
230
1.0
 70
    11
 71
     3
 72
    29
 73
    25
 74
     0
 42
0.0000000001
 43
0.0000000001
 12
1.0
 22
0.0
 32
0.0
 13
1.0
 23
0.0
 33
0.0
 40
0.0
 40
0.0
 40
0.0
 40
0.0
 40
1.0
 40
1.0
 40
1.0
 40
2.0
 40
2.0
 40
2.0
 40
3.0
 40
3.0
 40
3.0
 40
4.0
 40
4.0
 40
4.0
 40
5.0
 40
5.0
 40
5.0
 40
6.0
 40
6.0
 40
6.0
 40
7.0
 40
7.0
 40
7.0
 40
8.0
 40
8.0
 40
8.0
 40
8.0
 10
62.0740749627801
 20
-100.5230631259109
 30
0.0
 10
61.98226316809819
 20
-100.7325249314141
 30
0.0
 10
61.8342963170067
 20
-100.751472956583
 30
0.0
 10
61.73507756703151
 20
-100.751472956583
 30
0.0
 10
61.59813502149283
 20
-100.751472956583
 30
0.0
 10
61.47721216996056
 20
-100.7049641675321
 30
0.0
 10
61.39608017128293
 20
-100.5230631259109
 30
0.0
 10
61.30771347208627
 20
-100.3284152309943
 30
0.0
 10
61.2915215233056
 20
-100.0913926616091
 30
0.0
 10
61.2915215233056
 20
-99.92878415470531
 30
0.0
 10
61.2915215233056
 20
-99.78477916342186
 30
0.0
 10
61.30599092434365
 20
-99.5329426834501
 30
0.0
 10
61.39608017128293
 20
-99.33416067395119
 30
0.0
 10
61.4880642207391
 20
-99.13124454986998
 30
0.0
 10
61.62517902105204
 20
-99.10781790057027
 30
0.0
 10
61.73507756703151
 20
-99.10781790057027
 30
0.0
 10
61.87029756482757
 20
-99.10781790057027
 30
0.0
 10
61.99294296410246
 20
-99.15225963233
 30
0.0
 10
62.0740749627801
 20
-99.33416067395119
 30
0.0
 10
62.15882431171724
 20
-99.52674151157666
 30
0.0
 10
62.17880586553169
 20
-99.75515134224872
 30
0.0
 10
62.17880586553169
 20
-99.92878415470531
 30
0.0
 10
62.17880586553169
 20
-100.1000054003222
 30
0.0
 10
62.16071911423413
 20
-100.3304822882854
 30
0.0
 10
62.0740749627801
 20
-100.5230631259109
 30
0.0
  0
SPLINE
  5
112
330
10B
100
AcDbEntity
  8
_U+30EC_U+30A4_U+30E4_U+30FC 1
370
     0
100
AcDbSpline
210
0.0
220
0.0
230
1.0
 70
    11
 71
     3
 72
    17
 73
    13
 74
     0
 42
0.0000000001
 43
0.0000000001
 12
1.0
 22
0.0
 32
0.0
 13
1.0
 23
0.0
 33
0.0
 40
0.0
 40
0.0
 40
0.0
 40
0.0
 40
1.0
 40
1.0
 40
1.0
 40
2.0
 40
2.0
 40
2.0
 40
3.0
 40
3.0
 40
3.0
 40
4.0
 40
4.0
 40
4.0
 40
4.0
 10
61.73507756703151
 20
-99.30039873819574
 30
0.0
 10
61.52234292081734
 20
-99.30039873819574
 30
0.0
 10
61.48272432273696
 20
-99.5839300966318
 30
0.0
 10
61.48272432273696
 20
-99.92878415470531
 30
0.0
 10
61.48272432273696
 20
-100.248144506188
 30
0.0
 10
61.51338567255569
 20
-100.5568250616664
 30
0.0
 10
61.73507756703151
 20
-100.5568250616664
 30
0.0
 10
61.94608966550307
 20
-100.5568250616664
 30
0.0
 10
61.98760306610033
 20
-100.27570527007
 30
0.0
 10
61.98760306610033
 20
-99.92878415470531
 30
0.0
 10
61.98760306610033
 20
-99.60907929367413
 30
0.0
 10
61.95504691376471
 20
-99.30039873819574
 30
0.0
 10
61.73507756703151
 20
-99.30039873819574
 30
0.0
  0
HATCH
  5
113
330
10B
100
AcDbEntity
  8
_U+30EC_U+30A4_U+30E4_U+30FC 1
 62
   179
420
  2234388
100
AcDbHatch
 10
0.0
 20
0.0
 30
0.0
210
0.0
220
0.0
230
1.0
  2
SOLID
 70
     1
 71
     0
 91
        2
 92
        1
 93
        1
 72
     4
 94
        3
 73
     0
 74
     1
 95
       29
 96
       25
 40
0.0
 40
0.0
 40
0.0
 40
0.0
 40
1.0
 40
1.0
 40
1.0
 40
2.0
 40
2.0
 40
2.0
 40
3.0
 40
3.0
 40
3.0
 40
4.0
 40
4.0
 40
4.0
 40
5.0
 40
5.0
 40
5.0
 40
6.0
 40
6.0
 40
6.0
 40
7.0
 40
7.0
 40
7.0
 40
8.0
 40
8.0
 40
8.0
 40
8.0
 10
62.0740749627801
 20
-100.5230631259109
 10
61.98226316809819
 20
-100.7325249314141
 10
61.8342963170067
 20
-100.751472956583
 10
61.73507756703151
 20
-100.751472956583
 10
61.59813502149283
 20
-100.751472956583
 10
61.47721216996056
 20
-100.7049641675321
 10
61.39608017128293
 20
-100.5230631259109
 10
61.30771347208627
 20
-100.3284152309943
 10
61.2915215233056
 20
-100.0913926616091
 10
61.2915215233056
 20
-99.92878415470531
 10
61.2915215233056
 20
-99.78477916342186
 10
61.30599092434365
 20
-99.5329426834501
 10
61.39608017128293
 20
-99.33416067395119
 10
61.4880642207391
 20
-99.13124454986998
 10
61.62517902105204
 20
-99.10781790057027
 10
61.73507756703151
 20
-99.10781790057027
 10
61.87029756482757
 20
-99.10781790057027
 10
61.99294296410246
 20
-99.15225963233
 10
62.0740749627801
 20
-99.33416067395119
 10
62.15882431171724
 20
-99.52674151157666
 10
62.17880586553169
 20
-99.75515134224872
 10
62.17880586553169
 20
-99.92878415470531
 10
62.17880586553169
 20
-100.1000054003222
 10
62.16071911423413
 20
-100.3304822882854
 10
62.0740749627801
 20
-100.5230631259109
 97
        0
 97
        0
 92
        1
 93
        1
 72
     4
 94
        3
 73
     0
 74
     1
 95
       17
 96
       13
 40
0.0
 40
0.0
 40
0.0
 40
0.0
 40
1.0
 40
1.0
 40
1.0
 40
2.0
 40
2.0
 40
2.0
 40
3.0
 40
3.0
 40
3.0
 40
4.0
 40
4.0
 40
4.0
 40
4.0
 10
61.73507756703151
 20
-99.30039873819574
 10
61.52234292081734
 20
-99.30039873819574
 10
61.48272432273696
 20
-99.5839300966318
 10
61.48272432273696
 20
-99.92878415470531
 10
61.48272432273696
 20
-100.248144506188
 10
61.51338567255569
 20
-100.5568250616664
 10
61.73507756703151
 20
-100.5568250616664
 10
61.94608966550307
 20
-100.5568250616664
 10
61.98760306610033
 20
-100.27570527007
 10
61.98760306610033
 20
-99.92878415470531
 10
61.98760306610033
 20
-99.60907929367413
 10
61.95504691376471
 20
-99.30039873819574
 10
61.73507756703151
 20
-99.30039873819574
 97
        0
 97
        0
 75
     2
 76
     1
 98
        0
  0
ENDBLK
  5
10E
330
10B
100
AcDbEntity
  8
0
100
AcDbBlockEnd
  0
BLOCK
  5
116
330
114
100
AcDbEntity
  8
0
100
AcDbBlockBegin
  2
block 10
 70
     0
 10
0.0
 20
0.0
 30
0.0
  3
block 10
  1

  0
POLYLINE
  5
118
330
114
100
AcDbEntity
  8
_U+30EC_U+30A4_U+30E4_U+30FC 1
 62
   179
420
  2234388
370
     9
100
AcDb2dPolyline
 66
     1
 10
0.0
 20
0.0
 30
0.0
  0
VERTEX
  5
119
330
118
100
AcDbEntity
  8
_U+30EC_U+30A4_U+30E4_U+30FC 1
 62
   179
420
  2234388
370
     9
100
AcDbVertex
100
AcDb2dVertex
 10
44.23364026039471
 20
-101.3471288635521
 30
0.0
  0
VERTEX
  5
11A
330
118
100
AcDbEntity
  8
_U+30EC_U+30A4_U+30E4_U+30FC 1
 62
   179
420
  2234388
370
     9
100
AcDbVertex
100
AcDb2dVertex
 10
56.23358773202833
 20
-101.3471288635521
 30
0.0
  0
SEQEND
  5
11B
330
118
100
AcDbEntity
  8
_U+30EC_U+30A4_U+30E4_U+30FC 1
 62
   179
420
  2234388
370
     9
  0
POLYLINE
  5
11C
330
114
100
AcDbEntity
  8
_U+30EC_U+30A4_U+30E4_U+30FC 1
 62
   179
420
  2234388
370
     9
100
AcDb2dPolyline
 66
     1
 10
0.0
 20
0.0
 30
0.0
  0
VERTEX
  5
11D
330
11C
100
AcDbEntity
  8
_U+30EC_U+30A4_U+30E4_U+30FC 1
 62
   179
420
  2234388
370
     9
100
AcDbVertex
100
AcDb2dVertex
 10
44.23364026039471
 20
-86.38716386729224
 30
0.0
  0
VERTEX
  5
11E
330
11C
100
AcDbEntity
  8
_U+30EC_U+30A4_U+30E4_U+30FC 1
 62
   179
420
  2234388
370
     9
100
AcDbVertex
100
AcDb2dVertex
 10
44.23364026039471
 20
-102.3469010855246
 30
0.0
  0
SEQEND
  5
11F
330
11C
100
AcDbEntity
  8
_U+30EC_U+30A4_U+30E4_U+30FC 1
 62
   179
420
  2234388
370
     9
  0
INSERT
  5
121
330
114
100
AcDbEntity
  8
_U+30EC_U+30A4_U+30E4_U+30FC 1
100
AcDbBlockReference
  2
block 11
 10
0.0
 20
0.0
 30
0.0
  0
ENDBLK
  5
117
330
114
100
AcDbEntity
  8
0
100
AcDbBlockEnd
  0
BLOCK
  5
122
330
120
100
AcDbEntity
  8
0
100
AcDbBlockBegin
  2
block 11
 70
     0
 10
0.0
 20
0.0
 30
0.0
  3
block 11
  1

  0
SPLINE
  5
124
330
120
100
AcDbEntity
  8
_U+30EC_U+30A4_U+30E4_U+30FC 1
370
     0
100
AcDbSpline
210
0.0
220
0.0
230
1.0
 70
    11
 71
     3
 72
    26
 73
    22
 74
     0
 42
0.0000000001
 43
0.0000000001
 12
1.0
 22
0.0
 32
0.0
 13
1.0
 23
0.0
 33
0.0
 40
0.0
 40
0.0
 40
0.0
 40
0.0
 40
1.0
 40
1.0
 40
1.0
 40
2.0
 40
2.0
 40
2.0
 40
3.0
 40
3.0
 40
3.0
 40
4.0
 40
4.0
 40
4.0
 40
5.0
 40
5.0
 40
5.0
 40
6.0
 40
6.0
 40
6.0
 40
7.0
 40
7.0
 40
7.0
 40
7.0
 10
49.69205727924366
 20
-100.7008300529498
 30
0.0
 10
49.69205727924366
 20
-100.7008300529498
 30
0.0
 10
49.69205727924366
 20
-99.59667694992723
 30
0.0
 10
49.69205727924366
 20
-99.59667694992723
 30
0.0
 10
49.69205727924366
 20
-99.59667694992723
 30
0.0
 10
49.41059297809874
 20
-99.59667694992723
 30
0.0
 10
49.41059297809874
 20
-99.59667694992723
 30
0.0
 10
49.41059297809874
 20
-99.59667694992723
 30
0.0
 10
49.41059297809874
 20
-99.44853784406148
 30
0.0
 10
49.41059297809874
 20
-99.44853784406148
 30
0.0
 10
49.69377982698628
 20
-99.43372393347491
 30
0.0
 10
49.73339842506665
 20
-99.27077091702259
 30
0.0
 10
49.75871987688324
 20
-99.1563937469123
 30
0.0
 10
49.75871987688324
 20
-99.1563937469123
 30
0.0
 10
49.88308782390076
 20
-99.1563937469123
 30
0.0
 10
49.88308782390076
 20
-99.1563937469123
 30
0.0
 10
49.88308782390076
 20
-99.1563937469123
 30
0.0
 10
49.88308782390076
 20
-100.7008300529498
 30
0.0
 10
49.88308782390076
 20
-100.7008300529498
 30
0.0
 10
49.88308782390076
 20
-100.7008300529498
 30
0.0
 10
49.69205727924366
 20
-100.7008300529498
 30
0.0
 10
49.69205727924366
 20
-100.7008300529498
 30
0.0
  0
HATCH
  5
125
330
120
100
AcDbEntity
  8
_U+30EC_U+30A4_U+30E4_U+30FC 1
 62
   179
420
  2234388
100
AcDbHatch
 10
0.0
 20
0.0
 30
0.0
210
0.0
220
0.0
230
1.0
  2
SOLID
 70
     1
 71
     0
 91
        1
 92
        1
 93
        1
 72
     4
 94
        3
 73
     0
 74
     1
 95
       26
 96
       22
 40
0.0
 40
0.0
 40
0.0
 40
0.0
 40
1.0
 40
1.0
 40
1.0
 40
2.0
 40
2.0
 40
2.0
 40
3.0
 40
3.0
 40
3.0
 40
4.0
 40
4.0
 40
4.0
 40
5.0
 40
5.0
 40
5.0
 40
6.0
 40
6.0
 40
6.0
 40
7.0
 40
7.0
 40
7.0
 40
7.0
 10
49.69205727924366
 20
-100.7008300529498
 10
49.69205727924366
 20
-100.7008300529498
 10
49.69205727924366
 20
-99.59667694992723
 10
49.69205727924366
 20
-99.59667694992723
 10
49.69205727924366
 20
-99.59667694992723
 10
49.41059297809874
 20
-99.59667694992723
 10
49.41059297809874
 20
-99.59667694992723
 10
49.41059297809874
 20
-99.59667694992723
 10
49.41059297809874
 20
-99.44853784406148
 10
49.41059297809874
 20
-99.44853784406148
 10
49.69377982698628
 20
-99.43372393347491
 10
49.73339842506665
 20
-99.27077091702259
 10
49.75871987688324
 20
-99.1563937469123
 10
49.75871987688324
 20
-99.1563937469123
 10
49.88308782390076
 20
-99.1563937469123
 10
49.88308782390076
 20
-99.1563937469123
 10
49.88308782390076
 20
-99.1563937469123
 10
49.88308782390076
 20
-100.7008300529498
 10
49.88308782390076
 20
-100.7008300529498
 10
49.88308782390076
 20
-100.7008300529498
 10
49.69205727924366
 20
-100.7008300529498
 10
49.69205727924366
 20
-100.7008300529498
 97
        0
 97
        0
 75
     2
 76
     1
 98
        0
  0
SPLINE
  5
126
330
120
100
AcDbEntity
  8
_U+30EC_U+30A4_U+30E4_U+30FC 1
370
     0
100
AcDbSpline
210
0.0
220
0.0
230
1.0
 70
    11
 71
     3
 72
    44
 73
    40
 74
     0
 42
0.0000000001
 43
0.0000000001
 12
1.0
 22
0.0
 32
0.0
 13
1.0
 23
0.0
 33
0.0
 40
0.0
 40
0.0
 40
0.0
 40
0.0
 40
1.0
 40
1.0
 40
1.0
 40
2.0
 40
2.0
 40
2.0
 40
3.0
 40
3.0
 40
3.0
 40
4.0
 40
4.0
 40
4.0
 40
5.0
 40
5.0
 40
5.0
 40
6.0
 40
6.0
 40
6.0
 40
7.0
 40
7.0
 40
7.0
 40
8.0
 40
8.0
 40
8.0
 40
9.0
 40
9.0
 40
9.0
 40
10.0
 40
10.0
 40
10.0
 40
11.0
 40
11.0
 40
11.0
 40
12.0
 40
12.0
 40
12.0
 40
13.0
 40
13.0
 40
13.0
 40
13.0
 10
50.81464164311232
 20
-100.1189534254911
 30
0.0
 10
50.62895099645735
 20
-100.2777723273611
 30
0.0
 10
50.54954154552234
 20
-100.351841880294
 30
0.0
 10
50.50802814492508
 20
-100.4955023620289
 30
0.0
 10
50.50802814492508
 20
-100.4955023620289
 30
0.0
 10
51.17172579015846
 20
-100.4955023620289
 30
0.0
 10
51.17172579015846
 20
-100.4955023620289
 30
0.0
 10
51.17172579015846
 20
-100.4955023620289
 30
0.0
 10
51.17172579015846
 20
-100.7008300529498
 30
0.0
 10
51.17172579015846
 20
-100.7008300529498
 30
0.0
 10
51.17172579015846
 20
-100.7008300529498
 30
0.0
 10
50.2952934987109
 20
-100.7008300529498
 30
0.0
 10
50.2952934987109
 20
-100.7008300529498
 30
0.0
 10
50.32233749827011
 20
-100.3432291415809
 30
0.0
 10
50.37814804513116
 20
-100.2650254740657
 30
0.0
 10
50.70646564487547
 20
-99.96668020504306
 30
0.0
 10
50.92471244386605
 20
-99.76789819554413
 30
0.0
 10
50.9805229907271
 20
-99.70002981448472
 30
0.0
 10
50.9805229907271
 20
-99.56257050462325
 30
0.0
 10
50.9805229907271
 20
-99.44405921993065
 30
0.0
 10
50.91920029108964
 20
-99.31314559149116
 30
0.0
 10
50.75159639573224
 20
-99.31314559149116
 30
0.0
 10
50.52973224648215
 20
-99.31314559149116
 30
0.0
 10
50.52249754596313
 20
-99.54362247945437
 30
0.0
 10
50.51888019570362
 20
-99.66006670685582
 30
0.0
 10
50.51888019570362
 20
-99.66006670685582
 30
0.0
 10
50.32767739627225
 20
-99.66006670685582
 30
0.0
 10
50.32767739627225
 20
-99.66006670685582
 30
0.0
 10
50.33491209679127
 20
-99.5329426834501
 30
0.0
 10
50.34404159982719
 20
-99.42097708017948
 30
0.0
 10
50.41242674520939
 20
-99.30246579548688
 30
0.0
 10
50.50630559718245
 20
-99.14157983632572
 30
0.0
 10
50.66495224427821
 20
-99.10781790057027
 30
0.0
 10
50.7641709942534
 20
-99.10781790057027
 30
0.0
 10
51.00033228976728
 20
-99.10781790057027
 30
0.0
 10
51.1770656881606
 20
-99.29178599948261
 30
0.0
 10
51.1770656881606
 20
-99.5646375619144
 30
0.0
 10
51.1770656881606
 20
-99.79339190213499
 30
0.0
 10
51.0778469381854
 20
-99.89261065211018
 30
0.0
 10
50.81464164311232
 20
-100.1189534254911
 30
0.0
  0
HATCH
  5
127
330
120
100
AcDbEntity
  8
_U+30EC_U+30A4_U+30E4_U+30FC 1
 62
   179
420
  2234388
100
AcDbHatch
 10
0.0
 20
0.0
 30
0.0
210
0.0
220
0.0
230
1.0
  2
SOLID
 70
     1
 71
     0
 91
        1
 92
        1
 93
        1
 72
     4
 94
        3
 73
     0
 74
     1
 95
       44
 96
       40
 40
0.0
 40
0.0
 40
0.0
 40
0.0
 40
1.0
 40
1.0
 40
1.0
 40
2.0
 40
2.0
 40
2.0
 40
3.0
 40
3.0
 40
3.0
 40
4.0
 40
4.0
 40
4.0
 40
5.0
 40
5.0
 40
5.0
 40
6.0
 40
6.0
 40
6.0
 40
7.0
 40
7.0
 40
7.0
 40
8.0
 40
8.0
 40
8.0
 40
9.0
 40
9.0
 40
9.0
 40
10.0
 40
10.0
 40
10.0
 40
11.0
 40
11.0
 40
11.0
 40
12.0
 40
12.0
 40
12.0
 40
13.0
 40
13.0
 40
13.0
 40
13.0
 10
50.81464164311232
 20
-100.1189534254911
 10
50.62895099645735
 20
-100.2777723273611
 10
50.54954154552234
 20
-100.351841880294
 10
50.50802814492508
 20
-100.4955023620289
 10
50.50802814492508
 20
-100.4955023620289
 10
51.17172579015846
 20
-100.4955023620289
 10
51.17172579015846
 20
-100.4955023620289
 10
51.17172579015846
 20
-100.4955023620289
 10
51.17172579015846
 20
-100.7008300529498
 10
51.17172579015846
 20
-100.7008300529498
 10
51.17172579015846
 20
-100.7008300529498
 10
50.2952934987109
 20
-100.7008300529498
 10
50.2952934987109
 20
-100.7008300529498
 10
50.32233749827011
 20
-100.3432291415809
 10
50.37814804513116
 20
-100.2650254740657
 10
50.70646564487547
 20
-99.96668020504306
 10
50.92471244386605
 20
-99.76789819554413
 10
50.9805229907271
 20
-99.70002981448472
 10
50.9805229907271
 20
-99.56257050462325
 10
50.9805229907271
 20
-99.44405921993065
 10
50.91920029108964
 20
-99.31314559149116
 10
50.75159639573224
 20
-99.31314559149116
 10
50.52973224648215
 20
-99.31314559149116
 10
50.52249754596313
 20
-99.54362247945437
 10
50.51888019570362
 20
-99.66006670685582
 10
50.51888019570362
 20
-99.66006670685582
 10
50.32767739627225
 20
-99.66006670685582
 10
50.32767739627225
 20
-99.66006670685582
 10
50.33491209679127
 20
-99.5329426834501
 10
50.34404159982719
 20
-99.42097708017948
 10
50.41242674520939
 20
-99.30246579548688
 10
50.50630559718245
 20
-99.14157983632572
 10
50.66495224427821
 20
-99.10781790057027
 10
50.7641709942534
 20
-99.10781790057027
 10
51.00033228976728
 20
-99.10781790057027
 10
51.1770656881606
 20
-99.29178599948261
 10
51.1770656881606
 20
-99.5646375619144
 10
51.1770656881606
 20
-99.79339190213499
 10
51.0778469381854
 20
-99.89261065211018
 10
50.81464164311232
 20
-100.1189534254911
 97
        0
 97
        0
 75
     2
 76
     1
 98
        0
  0
ENDBLK
  5
123
330
120
100
AcDbEntity
  8
0
100
AcDbBlockEnd
  0
BLOCK
  5
12A
330
128
100
AcDbEntity
  8
0
100
AcDbBlockBegin
  2
block 12
 70
     0
 10
0.0
 20
0.0
 30
0.0
  3
block 12
  1

  0
POLYLINE
  5
12C
330
128
100
AcDbEntity
  8
_U+30EC_U+30A4_U+30E4_U+30FC 1
 62
   179
420
  2234388
370
     9
100
AcDb2dPolyline
 66
     1
 10
0.0
 20
0.0
 30
0.0
  0
VERTEX
  5
12D
330
12C
100
AcDbEntity
  8
_U+30EC_U+30A4_U+30E4_U+30FC 1
 62
   179
420
  2234388
370
     9
100
AcDbVertex
100
AcDb2dVertex
 10
40.2338811957704
 20
-81.3469572018854
 30
0.0
  0
VERTEX
  5
12E
330
12C
100
AcDbEntity
  8
_U+30EC_U+30A4_U+30E4_U+30FC 1
 62
   179
420
  2234388
370
     9
100
AcDbVertex
100
AcDb2dVertex
 10
40.2338811957704
 20
-77.08917636961647
 30
0.0
  0
SEQEND
  5
12F
330
12C
100
AcDbEntity
  8
_U+30EC_U+30A4_U+30E4_U+30FC 1
 62
   179
420
  2234388
370
     9
  0
POLYLINE
  5
130
330
128
100
AcDbEntity
  8
_U+30EC_U+30A4_U+30E4_U+30FC 1
 62
   179
420
  2234388
370
     9
100
AcDb2dPolyline
 66
     1
 10
0.0
 20
0.0
 30
0.0
  0
VERTEX
  5
131
330
130
100
AcDbEntity
  8
_U+30EC_U+30A4_U+30E4_U+30FC 1
 62
   179
420
  2234388
370
     9
100
AcDbVertex
100
AcDb2dVertex
 10
40.2338811957704
 20
-81.3469572018854
 30
0.0
  0
VERTEX
  5
132
330
130
100
AcDbEntity
  8
_U+30EC_U+30A4_U+30E4_U+30FC 1
 62
   179
420
  2234388
370
     9
100
AcDbVertex
100
AcDb2dVertex
 10
40.2338811957704
 20
-84.84718303434377
 30
0.0
  0
SEQEND
  5
133
330
130
100
AcDbEntity
  8
_U+30EC_U+30A4_U+30E4_U+30FC 1
 62
   179
420
  2234388
370
     9
  0
POLYLINE
  5
134
330
128
100
AcDbEntity
  8
_U+30EC_U+30A4_U+30E4_U+30FC 1
 62
   179
420
  2234388
370
     9
100
AcDb2dPolyline
 66
     1
 10
0.0
 20
0.0
 30
0.0
  0
VERTEX
  5
135
330
134
100
AcDbEntity
  8
_U+30EC_U+30A4_U+30E4_U+30FC 1
 62
   179
420
  2234388
370
     9
100
AcDbVertex
100
AcDb2dVertex
 10
41.69392254741053
 20
-82.34672942385761
 30
0.0
  0
VERTEX
  5
136
330
134
100
AcDbEntity
  8
_U+30EC_U+30A4_U+30E4_U+30FC 1
 62
   179
420
  2234388
370
     9
100
AcDbVertex
100
AcDb2dVertex
 10
39.23343872129382
 20
-82.34672942385761
 30
0.0
  0
SEQEND
  5
137
330
134
100
AcDbEntity
  8
_U+30EC_U+30A4_U+30E4_U+30FC 1
 62
   179
420
  2234388
370
     9
  0
POLYLINE
  5
138
330
128
100
AcDbEntity
  8
_U+30EC_U+30A4_U+30E4_U+30FC 1
 62
   179
420
  2234388
370
     9
100
AcDb2dPolyline
 66
     1
 10
0.0
 20
0.0
 30
0.0
  0
VERTEX
  5
139
330
138
100
AcDbEntity
  8
_U+30EC_U+30A4_U+30E4_U+30FC 1
 62
   179
420
  2234388
370
     9
100
AcDbVertex
100
AcDb2dVertex
 10
41.69392254741053
 20
-83.84674053459386
 30
0.0
  0
VERTEX
  5
13A
330
138
100
AcDbEntity
  8
_U+30EC_U+30A4_U+30E4_U+30FC 1
 62
   179
420
  2234388
370
     9
100
AcDbVertex
100
AcDb2dVertex
 10
39.23343872129382
 20
-83.84674053459386
 30
0.0
  0
SEQEND
  5
13B
330
138
100
AcDbEntity
  8
_U+30EC_U+30A4_U+30E4_U+30FC 1
 62
   179
420
  2234388
370
     9
  0
INSERT
  5
13D
330
128
100
AcDbEntity
  8
_U+30EC_U+30A4_U+30E4_U+30FC 1
100
AcDbBlockReference
  2
block 13
 10
0.0
 20
0.0
 30
0.0
  0
ENDBLK
  5
12B
330
128
100
AcDbEntity
  8
0
100
AcDbBlockEnd
  0
BLOCK
  5
13E
330
13C
100
AcDbEntity
  8
0
100
AcDbBlockBegin
  2
block 13
 70
     0
 10
0.0
 20
0.0
 30
0.0
  3
block 13
  1

  0
SPLINE
  5
140
330
13C
100
AcDbEntity
  8
_U+30EC_U+30A4_U+30E4_U+30FC 1
370
     0
100
AcDbSpline
210
0.0
220
0.0
230
1.0
 70
    11
 71
     3
 72
    26
 73
    22
 74
     0
 42
0.0000000001
 43
0.0000000001
 12
1.0
 22
0.0
 32
0.0
 13
1.0
 23
0.0
 33
0.0
 40
0.0
 40
0.0
 40
0.0
 40
0.0
 40
1.0
 40
1.0
 40
1.0
 40
2.0
 40
2.0
 40
2.0
 40
3.0
 40
3.0
 40
3.0
 40
4.0
 40
4.0
 40
4.0
 40
5.0
 40
5.0
 40
5.0
 40
6.0
 40
6.0
 40
6.0
 40
7.0
 40
7.0
 40
7.0
 40
7.0
 10
39.58724771145736
 20
-80.12086315271284
 30
0.0
 10
39.58724771145736
 20
-80.12086315271284
 30
0.0
 10
38.48309460843478
 20
-80.12086315271284
 30
0.0
 10
38.48309460843478
 20
-80.12086315271284
 30
0.0
 10
38.48309460843478
 20
-80.12086315271284
 30
0.0
 10
38.48309460843478
 20
-80.40232745385775
 30
0.0
 10
38.48309460843478
 20
-80.40232745385775
 30
0.0
 10
38.48309460843478
 20
-80.40232745385775
 30
0.0
 10
38.33495550256904
 20
-80.40232745385775
 30
0.0
 10
38.33495550256904
 20
-80.40232745385775
 30
0.0
 10
38.32014159198247
 20
-80.11914060497021
 30
0.0
 10
38.15718857553015
 20
-80.07952200688985
 30
0.0
 10
38.04281140541985
 20
-80.05437280984752
 30
0.0
 10
38.04281140541985
 20
-80.05437280984752
 30
0.0
 10
38.04281140541985
 20
-79.92966035328148
 30
0.0
 10
38.04281140541985
 20
-79.92966035328148
 30
0.0
 10
38.04281140541985
 20
-79.92966035328148
 30
0.0
 10
39.58724771145736
 20
-79.92966035328148
 30
0.0
 10
39.58724771145736
 20
-79.92966035328148
 30
0.0
 10
39.58724771145736
 20
-79.92966035328148
 30
0.0
 10
39.58724771145736
 20
-80.12086315271284
 30
0.0
 10
39.58724771145736
 20
-80.12086315271284
 30
0.0
  0
HATCH
  5
141
330
13C
100
AcDbEntity
  8
_U+30EC_U+30A4_U+30E4_U+30FC 1
 62
   179
420
  2234388
100
AcDbHatch
 10
0.0
 20
0.0
 30
0.0
210
0.0
220
0.0
230
1.0
  2
SOLID
 70
     1
 71
     0
 91
        1
 92
        1
 93
        1
 72
     4
 94
        3
 73
     0
 74
     1
 95
       26
 96
       22
 40
0.0
 40
0.0
 40
0.0
 40
0.0
 40
1.0
 40
1.0
 40
1.0
 40
2.0
 40
2.0
 40
2.0
 40
3.0
 40
3.0
 40
3.0
 40
4.0
 40
4.0
 40
4.0
 40
5.0
 40
5.0
 40
5.0
 40
6.0
 40
6.0
 40
6.0
 40
7.0
 40
7.0
 40
7.0
 40
7.0
 10
39.58724771145736
 20
-80.12086315271284
 10
39.58724771145736
 20
-80.12086315271284
 10
38.48309460843478
 20
-80.12086315271284
 10
38.48309460843478
 20
-80.12086315271284
 10
38.48309460843478
 20
-80.12086315271284
 10
38.48309460843478
 20
-80.40232745385775
 10
38.48309460843478
 20
-80.40232745385775
 10
38.48309460843478
 20
-80.40232745385775
 10
38.33495550256904
 20
-80.40232745385775
 10
38.33495550256904
 20
-80.40232745385775
 10
38.32014159198247
 20
-80.11914060497021
 10
38.15718857553015
 20
-80.07952200688985
 10
38.04281140541985
 20
-80.05437280984752
 10
38.04281140541985
 20
-80.05437280984752
 10
38.04281140541985
 20
-79.92966035328148
 10
38.04281140541985
 20
-79.92966035328148
 10
38.04281140541985
 20
-79.92966035328148
 10
39.58724771145736
 20
-79.92966035328148
 10
39.58724771145736
 20
-79.92966035328148
 10
39.58724771145736
 20
-79.92966035328148
 10
39.58724771145736
 20
-80.12086315271284
 10
39.58724771145736
 20
-80.12086315271284
 97
        0
 97
        0
 75
     2
 76
     1
 98
        0
  0
POLYLINE
  5
142
330
13C
100
AcDbEntity
  8
_U+30EC_U+30A4_U+30E4_U+30FC 1
370
     0
100
AcDb2dPolyline
 66
     1
 10
0.0
 20
0.0
 30
0.0
  0
VERTEX
  5
143
330
142
100
AcDbEntity
  8
_U+30EC_U+30A4_U+30E4_U+30FC 1
370
     0
100
AcDbVertex
100
AcDb2dVertex
 10
39.58724771145736
 20
-79.4528591381229
 30
0.0
  0
VERTEX
  5
144
330
142
100
AcDbEntity
  8
_U+30EC_U+30A4_U+30E4_U+30FC 1
370
     0
100
AcDbVertex
100
AcDb2dVertex
 10
39.33541123148559
 20
-79.4528591381229
 30
0.0
  0
VERTEX
  5
145
330
142
100
AcDbEntity
  8
_U+30EC_U+30A4_U+30E4_U+30FC 1
370
     0
100
AcDbVertex
100
AcDb2dVertex
 10
39.33541123148559
 20
-79.23822968939183
 30
0.0
  0
VERTEX
  5
146
330
142
100
AcDbEntity
  8
_U+30EC_U+30A4_U+30E4_U+30FC 1
370
     0
100
AcDbVertex
100
AcDb2dVertex
 10
39.58724771145736
 20
-79.23822968939183
 30
0.0
  0
VERTEX
  5
147
330
142
100
AcDbEntity
  8
_U+30EC_U+30A4_U+30E4_U+30FC 1
370
     0
100
AcDbVertex
100
AcDb2dVertex
 10
39.58724771145736
 20
-79.4528591381229
 30
0.0
  0
SEQEND
  5
148
330
142
100
AcDbEntity
  8
_U+30EC_U+30A4_U+30E4_U+30FC 1
370
     0
  0
HATCH
  5
149
330
13C
100
AcDbEntity
  8
_U+30EC_U+30A4_U+30E4_U+30FC 1
 62
   179
420
  2234388
100
AcDbHatch
 10
0.0
 20
0.0
 30
0.0
210
0.0
220
0.0
230
1.0
  2
SOLID
 70
     1
 71
     0
 91
        1
 92
        1
 93
        4
 72
     1
 10
39.58724771145736
 20
-79.4528591381229
 11
39.33541123148559
 21
-79.4528591381229
 72
     1
 10
39.33541123148559
 20
-79.4528591381229
 11
39.33541123148559
 21
-79.23822968939183
 72
     1
 10
39.33541123148559
 20
-79.23822968939183
 11
39.58724771145736
 21
-79.23822968939183
 72
     1
 10
39.58724771145736
 20
-79.23822968939183
 11
39.58724771145736
 21
-79.4528591381229
 97
        0
 75
     2
 76
     1
 98
        0
  0
SPLINE
  5
14A
330
13C
100
AcDbEntity
  8
_U+30EC_U+30A4_U+30E4_U+30FC 1
370
     0
100
AcDbSpline
210
0.0
220
0.0
230
1.0
 70
    11
 71
     3
 72
    53
 73
    49
 74
     0
 42
0.0000000001
 43
0.0000000001
 12
1.0
 22
0.0
 32
0.0
 13
1.0
 23
0.0
 33
0.0
 40
0.0
 40
0.0
 40
0.0
 40
0.0
 40
1.0
 40
1.0
 40
1.0
 40
2.0
 40
2.0
 40
2.0
 40
3.0
 40
3.0
 40
3.0
 40
4.0
 40
4.0
 40
4.0
 40
5.0
 40
5.0
 40
5.0
 40
6.0
 40
6.0
 40
6.0
 40
7.0
 40
7.0
 40
7.0
 40
8.0
 40
8.0
 40
8.0
 40
9.0
 40
9.0
 40
9.0
 40
10.0
 40
10.0
 40
10.0
 40
11.0
 40
11.0
 40
11.0
 40
12.0
 40
12.0
 40
12.0
 40
13.0
 40
13.0
 40
13.0
 40
14.0
 40
14.0
 40
14.0
 40
15.0
 40
15.0
 40
15.0
 40
16.0
 40
16.0
 40
16.0
 40
16.0
 10
39.63789061509053
 20
-78.62706975030851
 30
0.0
 10
39.63789061509053
 20
-78.69390460272236
 30
0.0
 10
39.6210096472128
 20
-78.78037649940214
 30
0.0
 10
39.55761989028421
 20
-78.8668483960819
 30
0.0
 10
39.44772134430474
 20
-79.01464299239912
 30
0.0
 10
39.31646320631672
 20
-79.03290199847095
 30
0.0
 10
39.2086317176284
 20
-79.04909394725162
 30
0.0
 10
39.2086317176284
 20
-79.04909394725162
 30
0.0
 10
39.2086317176284
 20
-78.85961369556289
 30
0.0
 10
39.2086317176284
 20
-78.85961369556289
 30
0.0
 10
39.40741372712731
 20
-78.81276039696348
 30
0.0
 10
39.43704154830046
 20
-78.70458439872664
 30
0.0
 10
39.43704154830046
 20
-78.62534720256589
 30
0.0
 10
39.43704154830046
 20
-78.50614689877625
 30
0.0
 10
39.33747828877674
 20
-78.37626679898233
 30
0.0
 10
39.10493434352238
 20
-78.37626679898233
 30
0.0
 10
38.84896374896832
 20
-78.37626679898233
 30
0.0
 10
38.77902831061775
 20
-78.52957354807594
 30
0.0
 10
38.77902831061775
 20
-78.63258190308491
 30
0.0
 10
38.77902831061775
 20
-78.65945364786987
 30
0.0
 10
38.77902831061775
 20
-78.78037649940214
 30
0.0
 10
38.90821939131462
 20
-78.85616860007762
 30
0.0
 10
38.90821939131462
 20
-78.85616860007762
 30
0.0
 10
38.88927136614574
 20
-79.00568574413747
 30
0.0
 10
38.88927136614574
 20
-79.00568574413747
 30
0.0
 10
38.88927136614574
 20
-79.00568574413747
 30
0.0
 10
38.04281140541985
 20
-78.90302189867703
 30
0.0
 10
38.04281140541985
 20
-78.90302189867703
 30
0.0
 10
38.04281140541985
 20
-78.90302189867703
 30
0.0
 10
38.04281140541985
 20
-78.23949650821791
 30
0.0
 10
38.04281140541985
 20
-78.23949650821791
 30
0.0
 10
38.04281140541985
 20
-78.23949650821791
 30
0.0
 10
38.23745930033647
 20
-78.23949650821791
 30
0.0
 10
38.23745930033647
 20
-78.23949650821791
 30
0.0
 10
38.23745930033647
 20
-78.23949650821791
 30
0.0
 10
38.23745930033647
 20
-78.76418455062145
 30
0.0
 10
38.23745930033647
 20
-78.76418455062145
 30
0.0
 10
38.23745930033647
 20
-78.76418455062145
 30
0.0
 10
38.66051702592515
 20
-78.8199950974825
 30
0.0
 10
38.66051702592515
 20
-78.8199950974825
 30
0.0
 10
38.6267550901697
 20
-78.76762964610671
 30
0.0
 10
38.58644747299228
 20
-78.69734969820762
 30
0.0
 10
38.58644747299228
 20
-78.59640840048979
 30
0.0
 10
38.58644747299228
 20
-78.3800564040161
 30
0.0
 10
38.7728271387443
 20
-78.17817380858045
 30
0.0
 10
39.08598631835351
 20
-78.17817380858045
 30
0.0
 10
39.40327961254501
 20
-78.17817380858045
 30
0.0
 10
39.63789061509053
 20
-78.36903209846331
 30
0.0
 10
39.63789061509053
 20
-78.62706975030851
 30
0.0
  0
HATCH
  5
14B
330
13C
100
AcDbEntity
  8
_U+30EC_U+30A4_U+30E4_U+30FC 1
 62
   179
420
  2234388
100
AcDbHatch
 10
0.0
 20
0.0
 30
0.0
210
0.0
220
0.0
230
1.0
  2
SOLID
 70
     1
 71
     0
 91
        1
 92
        1
 93
        1
 72
     4
 94
        3
 73
     0
 74
     1
 95
       53
 96
       49
 40
0.0
 40
0.0
 40
0.0
 40
0.0
 40
1.0
 40
1.0
 40
1.0
 40
2.0
 40
2.0
 40
2.0
 40
3.0
 40
3.0
 40
3.0
 40
4.0
 40
4.0
 40
4.0
 40
5.0
 40
5.0
 40
5.0
 40
6.0
 40
6.0
 40
6.0
 40
7.0
 40
7.0
 40
7.0
 40
8.0
 40
8.0
 40
8.0
 40
9.0
 40
9.0
 40
9.0
 40
10.0
 40
10.0
 40
10.0
 40
11.0
 40
11.0
 40
11.0
 40
12.0
 40
12.0
 40
12.0
 40
13.0
 40
13.0
 40
13.0
 40
14.0
 40
14.0
 40
14.0
 40
15.0
 40
15.0
 40
15.0
 40
16.0
 40
16.0
 40
16.0
 40
16.0
 10
39.63789061509053
 20
-78.62706975030851
 10
39.63789061509053
 20
-78.69390460272236
 10
39.6210096472128
 20
-78.78037649940214
 10
39.55761989028421
 20
-78.8668483960819
 10
39.44772134430474
 20
-79.01464299239912
 10
39.31646320631672
 20
-79.03290199847095
 10
39.2086317176284
 20
-79.04909394725162
 10
39.2086317176284
 20
-79.04909394725162
 10
39.2086317176284
 20
-78.85961369556289
 10
39.2086317176284
 20
-78.85961369556289
 10
39.40741372712731
 20
-78.81276039696348
 10
39.43704154830046
 20
-78.70458439872664
 10
39.43704154830046
 20
-78.62534720256589
 10
39.43704154830046
 20
-78.50614689877625
 10
39.33747828877674
 20
-78.37626679898233
 10
39.10493434352238
 20
-78.37626679898233
 10
38.84896374896832
 20
-78.37626679898233
 10
38.77902831061775
 20
-78.52957354807594
 10
38.77902831061775
 20
-78.63258190308491
 10
38.77902831061775
 20
-78.65945364786987
 10
38.77902831061775
 20
-78.78037649940214
 10
38.90821939131462
 20
-78.85616860007762
 10
38.90821939131462
 20
-78.85616860007762
 10
38.88927136614574
 20
-79.00568574413747
 10
38.88927136614574
 20
-79.00568574413747
 10
38.88927136614574
 20
-79.00568574413747
 10
38.04281140541985
 20
-78.90302189867703
 10
38.04281140541985
 20
-78.90302189867703
 10
38.04281140541985
 20
-78.90302189867703
 10
38.04281140541985
 20
-78.23949650821791
 10
38.04281140541985
 20
-78.23949650821791
 10
38.04281140541985
 20
-78.23949650821791
 10
38.23745930033647
 20
-78.23949650821791
 10
38.23745930033647
 20
-78.23949650821791
 10
38.23745930033647
 20
-78.23949650821791
 10
38.23745930033647
 20
-78.76418455062145
 10
38.23745930033647
 20
-78.76418455062145
 10
38.23745930033647
 20
-78.76418455062145
 10
38.66051702592515
 20
-78.8199950974825
 10
38.66051702592515
 20
-78.8199950974825
 10
38.6267550901697
 20
-78.76762964610671
 10
38.58644747299228
 20
-78.69734969820762
 10
38.58644747299228
 20
-78.59640840048979
 10
38.58644747299228
 20
-78.3800564040161
 10
38.7728271387443
 20
-78.17817380858045
 10
39.08598631835351
 20
-78.17817380858045
 10
39.40327961254501
 20
-78.17817380858045
 10
39.63789061509053
 20
-78.36903209846331
 10
39.63789061509053
 20
-78.62706975030851
 97
        0
 97
        0
 75
     2
 76
     1
 98
        0
  0
ENDBLK
  5
13F
330
13C
100
AcDbEntity
  8
0
100
AcDbBlockEnd
  0
BLOCK
  5
14E
330
14C
100
AcDbEntity
  8
0
100
AcDbBlockBegin
  2
block 14
 70
     0
 10
0.0
 20
0.0
 30
0.0
  3
block 14
  1

  0
POLYLINE
  5
150
330
14C
100
AcDbEntity
  8
_U+30EC_U+30A4_U+30E4_U+30FC 1
 62
   179
420
  2234388
370
     9
100
AcDb2dPolyline
 66
     1
 10
0.0
 20
0.0
 30
0.0
  0
VERTEX
  5
151
330
150
100
AcDbEntity
  8
_U+30EC_U+30A4_U+30E4_U+30FC 1
 62
   179
420
  2234388
370
     9
100
AcDbVertex
100
AcDb2dVertex
 10
85.23371949217332
 20
-83.34720720138536
 30
0.0
  0
VERTEX
  5
152
330
150
100
AcDbEntity
  8
_U+30EC_U+30A4_U+30E4_U+30FC 1
 62
   179
420
  2234388
370
     9
100
AcDbVertex
100
AcDb2dVertex
 10
85.23371949217332
 20
-96.34692719813528
 30
0.0
  0
SEQEND
  5
153
330
150
100
AcDbEntity
  8
_U+30EC_U+30A4_U+30E4_U+30FC 1
 62
   179
420
  2234388
370
     9
  0
POLYLINE
  5
154
330
14C
100
AcDbEntity
  8
_U+30EC_U+30A4_U+30E4_U+30FC 1
 62
   179
420
  2234388
370
     9
100
AcDb2dPolyline
 66
     1
 10
0.0
 20
0.0
 30
0.0
  0
VERTEX
  5
155
330
154
100
AcDbEntity
  8
_U+30EC_U+30A4_U+30E4_U+30FC 1
 62
   179
420
  2234388
370
     9
100
AcDbVertex
100
AcDb2dVertex
 10
68.77374380099118
 20
-96.34692719813528
 30
0.0
  0
VERTEX
  5
156
330
154
100
AcDbEntity
  8
_U+30EC_U+30A4_U+30E4_U+30FC 1
 62
   179
420
  2234388
370
     9
100
AcDbVertex
100
AcDb2dVertex
 10
86.23349168888923
 20
-96.34692719813528
 30
0.0
  0
SEQEND
  5
157
330
154
100
AcDbEntity
  8
_U+30EC_U+30A4_U+30E4_U+30FC 1
 62
   179
420
  2234388
370
     9
  0
INSERT
  5
159
330
14C
100
AcDbEntity
  8
_U+30EC_U+30A4_U+30E4_U+30FC 1
100
AcDbBlockReference
  2
block 15
 10
0.0
 20
0.0
 30
0.0
  0
ENDBLK
  5
14F
330
14C
100
AcDbEntity
  8
0
100
AcDbBlockEnd
  0
BLOCK
  5
15A
330
158
100
AcDbEntity
  8
0
100
AcDbBlockBegin
  2
block 15
 70
     0
 10
0.0
 20
0.0
 30
0.0
  3
block 15
  1

  0
SPLINE
  5
15C
330
158
100
AcDbEntity
  8
_U+30EC_U+30A4_U+30E4_U+30FC 1
370
     0
100
AcDbSpline
210
0.0
220
0.0
230
1.0
 70
    11
 71
     3
 72
    26
 73
    22
 74
     0
 42
0.0000000001
 43
0.0000000001
 12
1.0
 22
0.0
 32
0.0
 13
1.0
 23
0.0
 33
0.0
 40
0.0
 40
0.0
 40
0.0
 40
0.0
 40
1.0
 40
1.0
 40
1.0
 40
2.0
 40
2.0
 40
2.0
 40
3.0
 40
3.0
 40
3.0
 40
4.0
 40
4.0
 40
4.0
 40
5.0
 40
5.0
 40
5.0
 40
6.0
 40
6.0
 40
6.0
 40
7.0
 40
7.0
 40
7.0
 40
7.0
 10
84.58708493979073
 20
-90.38793671785442
 30
0.0
 10
84.58708493979073
 20
-90.38793671785442
 30
0.0
 10
83.48293183676816
 20
-90.38793671785442
 30
0.0
 10
83.48293183676816
 20
-90.38793671785442
 30
0.0
 10
83.48293183676816
 20
-90.38793671785442
 30
0.0
 10
83.48293183676816
 20
-90.66940101899932
 30
0.0
 10
83.48293183676816
 20
-90.66940101899932
 30
0.0
 10
83.48293183676816
 20
-90.66940101899932
 30
0.0
 10
83.33479273090242
 20
-90.66940101899932
 30
0.0
 10
83.33479273090242
 20
-90.66940101899932
 30
0.0
 10
83.31997882031584
 20
-90.38621417011178
 30
0.0
 10
83.15702580386352
 20
-90.3465955720314
 30
0.0
 10
83.04264863375323
 20
-90.3214463749891
 30
0.0
 10
83.04264863375323
 20
-90.3214463749891
 30
0.0
 10
83.04264863375323
 20
-90.19673391842305
 30
0.0
 10
83.04264863375323
 20
-90.19673391842305
 30
0.0
 10
83.04264863375323
 20
-90.19673391842305
 30
0.0
 10
84.58708493979073
 20
-90.19673391842305
 30
0.0
 10
84.58708493979073
 20
-90.19673391842305
 30
0.0
 10
84.58708493979073
 20
-90.19673391842305
 30
0.0
 10
84.58708493979073
 20
-90.38793671785442
 30
0.0
 10
84.58708493979073
 20
-90.38793671785442
 30
0.0
  0
HATCH
  5
15D
330
158
100
AcDbEntity
  8
_U+30EC_U+30A4_U+30E4_U+30FC 1
 62
   179
420
  2234388
100
AcDbHatch
 10
0.0
 20
0.0
 30
0.0
210
0.0
220
0.0
230
1.0
  2
SOLID
 70
     1
 71
     0
 91
        1
 92
        1
 93
        1
 72
     4
 94
        3
 73
     0
 74
     1
 95
       26
 96
       22
 40
0.0
 40
0.0
 40
0.0
 40
0.0
 40
1.0
 40
1.0
 40
1.0
 40
2.0
 40
2.0
 40
2.0
 40
3.0
 40
3.0
 40
3.0
 40
4.0
 40
4.0
 40
4.0
 40
5.0
 40
5.0
 40
5.0
 40
6.0
 40
6.0
 40
6.0
 40
7.0
 40
7.0
 40
7.0
 40
7.0
 10
84.58708493979073
 20
-90.38793671785442
 10
84.58708493979073
 20
-90.38793671785442
 10
83.48293183676816
 20
-90.38793671785442
 10
83.48293183676816
 20
-90.38793671785442
 10
83.48293183676816
 20
-90.38793671785442
 10
83.48293183676816
 20
-90.66940101899932
 10
83.48293183676816
 20
-90.66940101899932
 10
83.48293183676816
 20
-90.66940101899932
 10
83.33479273090242
 20
-90.66940101899932
 10
83.33479273090242
 20
-90.66940101899932
 10
83.31997882031584
 20
-90.38621417011178
 10
83.15702580386352
 20
-90.3465955720314
 10
83.04264863375323
 20
-90.3214463749891
 10
83.04264863375323
 20
-90.3214463749891
 10
83.04264863375323
 20
-90.19673391842305
 10
83.04264863375323
 20
-90.19673391842305
 10
83.04264863375323
 20
-90.19673391842305
 10
84.58708493979073
 20
-90.19673391842305
 10
84.58708493979073
 20
-90.19673391842305
 10
84.58708493979073
 20
-90.19673391842305
 10
84.58708493979073
 20
-90.38793671785442
 10
84.58708493979073
 20
-90.38793671785442
 97
        0
 97
        0
 75
     2
 76
     1
 98
        0
  0
SPLINE
  5
15E
330
158
100
AcDbEntity
  8
_U+30EC_U+30A4_U+30E4_U+30FC 1
370
     0
100
AcDbSpline
210
0.0
220
0.0
230
1.0
 70
    11
 71
     3
 72
    62
 73
    58
 74
     0
 42
0.0000000001
 43
0.0000000001
 12
1.0
 22
0.0
 32
0.0
 13
1.0
 23
0.0
 33
0.0
 40
0.0
 40
0.0
 40
0.0
 40
0.0
 40
1.0
 40
1.0
 40
1.0
 40
2.0
 40
2.0
 40
2.0
 40
3.0
 40
3.0
 40
3.0
 40
4.0
 40
4.0
 40
4.0
 40
5.0
 40
5.0
 40
5.0
 40
6.0
 40
6.0
 40
6.0
 40
7.0
 40
7.0
 40
7.0
 40
8.0
 40
8.0
 40
8.0
 40
9.0
 40
9.0
 40
9.0
 40
10.0
 40
10.0
 40
10.0
 40
11.0
 40
11.0
 40
11.0
 40
12.0
 40
12.0
 40
12.0
 40
13.0
 40
13.0
 40
13.0
 40
14.0
 40
14.0
 40
14.0
 40
15.0
 40
15.0
 40
15.0
 40
16.0
 40
16.0
 40
16.0
 40
17.0
 40
17.0
 40
17.0
 40
18.0
 40
18.0
 40
18.0
 40
19.0
 40
19.0
 40
19.0
 40
19.0
 10
84.6377278434239
 20
-89.35199650543979
 30
0.0
 10
84.6377278434239
 20
-89.43295624934315
 30
0.0
 10
84.61671276096388
 20
-89.61864689599813
 30
0.0
 10
84.43067760476039
 20
-89.72510034649234
 30
0.0
 10
84.31836749194125
 20
-89.78814559387241
 30
0.0
 10
84.21914874196605
 20
-89.79193519890619
 30
0.0
 10
84.1343993930289
 20
-89.79538029439144
 30
0.0
 10
84.1343993930289
 20
-89.79538029439144
 30
0.0
 10
84.1343993930289
 20
-89.60796709999384
 30
0.0
 10
84.1343993930289
 20
-89.60796709999384
 30
0.0
 10
84.20846894596177
 20
-89.60624455225123
 30
0.0
 10
84.44307994850729
 20
-89.59728730398957
 30
0.0
 10
84.44307994850729
 20
-89.35544160092503
 30
0.0
 10
84.44307994850729
 20
-89.23830835442654
 30
0.0
 10
84.37348901970525
 20
-89.10842825463261
 30
0.0
 10
84.14507918903318
 20
-89.10842825463261
 30
0.0
 10
84.02863496163174
 20
-89.10842825463261
 30
0.0
 10
83.9800591152897
 20
-89.14081215219397
 30
0.0
 10
83.94836423682541
 20
-89.16802840652744
 30
0.0
 10
83.87429468389254
 20
-89.23107365390752
 30
0.0
 10
83.86154783059712
 20
-89.33029240388271
 30
0.0
 10
83.86154783059712
 20
-89.37714570248211
 30
0.0
 10
83.86154783059712
 20
-89.39333765126278
 30
0.0
 10
83.86361488788826
 20
-89.4239990010815
 30
0.0
 10
83.86774900247056
 20
-89.4474256503812
 30
0.0
 10
83.86774900247056
 20
-89.4474256503812
 30
0.0
 10
83.67310110755395
 20
-89.4474256503812
 30
0.0
 10
83.67310110755395
 20
-89.4474256503812
 30
0.0
 10
83.67964678897593
 20
-89.41504175281986
 30
0.0
 10
83.68171384626707
 20
-89.37886825022473
 30
0.0
 10
83.68171384626707
 20
-89.37370060699686
 30
0.0
 10
83.68171384626707
 20
-89.31754555058728
 30
0.0
 10
83.66035425425852
 20
-89.148046852713
 30
0.0
 10
83.42367619442186
 20
-89.148046852713
 30
0.0
 10
83.24590926738297
 20
-89.148046852713
 30
0.0
 10
83.19078773961897
 20
-89.26001245598361
 30
0.0
 10
83.19078773961897
 20
-89.3537190531824
 30
0.0
 10
83.19078773961897
 20
-89.57902829791774
 30
0.0
 10
83.42367619442186
 20
-89.58626299843677
 30
0.0
 10
83.49533418051506
 20
-89.59005260347055
 30
0.0
 10
83.49533418051506
 20
-89.59005260347055
 30
0.0
 10
83.49533418051506
 20
-89.76299639683009
 30
0.0
 10
83.49533418051506
 20
-89.76299639683009
 30
0.0
 10
83.37062172394901
 20
-89.75576169631107
 30
0.0
 10
82.99407278741121
 20
-89.73233504701136
 30
0.0
 10
82.99407278741121
 20
-89.34303925717813
 30
0.0
 10
82.99407278741121
 20
-89.15183645774677
 30
0.0
 10
83.12119681081693
 20
-88.94616425727735
 30
0.0
 10
83.41713051299989
 20
-88.94616425727735
 30
0.0
 10
83.6035101787519
 20
-88.94616425727735
 30
0.0
 10
83.68584796084937
 20
-89.02746851072925
 30
0.0
 10
83.74717066048682
 20
-89.11221785966639
 30
0.0
 10
83.77473142436882
 20
-89.0598524082906
 30
0.0
 10
83.85500214917514
 20
-88.90482311145435
 30
0.0
 10
84.13233233573776
 20
-88.90482311145435
 30
0.0
 10
84.47064071238928
 20
-88.90482311145435
 30
0.0
 10
84.6377278434239
 20
-89.11566295515165
 30
0.0
 10
84.6377278434239
 20
-89.35199650543979
 30
0.0
  0
HATCH
  5
15F
330
158
100
AcDbEntity
  8
_U+30EC_U+30A4_U+30E4_U+30FC 1
 62
   179
420
  2234388
100
AcDbHatch
 10
0.0
 20
0.0
 30
0.0
210
0.0
220
0.0
230
1.0
  2
SOLID
 70
     1
 71
     0
 91
        1
 92
        1
 93
        1
 72
     4
 94
        3
 73
     0
 74
     1
 95
       62
 96
       58
 40
0.0
 40
0.0
 40
0.0
 40
0.0
 40
1.0
 40
1.0
 40
1.0
 40
2.0
 40
2.0
 40
2.0
 40
3.0
 40
3.0
 40
3.0
 40
4.0
 40
4.0
 40
4.0
 40
5.0
 40
5.0
 40
5.0
 40
6.0
 40
6.0
 40
6.0
 40
7.0
 40
7.0
 40
7.0
 40
8.0
 40
8.0
 40
8.0
 40
9.0
 40
9.0
 40
9.0
 40
10.0
 40
10.0
 40
10.0
 40
11.0
 40
11.0
 40
11.0
 40
12.0
 40
12.0
 40
12.0
 40
13.0
 40
13.0
 40
13.0
 40
14.0
 40
14.0
 40
14.0
 40
15.0
 40
15.0
 40
15.0
 40
16.0
 40
16.0
 40
16.0
 40
17.0
 40
17.0
 40
17.0
 40
18.0
 40
18.0
 40
18.0
 40
19.0
 40
19.0
 40
19.0
 40
19.0
 10
84.6377278434239
 20
-89.35199650543979
 10
84.6377278434239
 20
-89.43295624934315
 10
84.61671276096388
 20
-89.61864689599813
 10
84.43067760476039
 20
-89.72510034649234
 10
84.31836749194125
 20
-89.78814559387241
 10
84.21914874196605
 20
-89.79193519890619
 10
84.1343993930289
 20
-89.79538029439144
 10
84.1343993930289
 20
-89.79538029439144
 10
84.1343993930289
 20
-89.60796709999384
 10
84.1343993930289
 20
-89.60796709999384
 10
84.20846894596177
 20
-89.60624455225123
 10
84.44307994850729
 20
-89.59728730398957
 10
84.44307994850729
 20
-89.35544160092503
 10
84.44307994850729
 20
-89.23830835442654
 10
84.37348901970525
 20
-89.10842825463261
 10
84.14507918903318
 20
-89.10842825463261
 10
84.02863496163174
 20
-89.10842825463261
 10
83.9800591152897
 20
-89.14081215219397
 10
83.94836423682541
 20
-89.16802840652744
 10
83.87429468389254
 20
-89.23107365390752
 10
83.86154783059712
 20
-89.33029240388271
 10
83.86154783059712
 20
-89.37714570248211
 10
83.86154783059712
 20
-89.39333765126278
 10
83.86361488788826
 20
-89.4239990010815
 10
83.86774900247056
 20
-89.4474256503812
 10
83.86774900247056
 20
-89.4474256503812
 10
83.67310110755395
 20
-89.4474256503812
 10
83.67310110755395
 20
-89.4474256503812
 10
83.67964678897593
 20
-89.41504175281986
 10
83.68171384626707
 20
-89.37886825022473
 10
83.68171384626707
 20
-89.37370060699686
 10
83.68171384626707
 20
-89.31754555058728
 10
83.66035425425852
 20
-89.148046852713
 10
83.42367619442186
 20
-89.148046852713
 10
83.24590926738297
 20
-89.148046852713
 10
83.19078773961897
 20
-89.26001245598361
 10
83.19078773961897
 20
-89.3537190531824
 10
83.19078773961897
 20
-89.57902829791774
 10
83.42367619442186
 20
-89.58626299843677
 10
83.49533418051506
 20
-89.59005260347055
 10
83.49533418051506
 20
-89.59005260347055
 10
83.49533418051506
 20
-89.76299639683009
 10
83.49533418051506
 20
-89.76299639683009
 10
83.37062172394901
 20
-89.75576169631107
 10
82.99407278741121
 20
-89.73233504701136
 10
82.99407278741121
 20
-89.34303925717813
 10
82.99407278741121
 20
-89.15183645774677
 10
83.12119681081693
 20
-88.94616425727735
 10
83.41713051299989
 20
-88.94616425727735
 10
83.6035101787519
 20
-88.94616425727735
 10
83.68584796084937
 20
-89.02746851072925
 10
83.74717066048682
 20
-89.11221785966639
 10
83.77473142436882
 20
-89.0598524082906
 10
83.85500214917514
 20
-88.90482311145435
 10
84.13233233573776
 20
-88.90482311145435
 10
84.47064071238928
 20
-88.90482311145435
 10
84.6377278434239
 20
-89.11566295515165
 10
84.6377278434239
 20
-89.35199650543979
 97
        0
 97
        0
 75
     2
 76
     1
 98
        0
  0
ENDBLK
  5
15B
330
158
100
AcDbEntity
  8
0
100
AcDbBlockEnd
  0
BLOCK
  5
162
330
160
100
AcDbEntity
  8
0
100
AcDbBlockBegin
  2
block 16
 70
     0
 10
0.0
 20
0.0
 30
0.0
  3
block 16
  1

  0
SPLINE
  5
164
330
160
100
AcDbEntity
  8
_U+30EC_U+30A4_U+30E4_U+30FC 1
370
     0
100
AcDbSpline
210
0.0
220
0.0
230
1.0
 70
    11
 71
     3
 72
    38
 73
    34
 74
     0
 42
0.0000000001
 43
0.0000000001
 12
1.0
 22
0.0
 32
0.0
 13
1.0
 23
0.0
 33
0.0
 40
0.0
 40
0.0
 40
0.0
 40
0.0
 40
1.0
 40
1.0
 40
1.0
 40
2.0
 40
2.0
 40
2.0
 40
3.0
 40
3.0
 40
3.0
 40
4.0
 40
4.0
 40
4.0
 40
5.0
 40
5.0
 40
5.0
 40
6.0
 40
6.0
 40
6.0
 40
7.0
 40
7.0
 40
7.0
 40
8.0
 40
8.0
 40
8.0
 40
9.0
 40
9.0
 40
9.0
 40
10.0
 40
10.0
 40
10.0
 40
11.0
 40
11.0
 40
11.0
 40
11.0
 10
74.88328448648751
 20
-98.82945418536208
 30
0.0
 10
74.74444713843195
 20
-99.055796958743
 30
0.0
 10
74.63248153516133
 20
-99.13400062625817
 30
0.0
 10
74.56599119229601
 20
-99.18257647260019
 30
0.0
 10
74.56599119229601
 20
-99.18257647260019
 30
0.0
 10
74.42164169146403
 20
-99.01548934156558
 30
0.0
 10
74.42164169146403
 20
-99.01548934156558
 30
0.0
 10
74.72825518965128
 20
-98.8504692678221
 30
0.0
 10
74.90843368352984
 20
-98.48012150315775
 30
0.0
 10
74.95907658716301
 20
-98.16282820896625
 30
0.0
 10
74.95907658716301
 20
-98.16282820896625
 30
0.0
 10
74.73721243791292
 20
-98.16282820896625
 30
0.0
 10
74.73721243791292
 20
-98.16282820896625
 30
0.0
 10
74.6831244387945
 20
-98.16282820896625
 30
0.0
 10
74.56599119229601
 20
-98.18177623413511
 30
0.0
 10
74.50639104040118
 20
-98.1924560301394
 30
0.0
 10
74.50639104040118
 20
-98.1924560301394
 30
0.0
 10
74.50639104040118
 20
-97.97265893818044
 30
0.0
 10
74.50639104040118
 20
-97.97265893818044
 30
0.0
 10
74.55152179125795
 20
-97.98506128192734
 30
0.0
 10
74.67037758549908
 20
-97.98747284876703
 30
0.0
 10
74.72102048913224
 20
-97.98747284876703
 30
0.0
 10
74.72102048913224
 20
-97.98747284876703
 30
0.0
 10
74.91394583630624
 20
-97.98747284876703
 30
0.0
 10
74.91394583630624
 20
-97.98747284876703
 30
0.0
 10
74.92669268960167
 20
-97.98747284876703
 30
0.0
 10
75.01316458628143
 20
-97.98506128192734
 30
0.0
 10
75.10135903070383
 20
-97.9788601100539
 30
0.0
 10
75.10135903070383
 20
-97.9788601100539
 30
0.0
 10
75.1699164308603
 20
-98.06360945899105
 30
0.0
 10
75.1699164308603
 20
-98.06360945899105
 30
0.0
 10
75.10308157844645
 20
-98.32784828270971
 30
0.0
 10
75.0293565350621
 20
-98.59036455868575
 30
0.0
 10
74.88328448648751
 20
-98.82945418536208
 30
0.0
  0
SPLINE
  5
165
330
160
100
AcDbEntity
  8
_U+30EC_U+30A4_U+30E4_U+30FC 1
370
     0
100
AcDbSpline
210
0.0
220
0.0
230
1.0
 70
    11
 71
     3
 72
    77
 73
    73
 74
     0
 42
0.0000000001
 43
0.0000000001
 12
1.0
 22
0.0
 32
0.0
 13
1.0
 23
0.0
 33
0.0
 40
0.0
 40
0.0
 40
0.0
 40
0.0
 40
1.0
 40
1.0
 40
1.0
 40
2.0
 40
2.0
 40
2.0
 40
3.0
 40
3.0
 40
3.0
 40
4.0
 40
4.0
 40
4.0
 40
5.0
 40
5.0
 40
5.0
 40
6.0
 40
6.0
 40
6.0
 40
7.0
 40
7.0
 40
7.0
 40
8.0
 40
8.0
 40
8.0
 40
9.0
 40
9.0
 40
9.0
 40
10.0
 40
10.0
 40
10.0
 40
11.0
 40
11.0
 40
11.0
 40
12.0
 40
12.0
 40
12.0
 40
13.0
 40
13.0
 40
13.0
 40
14.0
 40
14.0
 40
14.0
 40
15.0
 40
15.0
 40
15.0
 40
16.0
 40
16.0
 40
16.0
 40
17.0
 40
17.0
 40
17.0
 40
18.0
 40
18.0
 40
18.0
 40
19.0
 40
19.0
 40
19.0
 40
20.0
 40
20.0
 40
20.0
 40
21.0
 40
21.0
 40
21.0
 40
22.0
 40
22.0
 40
22.0
 40
23.0
 40
23.0
 40
23.0
 40
24.0
 40
24.0
 40
24.0
 40
24.0
 10
75.92025822754772
 20
-99.21220429377334
 30
0.0
 10
75.6567084229261
 20
-99.01342228427443
 30
0.0
 10
75.51270343164266
 20
-98.81016165064469
 30
0.0
 10
75.34664982925362
 20
-98.43774682868919
 30
0.0
 10
75.34664982925362
 20
-98.43774682868919
 30
0.0
 10
75.34664982925362
 20
-98.64962020103205
 30
0.0
 10
75.34664982925362
 20
-98.64962020103205
 30
0.0
 10
75.34664982925362
 20
-98.68544919407864
 30
0.0
 10
75.34664982925362
 20
-98.70853133382981
 30
0.0
 10
75.34837237699624
 20
-98.89904511416414
 30
0.0
 10
75.34837237699624
 20
-98.94348684592386
 30
0.0
 10
75.35388452977264
 20
-99.13606768354933
 30
0.0
 10
75.35388452977264
 20
-99.17396373388706
 30
0.0
 10
75.35388452977264
 20
-99.32864852117478
 30
0.0
 10
75.33769258099197
 20
-99.41098630327225
 30
0.0
 10
75.13029783277993
 20
-99.41098630327225
 30
0.0
 10
75.08516708192316
 20
-99.41098630327225
 30
0.0
 10
75.05278318436181
 20
-99.40685218868995
 30
0.0
 10
75.02556693002833
 20
-99.40478513139881
 30
0.0
 10
75.02556693002833
 20
-99.40478513139881
 30
0.0
 10
74.95184188664399
 20
-99.17396373388706
 30
0.0
 10
74.95184188664399
 20
-99.17396373388706
 30
0.0
 10
75.0114420385388
 20
-99.19739038318677
 30
0.0
 10
75.11238333625663
 20
-99.20807017919104
 30
0.0
 10
75.1175509794845
 20
-99.20807017919104
 30
0.0
 10
75.1699164308603
 20
-99.20807017919104
 30
0.0
 10
75.17715113137933
 20
-99.17844235801789
 30
0.0
 10
75.17715113137933
 20
-99.13813474084047
 30
0.0
 10
75.17715113137933
 20
-99.13813474084047
 30
0.0
 10
75.17715113137933
 20
-97.9829942246362
 30
0.0
 10
75.17715113137933
 20
-97.9829942246362
 30
0.0
 10
75.17715113137933
 20
-97.81384003631044
 30
0.0
 10
75.17715113137933
 20
-97.78214515784613
 30
0.0
 10
75.1699164308603
 20
-97.50068085670122
 30
0.0
 10
75.1699164308603
 20
-97.50068085670122
 30
0.0
 10
75.34664982925362
 20
-97.51756182457895
 30
0.0
 10
75.34664982925362
 20
-97.51756182457895
 30
0.0
 10
75.35939668254905
 20
-97.51962888187009
 30
0.0
 10
75.4096950766337
 20
-97.52617456329207
 30
0.0
 10
75.4096950766337
 20
-97.55580238446522
 30
0.0
 10
75.4096950766337
 20
-97.57681746692525
 30
0.0
 10
75.38282333184874
 20
-97.59163137751182
 30
0.0
 10
75.35388452977264
 20
-97.6064452880984
 30
0.0
 10
75.34664982925362
 20
-97.82245277502356
 30
0.0
 10
75.34664982925362
 20
-97.8879095892433
 30
0.0
 10
75.34664982925362
 20
-97.9788601100539
 30
0.0
 10
75.35767413480642
 20
-98.02123478452248
 30
0.0
 10
75.37558863132972
 20
-98.09323728016419
 30
0.0
 10
75.42416447767174
 20
-98.22001679402139
 30
0.0
 10
75.51993813216168
 20
-98.14594724108852
 30
0.0
 10
75.64775117466445
 20
-98.02330184181362
 30
0.0
 10
75.75971677793507
 20
-97.84760197206589
 30
0.0
 10
75.75971677793507
 20
-97.84760197206589
 30
0.0
 10
75.91819117025656
 20
-97.9829942246362
 30
0.0
 10
75.91819117025656
 20
-97.9829942246362
 30
0.0
 10
75.93472762858576
 20
-97.99574107793163
 30
0.0
 10
75.93989527181364
 20
-98.0064208739359
 30
0.0
 10
75.93989527181364
 20
-98.01710066994018
 30
0.0
 10
75.93989527181364
 20
-98.05086260569563
 30
0.0
 10
75.90027667373327
 20
-98.0463839815648
 30
0.0
 10
75.87685002443357
 20
-98.04431692427364
 30
0.0
 10
75.85342337513387
 20
-98.06774357357335
 30
0.0
 10
75.83550887861057
 20
-98.08462454145108
 30
0.0
 10
75.67117782396416
 20
-98.24757755790338
 30
0.0
 10
75.62811413039853
 20
-98.28995223237196
 30
0.0
 10
75.57574867902274
 20
-98.33439396413168
 30
0.0
 10
75.4982340306046
 20
-98.38917098234715
 30
0.0
 10
75.68943683003597
 20
-98.7743326575981
 30
0.0
 10
75.8785725721762
 20
-98.90765785287725
 30
0.0
 10
76.06633027612232
 20
-99.04098304815642
 30
0.0
 10
76.06633027612232
 20
-99.04098304815642
 30
0.0
 10
75.92025822754772
 20
-99.21220429377334
 30
0.0
 10
75.92025822754772
 20
-99.21220429377334
 30
0.0
  0
HATCH
  5
166
330
160
100
AcDbEntity
  8
_U+30EC_U+30A4_U+30E4_U+30FC 1
 62
   179
420
  2234388
100
AcDbHatch
 10
0.0
 20
0.0
 30
0.0
210
0.0
220
0.0
230
1.0
  2
SOLID
 70
     1
 71
     0
 91
        2
 92
        1
 93
        1
 72
     4
 94
        3
 73
     0
 74
     1
 95
       38
 96
       34
 40
0.0
 40
0.0
 40
0.0
 40
0.0
 40
1.0
 40
1.0
 40
1.0
 40
2.0
 40
2.0
 40
2.0
 40
3.0
 40
3.0
 40
3.0
 40
4.0
 40
4.0
 40
4.0
 40
5.0
 40
5.0
 40
5.0
 40
6.0
 40
6.0
 40
6.0
 40
7.0
 40
7.0
 40
7.0
 40
8.0
 40
8.0
 40
8.0
 40
9.0
 40
9.0
 40
9.0
 40
10.0
 40
10.0
 40
10.0
 40
11.0
 40
11.0
 40
11.0
 40
11.0
 10
74.88328448648751
 20
-98.82945418536208
 10
74.74444713843195
 20
-99.055796958743
 10
74.63248153516133
 20
-99.13400062625817
 10
74.56599119229601
 20
-99.18257647260019
 10
74.56599119229601
 20
-99.18257647260019
 10
74.42164169146403
 20
-99.01548934156558
 10
74.42164169146403
 20
-99.01548934156558
 10
74.72825518965128
 20
-98.8504692678221
 10
74.90843368352984
 20
-98.48012150315775
 10
74.95907658716301
 20
-98.16282820896625
 10
74.95907658716301
 20
-98.16282820896625
 10
74.73721243791292
 20
-98.16282820896625
 10
74.73721243791292
 20
-98.16282820896625
 10
74.6831244387945
 20
-98.16282820896625
 10
74.56599119229601
 20
-98.18177623413511
 10
74.50639104040118
 20
-98.1924560301394
 10
74.50639104040118
 20
-98.1924560301394
 10
74.50639104040118
 20
-97.97265893818044
 10
74.50639104040118
 20
-97.97265893818044
 10
74.55152179125795
 20
-97.98506128192734
 10
74.67037758549908
 20
-97.98747284876703
 10
74.72102048913224
 20
-97.98747284876703
 10
74.72102048913224
 20
-97.98747284876703
 10
74.91394583630624
 20
-97.98747284876703
 10
74.91394583630624
 20
-97.98747284876703
 10
74.92669268960167
 20
-97.98747284876703
 10
75.01316458628143
 20
-97.98506128192734
 10
75.10135903070383
 20
-97.9788601100539
 10
75.10135903070383
 20
-97.9788601100539
 10
75.1699164308603
 20
-98.06360945899105
 10
75.1699164308603
 20
-98.06360945899105
 10
75.10308157844645
 20
-98.32784828270971
 10
75.0293565350621
 20
-98.59036455868575
 10
74.88328448648751
 20
-98.82945418536208
 97
        0
 97
        0
 92
        1
 93
        1
 72
     4
 94
        3
 73
     0
 74
     1
 95
       77
 96
       73
 40
0.0
 40
0.0
 40
0.0
 40
0.0
 40
1.0
 40
1.0
 40
1.0
 40
2.0
 40
2.0
 40
2.0
 40
3.0
 40
3.0
 40
3.0
 40
4.0
 40
4.0
 40
4.0
 40
5.0
 40
5.0
 40
5.0
 40
6.0
 40
6.0
 40
6.0
 40
7.0
 40
7.0
 40
7.0
 40
8.0
 40
8.0
 40
8.0
 40
9.0
 40
9.0
 40
9.0
 40
10.0
 40
10.0
 40
10.0
 40
11.0
 40
11.0
 40
11.0
 40
12.0
 40
12.0
 40
12.0
 40
13.0
 40
13.0
 40
13.0
 40
14.0
 40
14.0
 40
14.0
 40
15.0
 40
15.0
 40
15.0
 40
16.0
 40
16.0
 40
16.0
 40
17.0
 40
17.0
 40
17.0
 40
18.0
 40
18.0
 40
18.0
 40
19.0
 40
19.0
 40
19.0
 40
20.0
 40
20.0
 40
20.0
 40
21.0
 40
21.0
 40
21.0
 40
22.0
 40
22.0
 40
22.0
 40
23.0
 40
23.0
 40
23.0
 40
24.0
 40
24.0
 40
24.0
 40
24.0
 10
75.92025822754772
 20
-99.21220429377334
 10
75.6567084229261
 20
-99.01342228427443
 10
75.51270343164266
 20
-98.81016165064469
 10
75.34664982925362
 20
-98.43774682868919
 10
75.34664982925362
 20
-98.43774682868919
 10
75.34664982925362
 20
-98.64962020103205
 10
75.34664982925362
 20
-98.64962020103205
 10
75.34664982925362
 20
-98.68544919407864
 10
75.34664982925362
 20
-98.70853133382981
 10
75.34837237699624
 20
-98.89904511416414
 10
75.34837237699624
 20
-98.94348684592386
 10
75.35388452977264
 20
-99.13606768354933
 10
75.35388452977264
 20
-99.17396373388706
 10
75.35388452977264
 20
-99.32864852117478
 10
75.33769258099197
 20
-99.41098630327225
 10
75.13029783277993
 20
-99.41098630327225
 10
75.08516708192316
 20
-99.41098630327225
 10
75.05278318436181
 20
-99.40685218868995
 10
75.02556693002833
 20
-99.40478513139881
 10
75.02556693002833
 20
-99.40478513139881
 10
74.95184188664399
 20
-99.17396373388706
 10
74.95184188664399
 20
-99.17396373388706
 10
75.0114420385388
 20
-99.19739038318677
 10
75.11238333625663
 20
-99.20807017919104
 10
75.1175509794845
 20
-99.20807017919104
 10
75.1699164308603
 20
-99.20807017919104
 10
75.17715113137933
 20
-99.17844235801789
 10
75.17715113137933
 20
-99.13813474084047
 10
75.17715113137933
 20
-99.13813474084047
 10
75.17715113137933
 20
-97.9829942246362
 10
75.17715113137933
 20
-97.9829942246362
 10
75.17715113137933
 20
-97.81384003631044
 10
75.17715113137933
 20
-97.78214515784613
 10
75.1699164308603
 20
-97.50068085670122
 10
75.1699164308603
 20
-97.50068085670122
 10
75.34664982925362
 20
-97.51756182457895
 10
75.34664982925362
 20
-97.51756182457895
 10
75.35939668254905
 20
-97.51962888187009
 10
75.4096950766337
 20
-97.52617456329207
 10
75.4096950766337
 20
-97.55580238446522
 10
75.4096950766337
 20
-97.57681746692525
 10
75.38282333184874
 20
-97.59163137751182
 10
75.35388452977264
 20
-97.6064452880984
 10
75.34664982925362
 20
-97.82245277502356
 10
75.34664982925362
 20
-97.8879095892433
 10
75.34664982925362
 20
-97.9788601100539
 10
75.35767413480642
 20
-98.02123478452248
 10
75.37558863132972
 20
-98.09323728016419
 10
75.42416447767174
 20
-98.22001679402139
 10
75.51993813216168
 20
-98.14594724108852
 10
75.64775117466445
 20
-98.02330184181362
 10
75.75971677793507
 20
-97.84760197206589
 10
75.75971677793507
 20
-97.84760197206589
 10
75.91819117025656
 20
-97.9829942246362
 10
75.91819117025656
 20
-97.9829942246362
 10
75.93472762858576
 20
-97.99574107793163
 10
75.93989527181364
 20
-98.0064208739359
 10
75.93989527181364
 20
-98.01710066994018
 10
75.93989527181364
 20
-98.05086260569563
 10
75.90027667373327
 20
-98.0463839815648
 10
75.87685002443357
 20
-98.04431692427364
 10
75.85342337513387
 20
-98.06774357357335
 10
75.83550887861057
 20
-98.08462454145108
 10
75.67117782396416
 20
-98.24757755790338
 10
75.62811413039853
 20
-98.28995223237196
 10
75.57574867902274
 20
-98.33439396413168
 10
75.4982340306046
 20
-98.38917098234715
 10
75.68943683003597
 20
-98.7743326575981
 10
75.8785725721762
 20
-98.90765785287725
 10
76.06633027612232
 20
-99.04098304815642
 10
76.06633027612232
 20
-99.04098304815642
 10
75.92025822754772
 20
-99.21220429377334
 10
75.92025822754772
 20
-99.21220429377334
 97
        0
 97
        0
 75
     2
 76
     1
 98
        0
  0
SPLINE
  5
167
330
160
100
AcDbEntity
  8
_U+30EC_U+30A4_U+30E4_U+30FC 1
370
     0
100
AcDbSpline
210
0.0
220
0.0
230
1.0
 70
    11
 71
     3
 72
    17
 73
    13
 74
     0
 42
0.0000000001
 43
0.0000000001
 12
1.0
 22
0.0
 32
0.0
 13
1.0
 23
0.0
 33
0.0
 40
0.0
 40
0.0
 40
0.0
 40
0.0
 40
1.0
 40
1.0
 40
1.0
 40
2.0
 40
2.0
 40
2.0
 40
3.0
 40
3.0
 40
3.0
 40
4.0
 40
4.0
 40
4.0
 40
4.0
 10
76.49386662584182
 20
-98.5014810951663
 30
0.0
 10
76.42909883071911
 20
-98.41259763164686
 30
0.0
 10
76.34434948178198
 20
-98.3512749320094
 30
0.0
 10
76.25408798006842
 20
-98.30028751882772
 30
0.0
 10
76.25408798006842
 20
-98.30028751882772
 30
0.0
 10
76.33332517622917
 20
-98.11631941991537
 30
0.0
 10
76.33332517622917
 20
-98.11631941991537
 30
0.0
 10
76.43082137846174
 20
-98.16696232354855
 30
0.0
 10
76.52280542791792
 20
-98.23483070460796
 30
0.0
 10
76.58585067529799
 20
-98.33439396413168
 30
0.0
 10
76.58585067529799
 20
-98.33439396413168
 30
0.0
 10
76.49386662584182
 20
-98.5014810951663
 30
0.0
 10
76.49386662584182
 20
-98.5014810951663
 30
0.0
  0
SPLINE
  5
168
330
160
100
AcDbEntity
  8
_U+30EC_U+30A4_U+30E4_U+30FC 1
370
     0
100
AcDbSpline
210
0.0
220
0.0
230
1.0
 70
    11
 71
     3
 72
    26
 73
    22
 74
     0
 42
0.0000000001
 43
0.0000000001
 12
1.0
 22
0.0
 32
0.0
 13
1.0
 23
0.0
 33
0.0
 40
0.0
 40
0.0
 40
0.0
 40
0.0
 40
1.0
 40
1.0
 40
1.0
 40
2.0
 40
2.0
 40
2.0
 40
3.0
 40
3.0
 40
3.0
 40
4.0
 40
4.0
 40
4.0
 40
5.0
 40
5.0
 40
5.0
 40
6.0
 40
6.0
 40
6.0
 40
7.0
 40
7.0
 40
7.0
 40
7.0
 10
76.45252548001882
 20
-99.32210283975282
 30
0.0
 10
76.45252548001882
 20
-99.33071557846594
 30
0.0
 10
76.45424802776144
 20
-99.3730902529345
 30
0.0
 10
76.45424802776144
 20
-99.37929142480796
 30
0.0
 10
76.45424802776144
 20
-99.40030650726798
 30
0.0
 10
76.44322372220864
 20
-99.40685218868995
 30
0.0
 10
76.43254392620437
 20
-99.40685218868995
 30
0.0
 10
76.41979707290895
 20
-99.40685218868995
 30
0.0
 10
76.40739472916205
 20
-99.39823944997683
 30
0.0
 10
76.3984374809004
 20
-99.38790416352109
 30
0.0
 10
76.3984374809004
 20
-99.38790416352109
 30
0.0
 10
76.26683483336384
 20
-99.23321937623336
 30
0.0
 10
76.26683483336384
 20
-99.23321937623336
 30
0.0
 10
76.41290688193844
 20
-99.05338539190332
 30
0.0
 10
76.53176267617957
 20
-98.86735023569983
 30
0.0
 10
76.6454508271928
 20
-98.5373100882129
 30
0.0
 10
76.6454508271928
 20
-98.5373100882129
 30
0.0
 10
76.7570719209149
 20
-98.7109429006695
 30
0.0
 10
76.7570719209149
 20
-98.7109429006695
 30
0.0
 10
76.69781627856861
 20
-98.90111217145528
 30
0.0
 10
76.55863442096451
 20
-99.17637530072675
 30
0.0
 10
76.45252548001882
 20
-99.32210283975282
 30
0.0
  0
SPLINE
  5
169
330
160
100
AcDbEntity
  8
_U+30EC_U+30A4_U+30E4_U+30FC 1
370
     0
100
AcDbSpline
210
0.0
220
0.0
230
1.0
 70
    11
 71
     3
 72
    17
 73
    13
 74
     0
 42
0.0000000001
 43
0.0000000001
 12
1.0
 22
0.0
 32
0.0
 13
1.0
 23
0.0
 33
0.0
 40
0.0
 40
0.0
 40
0.0
 40
0.0
 40
1.0
 40
1.0
 40
1.0
 40
2.0
 40
2.0
 40
2.0
 40
3.0
 40
3.0
 40
3.0
 40
4.0
 40
4.0
 40
4.0
 40
4.0
 10
76.56965872651732
 20
-97.90892467170333
 30
0.0
 10
76.48490937758017
 20
-97.79041338701073
 30
0.0
 10
76.38224553211973
 20
-97.74631616479954
 30
0.0
 10
76.33332517622917
 20
-97.72495657279099
 30
0.0
 10
76.33332517622917
 20
-97.72495657279099
 30
0.0
 10
76.40911727690467
 20
-97.5430555311698
 30
0.0
 10
76.40911727690467
 20
-97.5430555311698
 30
0.0
 10
76.48490937758017
 20
-97.57061629505179
 30
0.0
 10
76.60032007633603
 20
-97.65949975857124
 30
0.0
 10
76.66508787145874
 20
-97.73356931150411
 30
0.0
 10
76.66508787145874
 20
-97.73356931150411
 30
0.0
 10
76.56965872651732
 20
-97.90892467170333
 30
0.0
 10
76.56965872651732
 20
-97.90892467170333
 30
0.0
  0
SPLINE
  5
16A
330
160
100
AcDbEntity
  8
_U+30EC_U+30A4_U+30E4_U+30FC 1
370
     0
100
AcDbSpline
210
0.0
220
0.0
230
1.0
 70
    11
 71
     3
 72
   119
 73
   115
 74
     0
 42
0.0000000001
 43
0.0000000001
 12
1.0
 22
0.0
 32
0.0
 13
1.0
 23
0.0
 33
0.0
 40
0.0
 40
0.0
 40
0.0
 40
0.0
 40
1.0
 40
1.0
 40
1.0
 40
2.0
 40
2.0
 40
2.0
 40
3.0
 40
3.0
 40
3.0
 40
4.0
 40
4.0
 40
4.0
 40
5.0
 40
5.0
 40
5.0
 40
6.0
 40
6.0
 40
6.0
 40
7.0
 40
7.0
 40
7.0
 40
8.0
 40
8.0
 40
8.0
 40
9.0
 40
9.0
 40
9.0
 40
10.0
 40
10.0
 40
10.0
 40
11.0
 40
11.0
 40
11.0
 40
12.0
 40
12.0
 40
12.0
 40
13.0
 40
13.0
 40
13.0
 40
14.0
 40
14.0
 40
14.0
 40
15.0
 40
15.0
 40
15.0
 40
16.0
 40
16.0
 40
16.0
 40
17.0
 40
17.0
 40
17.0
 40
18.0
 40
18.0
 40
18.0
 40
19.0
 40
19.0
 40
19.0
 40
20.0
 40
20.0
 40
20.0
 40
21.0
 40
21.0
 40
21.0
 40
22.0
 40
22.0
 40
22.0
 40
23.0
 40
23.0
 40
23.0
 40
24.0
 40
24.0
 40
24.0
 40
25.0
 40
25.0
 40
25.0
 40
26.0
 40
26.0
 40
26.0
 40
27.0
 40
27.0
 40
27.0
 40
28.0
 40
28.0
 40
28.0
 40
29.0
 40
29.0
 40
29.0
 40
30.0
 40
30.0
 40
30.0
 40
31.0
 40
31.0
 40
31.0
 40
32.0
 40
32.0
 40
32.0
 40
33.0
 40
33.0
 40
33.0
 40
34.0
 40
34.0
 40
34.0
 40
35.0
 40
35.0
 40
35.0
 40
36.0
 40
36.0
 40
36.0
 40
37.0
 40
37.0
 40
37.0
 40
38.0
 40
38.0
 40
38.0
 40
38.0
 10
77.46779511952194
 20
-98.23276364731682
 30
0.0
 10
77.46779511952194
 20
-98.23276364731682
 30
0.0
 10
77.35961912128509
 20
-98.23276364731682
 30
0.0
 10
77.35961912128509
 20
-98.23276364731682
 30
0.0
 10
77.35961912128509
 20
-98.23276364731682
 30
0.0
 10
77.35961912128509
 20
-98.49493541374433
 30
0.0
 10
77.35961912128509
 20
-98.49493541374433
 30
0.0
 10
77.35961912128509
 20
-98.49493541374433
 30
0.0
 10
77.46056041900292
 20
-98.49493541374433
 30
0.0
 10
77.46056041900292
 20
-98.49493541374433
 30
0.0
 10
77.54530976794007
 20
-98.49493541374433
 30
0.0
 10
77.68586966373826
 20
-98.49080129916203
 30
0.0
 10
77.76889646493278
 20
-98.48012150315775
 30
0.0
 10
77.76166176441376
 20
-98.63687334773662
 30
0.0
 10
77.76166176441376
 20
-98.67683645536552
 30
0.0
 10
77.76166176441376
 20
-98.7701985430158
 30
0.0
 10
77.76166176441376
 20
-98.7701985430158
 30
0.0
 10
77.76166176441376
 20
-99.0640651879076
 30
0.0
 10
77.76166176441376
 20
-99.0640651879076
 30
0.0
 10
77.76166176441376
 20
-99.14226885542277
 30
0.0
 10
77.765106859899
 20
-99.30935598645739
 30
0.0
 10
77.77406410816066
 20
-99.38790416352109
 30
0.0
 10
77.77406410816066
 20
-99.38790416352109
 30
0.0
 10
77.58837346150568
 20
-99.38790416352109
 30
0.0
 10
77.58837346150568
 20
-99.38790416352109
 30
0.0
 10
77.59044051879684
 20
-99.31383461058822
 30
0.0
 10
77.59044051879684
 20
-99.30108775729279
 30
0.0
 10
77.59044051879684
 20
-99.25010034411109
 30
0.0
 10
77.59044051879684
 20
-99.25010034411109
 30
0.0
 10
77.00959741998372
 20
-99.25010034411109
 30
0.0
 10
77.00959741998372
 20
-99.25010034411109
 30
0.0
 10
77.00959741998372
 20
-99.25457896824192
 30
0.0
 10
77.01131996772634
 20
-99.35827634234793
 30
0.0
 10
77.01683212050274
 20
-99.38790416352109
 30
0.0
 10
77.01683212050274
 20
-99.38790416352109
 30
0.0
 10
76.83114147384778
 20
-99.38790416352109
 30
0.0
 10
76.83114147384778
 20
-99.38790416352109
 30
0.0
 10
76.84009872210942
 20
-99.26939287882848
 30
0.0
 10
76.84182126985205
 20
-99.19118921131331
 30
0.0
 10
76.84182126985205
 20
-99.08955889449845
 30
0.0
 10
76.84182126985205
 20
-99.08955889449845
 30
0.0
 10
76.84182126985205
 20
-98.75090600829839
 30
0.0
 10
76.84182126985205
 20
-98.75090600829839
 30
0.0
 10
76.84182126985205
 20
-98.70853133382981
 30
0.0
 10
76.8328640215904
 20
-98.52663029220862
 30
0.0
 10
76.8328640215904
 20
-98.48873424187087
 30
0.0
 10
76.92484807104657
 20
-98.49493541374433
 30
0.0
 10
77.01510957276011
 20
-98.49493541374433
 30
0.0
 10
77.10709362221628
 20
-98.49493541374433
 30
0.0
 10
77.10709362221628
 20
-98.49493541374433
 30
0.0
 10
77.19528806663868
 20
-98.49493541374433
 30
0.0
 10
77.19528806663868
 20
-98.49493541374433
 30
0.0
 10
77.19528806663868
 20
-98.49493541374433
 30
0.0
 10
77.19528806663868
 20
-98.23276364731682
 30
0.0
 10
77.19528806663868
 20
-98.23276364731682
 30
0.0
 10
77.19528806663868
 20
-98.23276364731682
 30
0.0
 10
77.08883461614447
 20
-98.23276364731682
 30
0.0
 10
77.08883461614447
 20
-98.23276364731682
 30
0.0
 10
76.96274412138432
 20
-98.23276364731682
 30
0.0
 10
76.83458656933303
 20
-98.23689776189912
 30
0.0
 10
76.70677352683026
 20
-98.24964461519454
 30
0.0
 10
76.70677352683026
 20
-98.24964461519454
 30
0.0
 10
76.70677352683026
 20
-98.0422498669825
 30
0.0
 10
76.70677352683026
 20
-98.0422498669825
 30
0.0
 10
76.84009872210942
 20
-98.05706377756907
 30
0.0
 10
77.03130152154078
 20
-98.05913083486023
 30
0.0
 10
77.08883461614447
 20
-98.05913083486023
 30
0.0
 10
77.08883461614447
 20
-98.05913083486023
 30
0.0
 10
77.19528806663868
 20
-98.05913083486023
 30
0.0
 10
77.19528806663868
 20
-98.05913083486023
 30
0.0
 10
77.19528806663868
 20
-98.05913083486023
 30
0.0
 10
77.19528806663868
 20
-97.82245277502356
 30
0.0
 10
77.19528806663868
 20
-97.82245277502356
 30
0.0
 10
77.06196287135951
 20
-97.83933374290129
 30
0.0
 10
76.9555094208653
 20
-97.84346785748359
 30
0.0
 10
76.8673149764429
 20
-97.84760197206589
 30
0.0
 10
76.8673149764429
 20
-97.84760197206589
 30
0.0
 10
76.77154132195295
 20
-97.65743270128009
 30
0.0
 10
76.77154132195295
 20
-97.65743270128009
 30
0.0
 10
76.82218422558613
 20
-97.66363387315354
 30
0.0
 10
76.85284557540484
 20
-97.66363387315354
 30
0.0
 10
76.89246417348522
 20
-97.66363387315354
 30
0.0
 10
77.02578936876439
 20
-97.66363387315354
 30
0.0
 10
77.42610946415041
 20
-97.65295407714926
 30
0.0
 10
77.62626951184343
 20
-97.52204044870977
 30
0.0
 10
77.62626951184343
 20
-97.52204044870977
 30
0.0
 10
77.76166176441376
 20
-97.67431366915781
 30
0.0
 10
77.76166176441376
 20
-97.67431366915781
 30
0.0
 10
77.76717391719015
 20
-97.68051484103127
 30
0.0
 10
77.77234156041803
 20
-97.6932616943267
 30
0.0
 10
77.77234156041803
 20
-97.70600854762212
 30
0.0
 10
77.77234156041803
 20
-97.72082245820869
 30
0.0
 10
77.76338431215638
 20
-97.72909068737329
 30
0.0
 10
77.74891491111833
 20
-97.72909068737329
 30
0.0
 10
77.73651256737143
 20
-97.72909068737329
 30
0.0
 10
77.71101886078058
 20
-97.72082245820869
 30
0.0
 10
77.69310436425728
 20
-97.71427677678672
 30
0.0
 10
77.59733070976733
 20
-97.75458439396414
 30
0.0
 10
77.47847491552622
 20
-97.78214515784613
 30
0.0
 10
77.35961912128509
 20
-97.80109318301501
 30
0.0
 10
77.35961912128509
 20
-97.80109318301501
 30
0.0
 10
77.35961912128509
 20
-98.05913083486023
 30
0.0
 10
77.35961912128509
 20
-98.05913083486023
 30
0.0
 10
77.35961912128509
 20
-98.05913083486023
 30
0.0
 10
77.46779511952194
 20
-98.05913083486023
 30
0.0
 10
77.46779511952194
 20
-98.05913083486023
 30
0.0
 10
77.59733070976733
 20
-98.05913083486023
 30
0.0
 10
77.72376571407601
 20
-98.05706377756907
 30
0.0
 10
77.85364581386993
 20
-98.0422498669825
 30
0.0
 10
77.85364581386993
 20
-98.0422498669825
 30
0.0
 10
77.85364581386993
 20
-98.24964461519454
 30
0.0
 10
77.85364581386993
 20
-98.24964461519454
 30
0.0
 10
77.68759221148089
 20
-98.23276364731682
 30
0.0
 10
77.48398706830262
 20
-98.23276364731682
 30
0.0
 10
77.46779511952194
 20
-98.23276364731682
 30
0.0
  0
POLYLINE
  5
16B
330
160
100
AcDbEntity
  8
_U+30EC_U+30A4_U+30E4_U+30FC 1
370
     0
100
AcDb2dPolyline
 66
     1
 10
0.0
 20
0.0
 30
0.0
  0
VERTEX
  5
16C
330
16B
100
AcDbEntity
  8
_U+30EC_U+30A4_U+30E4_U+30FC 1
370
     0
100
AcDbVertex
100
AcDb2dVertex
 10
77.59216306653946
 20
-98.66443411161862
 30
0.0
  0
VERTEX
  5
16D
330
16B
100
AcDbEntity
  8
_U+30EC_U+30A4_U+30E4_U+30FC 1
370
     0
100
AcDbVertex
100
AcDb2dVertex
 10
77.00959741998372
 20
-98.66443411161862
 30
0.0
  0
VERTEX
  5
16E
330
16B
100
AcDbEntity
  8
_U+30EC_U+30A4_U+30E4_U+30FC 1
370
     0
100
AcDbVertex
100
AcDb2dVertex
 10
77.00959741998372
 20
-99.07681204120303
 30
0.0
  0
VERTEX
  5
16F
330
16B
100
AcDbEntity
  8
_U+30EC_U+30A4_U+30E4_U+30FC 1
370
     0
100
AcDbVertex
100
AcDb2dVertex
 10
77.59216306653946
 20
-99.07681204120303
 30
0.0
  0
VERTEX
  5
170
330
16B
100
AcDbEntity
  8
_U+30EC_U+30A4_U+30E4_U+30FC 1
370
     0
100
AcDbVertex
100
AcDb2dVertex
 10
77.59216306653946
 20
-98.66443411161862
 30
0.0
  0
SEQEND
  5
171
330
16B
100
AcDbEntity
  8
_U+30EC_U+30A4_U+30E4_U+30FC 1
370
     0
  0
HATCH
  5
172
330
160
100
AcDbEntity
  8
_U+30EC_U+30A4_U+30E4_U+30FC 1
 62
   179
420
  2234388
100
AcDbHatch
 10
0.0
 20
0.0
 30
0.0
210
0.0
220
0.0
230
1.0
  2
SOLID
 70
     1
 71
     0
 91
        5
 92
        1
 93
        1
 72
     4
 94
        3
 73
     0
 74
     1
 95
       17
 96
       13
 40
0.0
 40
0.0
 40
0.0
 40
0.0
 40
1.0
 40
1.0
 40
1.0
 40
2.0
 40
2.0
 40
2.0
 40
3.0
 40
3.0
 40
3.0
 40
4.0
 40
4.0
 40
4.0
 40
4.0
 10
76.49386662584182
 20
-98.5014810951663
 10
76.42909883071911
 20
-98.41259763164686
 10
76.34434948178198
 20
-98.3512749320094
 10
76.25408798006842
 20
-98.30028751882772
 10
76.25408798006842
 20
-98.30028751882772
 10
76.33332517622917
 20
-98.11631941991537
 10
76.33332517622917
 20
-98.11631941991537
 10
76.43082137846174
 20
-98.16696232354855
 10
76.52280542791792
 20
-98.23483070460796
 10
76.58585067529799
 20
-98.33439396413168
 10
76.58585067529799
 20
-98.33439396413168
 10
76.49386662584182
 20
-98.5014810951663
 10
76.49386662584182
 20
-98.5014810951663
 97
        0
 97
        0
 92
        1
 93
        1
 72
     4
 94
        3
 73
     0
 74
     1
 95
       26
 96
       22
 40
0.0
 40
0.0
 40
0.0
 40
0.0
 40
1.0
 40
1.0
 40
1.0
 40
2.0
 40
2.0
 40
2.0
 40
3.0
 40
3.0
 40
3.0
 40
4.0
 40
4.0
 40
4.0
 40
5.0
 40
5.0
 40
5.0
 40
6.0
 40
6.0
 40
6.0
 40
7.0
 40
7.0
 40
7.0
 40
7.0
 10
76.45252548001882
 20
-99.32210283975282
 10
76.45252548001882
 20
-99.33071557846594
 10
76.45424802776144
 20
-99.3730902529345
 10
76.45424802776144
 20
-99.37929142480796
 10
76.45424802776144
 20
-99.40030650726798
 10
76.44322372220864
 20
-99.40685218868995
 10
76.43254392620437
 20
-99.40685218868995
 10
76.41979707290895
 20
-99.40685218868995
 10
76.40739472916205
 20
-99.39823944997683
 10
76.3984374809004
 20
-99.38790416352109
 10
76.3984374809004
 20
-99.38790416352109
 10
76.26683483336384
 20
-99.23321937623336
 10
76.26683483336384
 20
-99.23321937623336
 10
76.41290688193844
 20
-99.05338539190332
 10
76.53176267617957
 20
-98.86735023569983
 10
76.6454508271928
 20
-98.5373100882129
 10
76.6454508271928
 20
-98.5373100882129
 10
76.7570719209149
 20
-98.7109429006695
 10
76.7570719209149
 20
-98.7109429006695
 10
76.69781627856861
 20
-98.90111217145528
 10
76.55863442096451
 20
-99.17637530072675
 10
76.45252548001882
 20
-99.32210283975282
 97
        0
 97
        0
 92
        1
 93
        1
 72
     4
 94
        3
 73
     0
 74
     1
 95
       17
 96
       13
 40
0.0
 40
0.0
 40
0.0
 40
0.0
 40
1.0
 40
1.0
 40
1.0
 40
2.0
 40
2.0
 40
2.0
 40
3.0
 40
3.0
 40
3.0
 40
4.0
 40
4.0
 40
4.0
 40
4.0
 10
76.56965872651732
 20
-97.90892467170333
 10
76.48490937758017
 20
-97.79041338701073
 10
76.38224553211973
 20
-97.74631616479954
 10
76.33332517622917
 20
-97.72495657279099
 10
76.33332517622917
 20
-97.72495657279099
 10
76.40911727690467
 20
-97.5430555311698
 10
76.40911727690467
 20
-97.5430555311698
 10
76.48490937758017
 20
-97.57061629505179
 10
76.60032007633603
 20
-97.65949975857124
 10
76.66508787145874
 20
-97.73356931150411
 10
76.66508787145874
 20
-97.73356931150411
 10
76.56965872651732
 20
-97.90892467170333
 10
76.56965872651732
 20
-97.90892467170333
 97
        0
 97
        0
 92
        1
 93
        1
 72
     4
 94
        3
 73
     0
 74
     1
 95
      119
 96
      115
 40
0.0
 40
0.0
 40
0.0
 40
0.0
 40
1.0
 40
1.0
 40
1.0
 40
2.0
 40
2.0
 40
2.0
 40
3.0
 40
3.0
 40
3.0
 40
4.0
 40
4.0
 40
4.0
 40
5.0
 40
5.0
 40
5.0
 40
6.0
 40
6.0
 40
6.0
 40
7.0
 40
7.0
 40
7.0
 40
8.0
 40
8.0
 40
8.0
 40
9.0
 40
9.0
 40
9.0
 40
10.0
 40
10.0
 40
10.0
 40
11.0
 40
11.0
 40
11.0
 40
12.0
 40
12.0
 40
12.0
 40
13.0
 40
13.0
 40
13.0
 40
14.0
 40
14.0
 40
14.0
 40
15.0
 40
15.0
 40
15.0
 40
16.0
 40
16.0
 40
16.0
 40
17.0
 40
17.0
 40
17.0
 40
18.0
 40
18.0
 40
18.0
 40
19.0
 40
19.0
 40
19.0
 40
20.0
 40
20.0
 40
20.0
 40
21.0
 40
21.0
 40
21.0
 40
22.0
 40
22.0
 40
22.0
 40
23.0
 40
23.0
 40
23.0
 40
24.0
 40
24.0
 40
24.0
 40
25.0
 40
25.0
 40
25.0
 40
26.0
 40
26.0
 40
26.0
 40
27.0
 40
27.0
 40
27.0
 40
28.0
 40
28.0
 40
28.0
 40
29.0
 40
29.0
 40
29.0
 40
30.0
 40
30.0
 40
30.0
 40
31.0
 40
31.0
 40
31.0
 40
32.0
 40
32.0
 40
32.0
 40
33.0
 40
33.0
 40
33.0
 40
34.0
 40
34.0
 40
34.0
 40
35.0
 40
35.0
 40
35.0
 40
36.0
 40
36.0
 40
36.0
 40
37.0
 40
37.0
 40
37.0
 40
38.0
 40
38.0
 40
38.0
 40
38.0
 10
77.46779511952194
 20
-98.23276364731682
 10
77.46779511952194
 20
-98.23276364731682
 10
77.35961912128509
 20
-98.23276364731682
 10
77.35961912128509
 20
-98.23276364731682
 10
77.35961912128509
 20
-98.23276364731682
 10
77.35961912128509
 20
-98.49493541374433
 10
77.35961912128509
 20
-98.49493541374433
 10
77.35961912128509
 20
-98.49493541374433
 10
77.46056041900292
 20
-98.49493541374433
 10
77.46056041900292
 20
-98.49493541374433
 10
77.54530976794007
 20
-98.49493541374433
 10
77.68586966373826
 20
-98.49080129916203
 10
77.76889646493278
 20
-98.48012150315775
 10
77.76166176441376
 20
-98.63687334773662
 10
77.76166176441376
 20
-98.67683645536552
 10
77.76166176441376
 20
-98.7701985430158
 10
77.76166176441376
 20
-98.7701985430158
 10
77.76166176441376
 20
-99.0640651879076
 10
77.76166176441376
 20
-99.0640651879076
 10
77.76166176441376
 20
-99.14226885542277
 10
77.765106859899
 20
-99.30935598645739
 10
77.77406410816066
 20
-99.38790416352109
 10
77.77406410816066
 20
-99.38790416352109
 10
77.58837346150568
 20
-99.38790416352109
 10
77.58837346150568
 20
-99.38790416352109
 10
77.59044051879684
 20
-99.31383461058822
 10
77.59044051879684
 20
-99.30108775729279
 10
77.59044051879684
 20
-99.25010034411109
 10
77.59044051879684
 20
-99.25010034411109
 10
77.00959741998372
 20
-99.25010034411109
 10
77.00959741998372
 20
-99.25010034411109
 10
77.00959741998372
 20
-99.25457896824192
 10
77.01131996772634
 20
-99.35827634234793
 10
77.01683212050274
 20
-99.38790416352109
 10
77.01683212050274
 20
-99.38790416352109
 10
76.83114147384778
 20
-99.38790416352109
 10
76.83114147384778
 20
-99.38790416352109
 10
76.84009872210942
 20
-99.26939287882848
 10
76.84182126985205
 20
-99.19118921131331
 10
76.84182126985205
 20
-99.08955889449845
 10
76.84182126985205
 20
-99.08955889449845
 10
76.84182126985205
 20
-98.75090600829839
 10
76.84182126985205
 20
-98.75090600829839
 10
76.84182126985205
 20
-98.70853133382981
 10
76.8328640215904
 20
-98.52663029220862
 10
76.8328640215904
 20
-98.48873424187087
 10
76.92484807104657
 20
-98.49493541374433
 10
77.01510957276011
 20
-98.49493541374433
 10
77.10709362221628
 20
-98.49493541374433
 10
77.10709362221628
 20
-98.49493541374433
 10
77.19528806663868
 20
-98.49493541374433
 10
77.19528806663868
 20
-98.49493541374433
 10
77.19528806663868
 20
-98.49493541374433
 10
77.19528806663868
 20
-98.23276364731682
 10
77.19528806663868
 20
-98.23276364731682
 10
77.19528806663868
 20
-98.23276364731682
 10
77.08883461614447
 20
-98.23276364731682
 10
77.08883461614447
 20
-98.23276364731682
 10
76.96274412138432
 20
-98.23276364731682
 10
76.83458656933303
 20
-98.23689776189912
 10
76.70677352683026
 20
-98.24964461519454
 10
76.70677352683026
 20
-98.24964461519454
 10
76.70677352683026
 20
-98.0422498669825
 10
76.70677352683026
 20
-98.0422498669825
 10
76.84009872210942
 20
-98.05706377756907
 10
77.03130152154078
 20
-98.05913083486023
 10
77.08883461614447
 20
-98.05913083486023
 10
77.08883461614447
 20
-98.05913083486023
 10
77.19528806663868
 20
-98.05913083486023
 10
77.19528806663868
 20
-98.05913083486023
 10
77.19528806663868
 20
-98.05913083486023
 10
77.19528806663868
 20
-97.82245277502356
 10
77.19528806663868
 20
-97.82245277502356
 10
77.06196287135951
 20
-97.83933374290129
 10
76.9555094208653
 20
-97.84346785748359
 10
76.8673149764429
 20
-97.84760197206589
 10
76.8673149764429
 20
-97.84760197206589
 10
76.77154132195295
 20
-97.65743270128009
 10
76.77154132195295
 20
-97.65743270128009
 10
76.82218422558613
 20
-97.66363387315354
 10
76.85284557540484
 20
-97.66363387315354
 10
76.89246417348522
 20
-97.66363387315354
 10
77.02578936876439
 20
-97.66363387315354
 10
77.42610946415041
 20
-97.65295407714926
 10
77.62626951184343
 20
-97.52204044870977
 10
77.62626951184343
 20
-97.52204044870977
 10
77.76166176441376
 20
-97.67431366915781
 10
77.76166176441376
 20
-97.67431366915781
 10
77.76717391719015
 20
-97.68051484103127
 10
77.77234156041803
 20
-97.6932616943267
 10
77.77234156041803
 20
-97.70600854762212
 10
77.77234156041803
 20
-97.72082245820869
 10
77.76338431215638
 20
-97.72909068737329
 10
77.74891491111833
 20
-97.72909068737329
 10
77.73651256737143
 20
-97.72909068737329
 10
77.71101886078058
 20
-97.72082245820869
 10
77.69310436425728
 20
-97.71427677678672
 10
77.59733070976733
 20
-97.75458439396414
 10
77.47847491552622
 20
-97.78214515784613
 10
77.35961912128509
 20
-97.80109318301501
 10
77.35961912128509
 20
-97.80109318301501
 10
77.35961912128509
 20
-98.05913083486023
 10
77.35961912128509
 20
-98.05913083486023
 10
77.35961912128509
 20
-98.05913083486023
 10
77.46779511952194
 20
-98.05913083486023
 10
77.46779511952194
 20
-98.05913083486023
 10
77.59733070976733
 20
-98.05913083486023
 10
77.72376571407601
 20
-98.05706377756907
 10
77.85364581386993
 20
-98.0422498669825
 10
77.85364581386993
 20
-98.0422498669825
 10
77.85364581386993
 20
-98.24964461519454
 10
77.85364581386993
 20
-98.24964461519454
 10
77.68759221148089
 20
-98.23276364731682
 10
77.48398706830262
 20
-98.23276364731682
 10
77.46779511952194
 20
-98.23276364731682
 97
        0
 97
        0
 92
        1
 93
        4
 72
     1
 10
77.59216306653946
 20
-98.66443411161862
 11
77.00959741998372
 21
-98.66443411161862
 72
     1
 10
77.00959741998372
 20
-98.66443411161862
 11
77.00959741998372
 21
-99.07681204120303
 72
     1
 10
77.00959741998372
 20
-99.07681204120303
 11
77.59216306653946
 21
-99.07681204120303
 72
     1
 10
77.59216306653946
 20
-99.07681204120303
 11
77.59216306653946
 21
-98.66443411161862
 97
        0
 75
     2
 76
     1
 98
        0
  0
SPLINE
  5
173
330
160
100
AcDbEntity
  8
_U+30EC_U+30A4_U+30E4_U+30FC 1
370
     0
100
AcDbSpline
210
0.0
220
0.0
230
1.0
 70
    11
 71
     3
 72
    20
 73
    16
 74
     0
 42
0.0000000001
 43
0.0000000001
 12
1.0
 22
0.0
 32
0.0
 13
1.0
 23
0.0
 33
0.0
 40
0.0
 40
0.0
 40
0.0
 40
0.0
 40
1.0
 40
1.0
 40
1.0
 40
2.0
 40
2.0
 40
2.0
 40
3.0
 40
3.0
 40
3.0
 40
4.0
 40
4.0
 40
4.0
 40
5.0
 40
5.0
 40
5.0
 40
5.0
 10
78.20745712020508
 20
-98.24964461519454
 30
0.0
 10
78.20022241968606
 20
-98.34266219329628
 30
0.0
 10
78.18575301864801
 20
-98.43774682868919
 30
0.0
 10
78.15681421657192
 20
-98.52456323491748
 30
0.0
 10
78.15681421657192
 20
-98.52456323491748
 30
0.0
 10
77.99282767147402
 20
-98.4821885604489
 30
0.0
 10
77.99282767147402
 20
-98.4821885604489
 30
0.0
 10
78.06483016711574
 20
-98.27720537907653
 30
0.0
 10
78.06483016711574
 20
-98.09082571332452
 30
0.0
 10
78.05931801433934
 20
-97.95543346075421
 30
0.0
 10
78.05931801433934
 20
-97.95543346075421
 30
0.0
 10
78.21641436846673
 20
-97.9788601100539
 30
0.0
 10
78.21641436846673
 20
-97.9788601100539
 30
0.0
 10
78.21641436846673
 20
-98.03157007097822
 30
0.0
 10
78.21813691620936
 20
-98.12045353449767
 30
0.0
 10
78.20745712020508
 20
-98.24964461519454
 30
0.0
  0
SPLINE
  5
174
330
160
100
AcDbEntity
  8
_U+30EC_U+30A4_U+30E4_U+30FC 1
370
     0
100
AcDbSpline
210
0.0
220
0.0
230
1.0
 70
    11
 71
     3
 72
   170
 73
   166
 74
     0
 42
0.0000000001
 43
0.0000000001
 12
1.0
 22
0.0
 32
0.0
 13
1.0
 23
0.0
 33
0.0
 40
0.0
 40
0.0
 40
0.0
 40
0.0
 40
1.0
 40
1.0
 40
1.0
 40
2.0
 40
2.0
 40
2.0
 40
3.0
 40
3.0
 40
3.0
 40
4.0
 40
4.0
 40
4.0
 40
5.0
 40
5.0
 40
5.0
 40
6.0
 40
6.0
 40
6.0
 40
7.0
 40
7.0
 40
7.0
 40
8.0
 40
8.0
 40
8.0
 40
9.0
 40
9.0
 40
9.0
 40
10.0
 40
10.0
 40
10.0
 40
11.0
 40
11.0
 40
11.0
 40
12.0
 40
12.0
 40
12.0
 40
13.0
 40
13.0
 40
13.0
 40
14.0
 40
14.0
 40
14.0
 40
15.0
 40
15.0
 40
15.0
 40
16.0
 40
16.0
 40
16.0
 40
17.0
 40
17.0
 40
17.0
 40
18.0
 40
18.0
 40
18.0
 40
19.0
 40
19.0
 40
19.0
 40
20.0
 40
20.0
 40
20.0
 40
21.0
 40
21.0
 40
21.0
 40
22.0
 40
22.0
 40
22.0
 40
23.0
 40
23.0
 40
23.0
 40
24.0
 40
24.0
 40
24.0
 40
25.0
 40
25.0
 40
25.0
 40
26.0
 40
26.0
 40
26.0
 40
27.0
 40
27.0
 40
27.0
 40
28.0
 40
28.0
 40
28.0
 40
29.0
 40
29.0
 40
29.0
 40
30.0
 40
30.0
 40
30.0
 40
31.0
 40
31.0
 40
31.0
 40
32.0
 40
32.0
 40
32.0
 40
33.0
 40
33.0
 40
33.0
 40
34.0
 40
34.0
 40
34.0
 40
35.0
 40
35.0
 40
35.0
 40
36.0
 40
36.0
 40
36.0
 40
37.0
 40
37.0
 40
37.0
 40
38.0
 40
38.0
 40
38.0
 40
39.0
 40
39.0
 40
39.0
 40
40.0
 40
40.0
 40
40.0
 40
41.0
 40
41.0
 40
41.0
 40
42.0
 40
42.0
 40
42.0
 40
43.0
 40
43.0
 40
43.0
 40
44.0
 40
44.0
 40
44.0
 40
45.0
 40
45.0
 40
45.0
 40
46.0
 40
46.0
 40
46.0
 40
47.0
 40
47.0
 40
47.0
 40
48.0
 40
48.0
 40
48.0
 40
49.0
 40
49.0
 40
49.0
 40
50.0
 40
50.0
 40
50.0
 40
51.0
 40
51.0
 40
51.0
 40
52.0
 40
52.0
 40
52.0
 40
53.0
 40
53.0
 40
53.0
 40
54.0
 40
54.0
 40
54.0
 40
55.0
 40
55.0
 40
55.0
 40
55.0
 10
79.29817435083518
 20
-99.35173066092597
 30
0.0
 10
79.29817435083518
 20
-99.35173066092597
 30
0.0
 10
78.92507050978263
 20
-99.35173066092597
 30
0.0
 10
78.92507050978263
 20
-99.35173066092597
 30
0.0
 10
78.80070256276511
 20
-99.35173066092597
 30
0.0
 10
78.67426755845644
 20
-99.35620928505679
 30
0.0
 10
78.54989961143892
 20
-99.36861162880369
 30
0.0
 10
78.54989961143892
 20
-99.36861162880369
 30
0.0
 10
78.54989961143892
 20
-99.16156139014016
 30
0.0
 10
78.54989961143892
 20
-99.16156139014016
 30
0.0
 10
78.67977971123284
 20
-99.17637530072675
 30
0.0
 10
78.86719290563043
 20
-99.17844235801789
 30
0.0
 10
78.92507050978263
 20
-99.17844235801789
 30
0.0
 10
78.92507050978263
 20
-99.17844235801789
 30
0.0
 10
79.11971840469924
 20
-99.17844235801789
 30
0.0
 10
79.11971840469924
 20
-99.17844235801789
 30
0.0
 10
79.11971840469924
 20
-99.17844235801789
 30
0.0
 10
79.11971840469924
 20
-98.74263777913379
 30
0.0
 10
79.11971840469924
 20
-98.74263777913379
 30
0.0
 10
79.11971840469924
 20
-98.74263777913379
 30
0.0
 10
79.04392630402374
 20
-98.74263777913379
 30
0.0
 10
79.04392630402374
 20
-98.74263777913379
 30
0.0
 10
79.04392630402374
 20
-98.74263777913379
 30
0.0
 10
78.89613170770653
 20
-98.74263777913379
 30
0.0
 10
78.7772759134654
 20
-98.75951874701151
 30
0.0
 10
78.7772759134654
 20
-98.75951874701151
 30
0.0
 10
78.7772759134654
 20
-98.55212399879947
 30
0.0
 10
78.7772759134654
 20
-98.55212399879947
 30
0.0
 10
78.86925996292157
 20
-98.56693790938604
 30
0.0
 10
79.00258515820074
 20
-98.5690049666772
 30
0.0
 10
79.04392630402374
 20
-98.5690049666772
 30
0.0
 10
79.04392630402374
 20
-98.5690049666772
 30
0.0
 10
79.11971840469924
 20
-98.5690049666772
 30
0.0
 10
79.11971840469924
 20
-98.5690049666772
 30
0.0
 10
79.11971840469924
 20
-98.5690049666772
 30
0.0
 10
79.11971840469924
 20
-98.21588267943909
 30
0.0
 10
79.11971840469924
 20
-98.21588267943909
 30
0.0
 10
79.11971840469924
 20
-98.21588267943909
 30
0.0
 10
78.85479056188353
 20
-98.21588267943909
 30
0.0
 10
78.85479056188353
 20
-98.21588267943909
 30
0.0
 10
78.80793726328413
 20
-98.34679630787858
 30
0.0
 10
78.75557181190834
 20
-98.45256073927575
 30
0.0
 10
78.69424911227088
 20
-98.5331759736306
 30
0.0
 10
78.69424911227088
 20
-98.5331759736306
 30
0.0
 10
78.53370766265824
 20
-98.42741154223343
 30
0.0
 10
78.53370766265824
 20
-98.42741154223343
 30
0.0
 10
78.56264646473434
 20
-98.39571666376914
 30
0.0
 10
78.60949976333374
 20
-98.34472925058743
 30
0.0
 10
78.65256345689936
 20
-98.25377872977684
 30
0.0
 10
78.65256345689936
 20
-98.25377872977684
 30
0.0
 10
78.50304631283952
 20
-98.33439396413168
 30
0.0
 10
78.50304631283952
 20
-98.33439396413168
 30
0.0
 10
78.48685436405884
 20
-98.20726994072596
 30
0.0
 10
78.4668728102444
 20
-98.07842336957762
 30
0.0
 10
78.40933971564073
 20
-97.97024737134078
 30
0.0
 10
78.40933971564073
 20
-97.98506128192734
 30
0.0
 10
78.4076171678981
 20
-98.05086260569563
 30
0.0
 10
78.4076171678981
 20
-98.0656765162822
 30
0.0
 10
78.4076171678981
 20
-98.0656765162822
 30
0.0
 10
78.4076171678981
 20
-98.80396047877123
 30
0.0
 10
78.4076171678981
 20
-98.80396047877123
 30
0.0
 10
78.4076171678981
 20
-98.99206269226588
 30
0.0
 10
78.40933971564073
 20
-99.12125377296275
 30
0.0
 10
78.41657441615975
 20
-99.42786727114998
 30
0.0
 10
78.41657441615975
 20
-99.42786727114998
 30
0.0
 10
78.23605141273266
 20
-99.42786727114998
 30
0.0
 10
78.23605141273266
 20
-99.42786727114998
 30
0.0
 10
78.24328611325168
 20
-99.13400062625817
 30
0.0
 10
78.24707571828546
 20
-98.99412974955703
 30
0.0
 10
78.24707571828546
 20
-98.81016165064469
 30
0.0
 10
78.24707571828546
 20
-98.81016165064469
 30
0.0
 10
78.24707571828546
 20
-98.0739447454468
 30
0.0
 10
78.24707571828546
 20
-98.0739447454468
 30
0.0
 10
78.24707571828546
 20
-97.90272349982988
 30
0.0
 10
78.2450086609943
 20
-97.67844778374011
 30
0.0
 10
78.24328611325168
 20
-97.50274791399238
 30
0.0
 10
78.24328611325168
 20
-97.50274791399238
 30
0.0
 10
78.41829696390238
 20
-97.52617456329207
 30
0.0
 10
78.41829696390238
 20
-97.52617456329207
 30
0.0
 10
78.4434461609447
 20
-97.53030867787437
 30
0.0
 10
78.45963810972538
 20
-97.53237573516552
 30
0.0
 10
78.45963810972538
 20
-97.55166826988292
 30
0.0
 10
78.45963810972538
 20
-97.56648218046949
 30
0.0
 10
78.4544704664975
 20
-97.56854923776065
 30
0.0
 10
78.420019511645
 20
-97.59369843480297
 30
0.0
 10
78.41485186841713
 20
-97.72495657279099
 30
0.0
 10
78.41278481112597
 20
-97.79041338701073
 30
0.0
 10
78.40933971564073
 20
-97.95784502759388
 30
0.0
 10
78.40933971564073
 20
-97.95784502759388
 30
0.0
 10
78.54645451595367
 20
-97.89411076111675
 30
0.0
 10
78.54645451595367
 20
-97.89411076111675
 30
0.0
 10
78.62741425985703
 20
-98.05706377756907
 30
0.0
 10
78.64567326592886
 20
-98.16696232354855
 30
0.0
 10
78.65807560967576
 20
-98.24344344332108
 30
0.0
 10
78.77348630843163
 20
-97.99780813522277
 30
0.0
 10
78.77899846120803
 20
-97.7652641899684
 30
0.0
 10
78.77899846120803
 20
-97.67431366915781
 30
0.0
 10
78.77899846120803
 20
-97.67431366915781
 30
0.0
 10
78.96813420334824
 20
-97.71875540091754
 30
0.0
 10
78.96813420334824
 20
-97.71875540091754
 30
0.0
 10
78.9826036043863
 20
-97.72288951549984
 30
0.0
 10
79.00603025368599
 20
-97.72909068737329
 30
0.0
 10
79.00603025368599
 20
-97.74838322209068
 30
0.0
 10
79.00603025368599
 20
-97.7693983045507
 30
0.0
 10
78.9881157571627
 20
-97.77801104326383
 30
0.0
 10
78.95194225456757
 20
-97.79282495385041
 30
0.0
 10
78.9412624585633
 20
-97.86689450678328
 30
0.0
 10
78.93058266255902
 20
-97.93855249287648
 30
0.0
 10
78.90336640822555
 20
-98.04431692427364
 30
0.0
 10
78.90336640822555
 20
-98.04431692427364
 30
0.0
 10
79.11971840469924
 20
-98.04431692427364
 30
0.0
 10
79.11971840469924
 20
-98.04431692427364
 30
0.0
 10
79.11971840469924
 20
-98.04431692427364
 30
0.0
 10
79.11971840469924
 20
-98.0064208739359
 30
0.0
 10
79.11971840469924
 20
-98.0064208739359
 30
0.0
 10
79.11971840469924
 20
-97.856214710779
 30
0.0
 10
79.11799585695661
 20
-97.64468584798466
 30
0.0
 10
79.11248370418022
 20
-97.49861379941008
 30
0.0
 10
79.11248370418022
 20
-97.49861379941008
 30
0.0
 10
79.2930067076073
 20
-97.51962888187009
 30
0.0
 10
79.2930067076073
 20
-97.51962888187009
 30
0.0
 10
79.31264375187322
 20
-97.52204044870977
 30
0.0
 10
79.3398600062067
 20
-97.52617456329207
 30
0.0
 10
79.3398600062067
 20
-97.54925670304324
 30
0.0
 10
79.3398600062067
 20
-97.57268335234295
 30
0.0
 10
79.31092120413061
 20
-97.59163137751182
 30
0.0
 10
79.29817435083518
 20
-97.6023111735161
 30
0.0
 10
79.29093965031616
 20
-97.70187443303982
 30
0.0
 10
79.28921710257353
 20
-97.87929685053018
 30
0.0
 10
79.28921710257353
 20
-97.98092716734504
 30
0.0
 10
79.28921710257353
 20
-97.98092716734504
 30
0.0
 10
79.28921710257353
 20
-98.0422498669825
 30
0.0
 10
79.28921710257353
 20
-98.0422498669825
 30
0.0
 10
79.51659340460002
 20
-98.0381157524002
 30
0.0
 10
79.5272732006043
 20
-98.0381157524002
 30
0.0
 10
79.65164114762182
 20
-98.02743595639592
 30
0.0
 10
79.65164114762182
 20
-98.02743595639592
 30
0.0
 10
79.65164114762182
 20
-98.22415090860369
 30
0.0
 10
79.65164114762182
 20
-98.22415090860369
 30
0.0
 10
79.59410805301815
 20
-98.22415090860369
 30
0.0
 10
79.34158255394934
 20
-98.22001679402139
 30
0.0
 10
79.28921710257353
 20
-98.21794973673023
 30
0.0
 10
79.28921710257353
 20
-98.21794973673023
 30
0.0
 10
79.28921710257353
 20
-98.5690049666772
 30
0.0
 10
79.28921710257353
 20
-98.5690049666772
 30
0.0
 10
79.35777450273001
 20
-98.5690049666772
 30
0.0
 10
79.48214244974753
 20
-98.56693790938604
 30
0.0
 10
79.57963865198009
 20
-98.55212399879947
 30
0.0
 10
79.57963865198009
 20
-98.55212399879947
 30
0.0
 10
79.57963865198009
 20
-98.75951874701151
 30
0.0
 10
79.57963865198009
 20
-98.75951874701151
 30
0.0
 10
79.48214244974753
 20
-98.74470483642494
 30
0.0
 10
79.36673175099165
 20
-98.74263777913379
 30
0.0
 10
79.28921710257353
 20
-98.74263777913379
 30
0.0
 10
79.28921710257353
 20
-98.74263777913379
 30
0.0
 10
79.28921710257353
 20
-99.17844235801789
 30
0.0
 10
79.28921710257353
 20
-99.17844235801789
 30
0.0
 10
79.32160100013488
 20
-99.17844235801789
 30
0.0
 10
79.52382810511905
 20
-99.17844235801789
 30
0.0
 10
79.67885740195528
 20
-99.16156139014016
 30
0.0
 10
79.67885740195528
 20
-99.16156139014016
 30
0.0
 10
79.67885740195528
 20
-99.36861162880369
 30
0.0
 10
79.67885740195528
 20
-99.36861162880369
 30
0.0
 10
79.51452634730887
 20
-99.35173066092597
 30
0.0
 10
79.31264375187322
 20
-99.35173066092597
 30
0.0
 10
79.29817435083518
 20
-99.35173066092597
 30
0.0
  0
HATCH
  5
175
330
160
100
AcDbEntity
  8
_U+30EC_U+30A4_U+30E4_U+30FC 1
 62
   179
420
  2234388
100
AcDbHatch
 10
0.0
 20
0.0
 30
0.0
210
0.0
220
0.0
230
1.0
  2
SOLID
 70
     1
 71
     0
 91
        2
 92
        1
 93
        1
 72
     4
 94
        3
 73
     0
 74
     1
 95
       20
 96
       16
 40
0.0
 40
0.0
 40
0.0
 40
0.0
 40
1.0
 40
1.0
 40
1.0
 40
2.0
 40
2.0
 40
2.0
 40
3.0
 40
3.0
 40
3.0
 40
4.0
 40
4.0
 40
4.0
 40
5.0
 40
5.0
 40
5.0
 40
5.0
 10
78.20745712020508
 20
-98.24964461519454
 10
78.20022241968606
 20
-98.34266219329628
 10
78.18575301864801
 20
-98.43774682868919
 10
78.15681421657192
 20
-98.52456323491748
 10
78.15681421657192
 20
-98.52456323491748
 10
77.99282767147402
 20
-98.4821885604489
 10
77.99282767147402
 20
-98.4821885604489
 10
78.06483016711574
 20
-98.27720537907653
 10
78.06483016711574
 20
-98.09082571332452
 10
78.05931801433934
 20
-97.95543346075421
 10
78.05931801433934
 20
-97.95543346075421
 10
78.21641436846673
 20
-97.9788601100539
 10
78.21641436846673
 20
-97.9788601100539
 10
78.21641436846673
 20
-98.03157007097822
 10
78.21813691620936
 20
-98.12045353449767
 10
78.20745712020508
 20
-98.24964461519454
 97
        0
 97
        0
 92
        1
 93
        1
 72
     4
 94
        3
 73
     0
 74
     1
 95
      170
 96
      166
 40
0.0
 40
0.0
 40
0.0
 40
0.0
 40
1.0
 40
1.0
 40
1.0
 40
2.0
 40
2.0
 40
2.0
 40
3.0
 40
3.0
 40
3.0
 40
4.0
 40
4.0
 40
4.0
 40
5.0
 40
5.0
 40
5.0
 40
6.0
 40
6.0
 40
6.0
 40
7.0
 40
7.0
 40
7.0
 40
8.0
 40
8.0
 40
8.0
 40
9.0
 40
9.0
 40
9.0
 40
10.0
 40
10.0
 40
10.0
 40
11.0
 40
11.0
 40
11.0
 40
12.0
 40
12.0
 40
12.0
 40
13.0
 40
13.0
 40
13.0
 40
14.0
 40
14.0
 40
14.0
 40
15.0
 40
15.0
 40
15.0
 40
16.0
 40
16.0
 40
16.0
 40
17.0
 40
17.0
 40
17.0
 40
18.0
 40
18.0
 40
18.0
 40
19.0
 40
19.0
 40
19.0
 40
20.0
 40
20.0
 40
20.0
 40
21.0
 40
21.0
 40
21.0
 40
22.0
 40
22.0
 40
22.0
 40
23.0
 40
23.0
 40
23.0
 40
24.0
 40
24.0
 40
24.0
 40
25.0
 40
25.0
 40
25.0
 40
26.0
 40
26.0
 40
26.0
 40
27.0
 40
27.0
 40
27.0
 40
28.0
 40
28.0
 40
28.0
 40
29.0
 40
29.0
 40
29.0
 40
30.0
 40
30.0
 40
30.0
 40
31.0
 40
31.0
 40
31.0
 40
32.0
 40
32.0
 40
32.0
 40
33.0
 40
33.0
 40
33.0
 40
34.0
 40
34.0
 40
34.0
 40
35.0
 40
35.0
 40
35.0
 40
36.0
 40
36.0
 40
36.0
 40
37.0
 40
37.0
 40
37.0
 40
38.0
 40
38.0
 40
38.0
 40
39.0
 40
39.0
 40
39.0
 40
40.0
 40
40.0
 40
40.0
 40
41.0
 40
41.0
 40
41.0
 40
42.0
 40
42.0
 40
42.0
 40
43.0
 40
43.0
 40
43.0
 40
44.0
 40
44.0
 40
44.0
 40
45.0
 40
45.0
 40
45.0
 40
46.0
 40
46.0
 40
46.0
 40
47.0
 40
47.0
 40
47.0
 40
48.0
 40
48.0
 40
48.0
 40
49.0
 40
49.0
 40
49.0
 40
50.0
 40
50.0
 40
50.0
 40
51.0
 40
51.0
 40
51.0
 40
52.0
 40
52.0
 40
52.0
 40
53.0
 40
53.0
 40
53.0
 40
54.0
 40
54.0
 40
54.0
 40
55.0
 40
55.0
 40
55.0
 40
55.0
 10
79.29817435083518
 20
-99.35173066092597
 10
79.29817435083518
 20
-99.35173066092597
 10
78.92507050978263
 20
-99.35173066092597
 10
78.92507050978263
 20
-99.35173066092597
 10
78.80070256276511
 20
-99.35173066092597
 10
78.67426755845644
 20
-99.35620928505679
 10
78.54989961143892
 20
-99.36861162880369
 10
78.54989961143892
 20
-99.36861162880369
 10
78.54989961143892
 20
-99.16156139014016
 10
78.54989961143892
 20
-99.16156139014016
 10
78.67977971123284
 20
-99.17637530072675
 10
78.86719290563043
 20
-99.17844235801789
 10
78.92507050978263
 20
-99.17844235801789
 10
78.92507050978263
 20
-99.17844235801789
 10
79.11971840469924
 20
-99.17844235801789
 10
79.11971840469924
 20
-99.17844235801789
 10
79.11971840469924
 20
-99.17844235801789
 10
79.11971840469924
 20
-98.74263777913379
 10
79.11971840469924
 20
-98.74263777913379
 10
79.11971840469924
 20
-98.74263777913379
 10
79.04392630402374
 20
-98.74263777913379
 10
79.04392630402374
 20
-98.74263777913379
 10
79.04392630402374
 20
-98.74263777913379
 10
78.89613170770653
 20
-98.74263777913379
 10
78.7772759134654
 20
-98.75951874701151
 10
78.7772759134654
 20
-98.75951874701151
 10
78.7772759134654
 20
-98.55212399879947
 10
78.7772759134654
 20
-98.55212399879947
 10
78.86925996292157
 20
-98.56693790938604
 10
79.00258515820074
 20
-98.5690049666772
 10
79.04392630402374
 20
-98.5690049666772
 10
79.04392630402374
 20
-98.5690049666772
 10
79.11971840469924
 20
-98.5690049666772
 10
79.11971840469924
 20
-98.5690049666772
 10
79.11971840469924
 20
-98.5690049666772
 10
79.11971840469924
 20
-98.21588267943909
 10
79.11971840469924
 20
-98.21588267943909
 10
79.11971840469924
 20
-98.21588267943909
 10
78.85479056188353
 20
-98.21588267943909
 10
78.85479056188353
 20
-98.21588267943909
 10
78.80793726328413
 20
-98.34679630787858
 10
78.75557181190834
 20
-98.45256073927575
 10
78.69424911227088
 20
-98.5331759736306
 10
78.69424911227088
 20
-98.5331759736306
 10
78.53370766265824
 20
-98.42741154223343
 10
78.53370766265824
 20
-98.42741154223343
 10
78.56264646473434
 20
-98.39571666376914
 10
78.60949976333374
 20
-98.34472925058743
 10
78.65256345689936
 20
-98.25377872977684
 10
78.65256345689936
 20
-98.25377872977684
 10
78.50304631283952
 20
-98.33439396413168
 10
78.50304631283952
 20
-98.33439396413168
 10
78.48685436405884
 20
-98.20726994072596
 10
78.4668728102444
 20
-98.07842336957762
 10
78.40933971564073
 20
-97.97024737134078
 10
78.40933971564073
 20
-97.98506128192734
 10
78.4076171678981
 20
-98.05086260569563
 10
78.4076171678981
 20
-98.0656765162822
 10
78.4076171678981
 20
-98.0656765162822
 10
78.4076171678981
 20
-98.80396047877123
 10
78.4076171678981
 20
-98.80396047877123
 10
78.4076171678981
 20
-98.99206269226588
 10
78.40933971564073
 20
-99.12125377296275
 10
78.41657441615975
 20
-99.42786727114998
 10
78.41657441615975
 20
-99.42786727114998
 10
78.23605141273266
 20
-99.42786727114998
 10
78.23605141273266
 20
-99.42786727114998
 10
78.24328611325168
 20
-99.13400062625817
 10
78.24707571828546
 20
-98.99412974955703
 10
78.24707571828546
 20
-98.81016165064469
 10
78.24707571828546
 20
-98.81016165064469
 10
78.24707571828546
 20
-98.0739447454468
 10
78.24707571828546
 20
-98.0739447454468
 10
78.24707571828546
 20
-97.90272349982988
 10
78.2450086609943
 20
-97.67844778374011
 10
78.24328611325168
 20
-97.50274791399238
 10
78.24328611325168
 20
-97.50274791399238
 10
78.41829696390238
 20
-97.52617456329207
 10
78.41829696390238
 20
-97.52617456329207
 10
78.4434461609447
 20
-97.53030867787437
 10
78.45963810972538
 20
-97.53237573516552
 10
78.45963810972538
 20
-97.55166826988292
 10
78.45963810972538
 20
-97.56648218046949
 10
78.4544704664975
 20
-97.56854923776065
 10
78.420019511645
 20
-97.59369843480297
 10
78.41485186841713
 20
-97.72495657279099
 10
78.41278481112597
 20
-97.79041338701073
 10
78.40933971564073
 20
-97.95784502759388
 10
78.40933971564073
 20
-97.95784502759388
 10
78.54645451595367
 20
-97.89411076111675
 10
78.54645451595367
 20
-97.89411076111675
 10
78.62741425985703
 20
-98.05706377756907
 10
78.64567326592886
 20
-98.16696232354855
 10
78.65807560967576
 20
-98.24344344332108
 10
78.77348630843163
 20
-97.99780813522277
 10
78.77899846120803
 20
-97.7652641899684
 10
78.77899846120803
 20
-97.67431366915781
 10
78.77899846120803
 20
-97.67431366915781
 10
78.96813420334824
 20
-97.71875540091754
 10
78.96813420334824
 20
-97.71875540091754
 10
78.9826036043863
 20
-97.72288951549984
 10
79.00603025368599
 20
-97.72909068737329
 10
79.00603025368599
 20
-97.74838322209068
 10
79.00603025368599
 20
-97.7693983045507
 10
78.9881157571627
 20
-97.77801104326383
 10
78.95194225456757
 20
-97.79282495385041
 10
78.9412624585633
 20
-97.86689450678328
 10
78.93058266255902
 20
-97.93855249287648
 10
78.90336640822555
 20
-98.04431692427364
 10
78.90336640822555
 20
-98.04431692427364
 10
79.11971840469924
 20
-98.04431692427364
 10
79.11971840469924
 20
-98.04431692427364
 10
79.11971840469924
 20
-98.04431692427364
 10
79.11971840469924
 20
-98.0064208739359
 10
79.11971840469924
 20
-98.0064208739359
 10
79.11971840469924
 20
-97.856214710779
 10
79.11799585695661
 20
-97.64468584798466
 10
79.11248370418022
 20
-97.49861379941008
 10
79.11248370418022
 20
-97.49861379941008
 10
79.2930067076073
 20
-97.51962888187009
 10
79.2930067076073
 20
-97.51962888187009
 10
79.31264375187322
 20
-97.52204044870977
 10
79.3398600062067
 20
-97.52617456329207
 10
79.3398600062067
 20
-97.54925670304324
 10
79.3398600062067
 20
-97.57268335234295
 10
79.31092120413061
 20
-97.59163137751182
 10
79.29817435083518
 20
-97.6023111735161
 10
79.29093965031616
 20
-97.70187443303982
 10
79.28921710257353
 20
-97.87929685053018
 10
79.28921710257353
 20
-97.98092716734504
 10
79.28921710257353
 20
-97.98092716734504
 10
79.28921710257353
 20
-98.0422498669825
 10
79.28921710257353
 20
-98.0422498669825
 10
79.51659340460002
 20
-98.0381157524002
 10
79.5272732006043
 20
-98.0381157524002
 10
79.65164114762182
 20
-98.02743595639592
 10
79.65164114762182
 20
-98.02743595639592
 10
79.65164114762182
 20
-98.22415090860369
 10
79.65164114762182
 20
-98.22415090860369
 10
79.59410805301815
 20
-98.22415090860369
 10
79.34158255394934
 20
-98.22001679402139
 10
79.28921710257353
 20
-98.21794973673023
 10
79.28921710257353
 20
-98.21794973673023
 10
79.28921710257353
 20
-98.5690049666772
 10
79.28921710257353
 20
-98.5690049666772
 10
79.35777450273001
 20
-98.5690049666772
 10
79.48214244974753
 20
-98.56693790938604
 10
79.57963865198009
 20
-98.55212399879947
 10
79.57963865198009
 20
-98.55212399879947
 10
79.57963865198009
 20
-98.75951874701151
 10
79.57963865198009
 20
-98.75951874701151
 10
79.48214244974753
 20
-98.74470483642494
 10
79.36673175099165
 20
-98.74263777913379
 10
79.28921710257353
 20
-98.74263777913379
 10
79.28921710257353
 20
-98.74263777913379
 10
79.28921710257353
 20
-99.17844235801789
 10
79.28921710257353
 20
-99.17844235801789
 10
79.32160100013488
 20
-99.17844235801789
 10
79.52382810511905
 20
-99.17844235801789
 10
79.67885740195528
 20
-99.16156139014016
 10
79.67885740195528
 20
-99.16156139014016
 10
79.67885740195528
 20
-99.36861162880369
 10
79.67885740195528
 20
-99.36861162880369
 10
79.51452634730887
 20
-99.35173066092597
 10
79.31264375187322
 20
-99.35173066092597
 10
79.29817435083518
 20
-99.35173066092597
 97
        0
 97
        0
 75
     2
 76
     1
 98
        0
  0
SPLINE
  5
176
330
160
100
AcDbEntity
  8
_U+30EC_U+30A4_U+30E4_U+30FC 1
370
     0
100
AcDbSpline
210
0.0
220
0.0
230
1.0
 70
    11
 71
     3
 72
    53
 73
    49
 74
     0
 42
0.0000000001
 43
0.0000000001
 12
1.0
 22
0.0
 32
0.0
 13
1.0
 23
0.0
 33
0.0
 40
0.0
 40
0.0
 40
0.0
 40
0.0
 40
1.0
 40
1.0
 40
1.0
 40
2.0
 40
2.0
 40
2.0
 40
3.0
 40
3.0
 40
3.0
 40
4.0
 40
4.0
 40
4.0
 40
5.0
 40
5.0
 40
5.0
 40
6.0
 40
6.0
 40
6.0
 40
7.0
 40
7.0
 40
7.0
 40
8.0
 40
8.0
 40
8.0
 40
9.0
 40
9.0
 40
9.0
 40
10.0
 40
10.0
 40
10.0
 40
11.0
 40
11.0
 40
11.0
 40
12.0
 40
12.0
 40
12.0
 40
13.0
 40
13.0
 40
13.0
 40
14.0
 40
14.0
 40
14.0
 40
15.0
 40
15.0
 40
15.0
 40
16.0
 40
16.0
 40
16.0
 40
16.0
 10
80.45090330019978
 20
-97.65295407714926
 30
0.0
 10
80.42575410315746
 20
-97.70600854762212
 30
0.0
 10
80.32102320040586
 20
-97.94061955016763
 30
0.0
 10
80.29759655110615
 20
-97.98747284876703
 30
0.0
 10
80.29759655110615
 20
-97.98747284876703
 30
0.0
 10
80.31930065266323
 20
-98.0022867593536
 30
0.0
 10
80.31930065266323
 20
-98.0022867593536
 30
0.0
 10
80.32998044866751
 20
-98.0105549885182
 30
0.0
 10
80.34100475422031
 20
-98.01710066994018
 30
0.0
 10
80.34100475422031
 20
-98.0339816378179
 30
0.0
 10
80.34100475422031
 20
-98.05292966298677
 30
0.0
 10
80.33204750595866
 20
-98.05706377756907
 30
0.0
 10
80.3065537993678
 20
-98.0698106308645
 30
0.0
 10
80.30310870388256
 20
-98.21794973673023
 30
0.0
 10
80.30310870388256
 20
-98.27927243636769
 30
0.0
 10
80.30310870388256
 20
-98.39985077835144
 30
0.0
 10
80.30310870388256
 20
-98.39985077835144
 30
0.0
 10
80.30310870388256
 20
-98.88629826086871
 30
0.0
 10
80.30310870388256
 20
-98.88629826086871
 30
0.0
 10
80.30310870388256
 20
-98.9372856740504
 30
0.0
 10
80.31034340440158
 20
-99.2184054656468
 30
0.0
 10
80.32274574814848
 20
-99.42373315656768
 30
0.0
 10
80.32274574814848
 20
-99.42373315656768
 30
0.0
 10
80.10467120393217
 20
-99.42373315656768
 30
0.0
 10
80.10467120393217
 20
-99.42373315656768
 30
0.0
 10
80.11535099993644
 20
-99.22701820435992
 30
0.0
 10
80.12637530548925
 20
-99.0323703094433
 30
0.0
 10
80.12637530548925
 20
-98.88423120357756
 30
0.0
 10
80.12637530548925
 20
-98.88423120357756
 30
0.0
 10
80.12637530548925
 20
-98.30028751882772
 30
0.0
 10
80.12637530548925
 20
-98.30028751882772
 30
0.0
 10
80.04334850429473
 20
-98.42741154223343
 30
0.0
 10
79.9892605051763
 20
-98.5014810951663
 30
0.0
 10
79.90623370398178
 20
-98.58588593455492
 30
0.0
 10
79.90623370398178
 20
-98.58588593455492
 30
0.0
 10
79.76567380818358
 20
-98.44222545282
 30
0.0
 10
79.76567380818358
 20
-98.44222545282
 30
0.0
 10
80.02336695048027
 20
-98.17557506226167
 30
0.0
 10
80.23282875598346
 20
-97.80109318301501
 30
0.0
 10
80.31930065266323
 20
-97.48173283153236
 30
0.0
 10
80.31930065266323
 20
-97.48173283153236
 30
0.0
 10
80.49224444602278
 20
-97.59163137751182
 30
0.0
 10
80.49224444602278
 20
-97.59163137751182
 30
0.0
 10
80.50671384706082
 20
-97.60024411622494
 30
0.0
 10
80.51394854757984
 20
-97.60437823080724
 30
0.0
 10
80.51394854757984
 20
-97.61712508410267
 30
0.0
 10
80.51394854757984
 20
-97.64881996256696
 30
0.0
 10
80.47605249724211
 20
-97.65088701985812
 30
0.0
 10
80.45090330019978
 20
-97.65295407714926
 30
0.0
  0
SPLINE
  5
177
330
160
100
AcDbEntity
  8
_U+30EC_U+30A4_U+30E4_U+30FC 1
370
     0
100
AcDbSpline
210
0.0
220
0.0
230
1.0
 70
    11
 71
     3
 72
    74
 73
    70
 74
     0
 42
0.0000000001
 43
0.0000000001
 12
1.0
 22
0.0
 32
0.0
 13
1.0
 23
0.0
 33
0.0
 40
0.0
 40
0.0
 40
0.0
 40
0.0
 40
1.0
 40
1.0
 40
1.0
 40
2.0
 40
2.0
 40
2.0
 40
3.0
 40
3.0
 40
3.0
 40
4.0
 40
4.0
 40
4.0
 40
5.0
 40
5.0
 40
5.0
 40
6.0
 40
6.0
 40
6.0
 40
7.0
 40
7.0
 40
7.0
 40
8.0
 40
8.0
 40
8.0
 40
9.0
 40
9.0
 40
9.0
 40
10.0
 40
10.0
 40
10.0
 40
11.0
 40
11.0
 40
11.0
 40
12.0
 40
12.0
 40
12.0
 40
13.0
 40
13.0
 40
13.0
 40
14.0
 40
14.0
 40
14.0
 40
15.0
 40
15.0
 40
15.0
 40
16.0
 40
16.0
 40
16.0
 40
17.0
 40
17.0
 40
17.0
 40
18.0
 40
18.0
 40
18.0
 40
19.0
 40
19.0
 40
19.0
 40
20.0
 40
20.0
 40
20.0
 40
21.0
 40
21.0
 40
21.0
 40
22.0
 40
22.0
 40
22.0
 40
23.0
 40
23.0
 40
23.0
 40
23.0
 10
81.20813528785769
 20
-99.36034339963909
 30
0.0
 10
81.20813528785769
 20
-99.36034339963909
 30
0.0
 10
80.8925645414088
 20
-99.36034339963909
 30
0.0
 10
80.8925645414088
 20
-99.36034339963909
 30
0.0
 10
80.76647404664867
 20
-99.36034339963909
 30
0.0
 10
80.68172469771152
 20
-99.32658146388364
 30
0.0
 10
80.68172469771152
 20
-99.16569550472246
 30
0.0
 10
80.68172469771152
 20
-99.16569550472246
 30
0.0
 10
80.68172469771152
 20
-98.0463839815648
 30
0.0
 10
80.68172469771152
 20
-98.0463839815648
 30
0.0
 10
80.68172469771152
 20
-97.91753741041646
 30
0.0
 10
80.68000214996889
 20
-97.87102862136558
 30
0.0
 10
80.6744899971925
 20
-97.50274791399238
 30
0.0
 10
80.6744899971925
 20
-97.50274791399238
 30
0.0
 10
80.8980766941852
 20
-97.5389214165875
 30
0.0
 10
80.8980766941852
 20
-97.5389214165875
 30
0.0
 10
80.91426864296588
 20
-97.54098847387864
 30
0.0
 10
80.93252764903771
 20
-97.54925670304324
 30
0.0
 10
80.93252764903771
 20
-97.56854923776065
 30
0.0
 10
80.93252764903771
 20
-97.59611000164264
 30
0.0
 10
80.90358884696161
 20
-97.60851234538954
 30
0.0
 10
80.86913789210911
 20
-97.62125919868497
 30
0.0
 10
80.86397024888123
 20
-97.8879095892433
 30
0.0
 10
80.86190319159009
 20
-97.92821720642073
 30
0.0
 10
80.86190319159009
 20
-98.0463839815648
 30
0.0
 10
80.86190319159009
 20
-98.0463839815648
 30
0.0
 10
80.86190319159009
 20
-98.22001679402139
 30
0.0
 10
80.86190319159009
 20
-98.22001679402139
 30
0.0
 10
80.93597274452296
 20
-98.19038897284824
 30
0.0
 10
81.14509004047763
 20
-98.08255748415992
 30
0.0
 10
81.28599444582434
 20
-97.93028426371188
 30
0.0
 10
81.28599444582434
 20
-97.93028426371188
 30
0.0
 10
81.42827688936515
 20
-98.11218530533307
 30
0.0
 10
81.42827688936515
 20
-98.11218530533307
 30
0.0
 10
81.43378904214156
 20
-98.12045353449767
 30
0.0
 10
81.4427462904032
 20
-98.13526744508424
 30
0.0
 10
81.4427462904032
 20
-98.14594724108852
 30
0.0
 10
81.4427462904032
 20
-98.16282820896625
 30
0.0
 10
81.4248317938799
 20
-98.17350800497051
 30
0.0
 10
81.41036239284186
 20
-98.17350800497051
 30
0.0
 10
81.39933808728905
 20
-98.17350800497051
 30
0.0
 10
81.38693574354215
 20
-98.16696232354855
 30
0.0
 10
81.36350909424246
 20
-98.15662703709279
 30
0.0
 10
81.23362899444854
 20
-98.24757755790338
 30
0.0
 10
81.2191595934105
 20
-98.25825735390767
 30
0.0
 10
81.11821829569267
 20
-98.31096731483198
 30
0.0
 10
80.9738687948607
 20
-98.38917098234715
 30
0.0
 10
80.91254609522326
 20
-98.41259763164686
 30
0.0
 10
80.86190319159009
 20
-98.42947859952459
 30
0.0
 10
80.86190319159009
 20
-98.42947859952459
 30
0.0
 10
80.86190319159009
 20
-99.055796958743
 30
0.0
 10
80.86190319159009
 20
-99.055796958743
 30
0.0
 10
80.86190319159009
 20
-99.12952200212735
 30
0.0
 10
80.86190319159009
 20
-99.17844235801789
 30
0.0
 10
80.94665254052723
 20
-99.17844235801789
 30
0.0
 10
80.94665254052723
 20
-99.17844235801789
 30
0.0
 10
81.20090058733867
 20
-99.17844235801789
 30
0.0
 10
81.20090058733867
 20
-99.17844235801789
 30
0.0
 10
81.26050073923349
 20
-99.17844235801789
 30
0.0
 10
81.27324759252892
 20
-99.14226885542277
 30
0.0
 10
81.28599444582434
 20
-99.10437280508502
 30
0.0
 10
81.30390894234763
 20
-99.05338539190332
 30
0.0
 10
81.32561304390471
 20
-98.96484643793241
 30
0.0
 10
81.34525008817063
 20
-98.84392358640014
 30
0.0
 10
81.34525008817063
 20
-98.84392358640014
 30
0.0
 10
81.51130369055967
 20
-99.01548934156558
 30
0.0
 10
81.51130369055967
 20
-99.01548934156558
 30
0.0
 10
81.45721569144125
 20
-99.33278263575708
 30
0.0
 10
81.40485024006546
 20
-99.36034339963909
 30
0.0
 10
81.20813528785769
 20
-99.36034339963909
 30
0.0
  0
HATCH
  5
178
330
160
100
AcDbEntity
  8
_U+30EC_U+30A4_U+30E4_U+30FC 1
 62
   179
420
  2234388
100
AcDbHatch
 10
0.0
 20
0.0
 30
0.0
210
0.0
220
0.0
230
1.0
  2
SOLID
 70
     1
 71
     0
 91
        2
 92
        1
 93
        1
 72
     4
 94
        3
 73
     0
 74
     1
 95
       53
 96
       49
 40
0.0
 40
0.0
 40
0.0
 40
0.0
 40
1.0
 40
1.0
 40
1.0
 40
2.0
 40
2.0
 40
2.0
 40
3.0
 40
3.0
 40
3.0
 40
4.0
 40
4.0
 40
4.0
 40
5.0
 40
5.0
 40
5.0
 40
6.0
 40
6.0
 40
6.0
 40
7.0
 40
7.0
 40
7.0
 40
8.0
 40
8.0
 40
8.0
 40
9.0
 40
9.0
 40
9.0
 40
10.0
 40
10.0
 40
10.0
 40
11.0
 40
11.0
 40
11.0
 40
12.0
 40
12.0
 40
12.0
 40
13.0
 40
13.0
 40
13.0
 40
14.0
 40
14.0
 40
14.0
 40
15.0
 40
15.0
 40
15.0
 40
16.0
 40
16.0
 40
16.0
 40
16.0
 10
80.45090330019978
 20
-97.65295407714926
 10
80.42575410315746
 20
-97.70600854762212
 10
80.32102320040586
 20
-97.94061955016763
 10
80.29759655110615
 20
-97.98747284876703
 10
80.29759655110615
 20
-97.98747284876703
 10
80.31930065266323
 20
-98.0022867593536
 10
80.31930065266323
 20
-98.0022867593536
 10
80.32998044866751
 20
-98.0105549885182
 10
80.34100475422031
 20
-98.01710066994018
 10
80.34100475422031
 20
-98.0339816378179
 10
80.34100475422031
 20
-98.05292966298677
 10
80.33204750595866
 20
-98.05706377756907
 10
80.3065537993678
 20
-98.0698106308645
 10
80.30310870388256
 20
-98.21794973673023
 10
80.30310870388256
 20
-98.27927243636769
 10
80.30310870388256
 20
-98.39985077835144
 10
80.30310870388256
 20
-98.39985077835144
 10
80.30310870388256
 20
-98.88629826086871
 10
80.30310870388256
 20
-98.88629826086871
 10
80.30310870388256
 20
-98.9372856740504
 10
80.31034340440158
 20
-99.2184054656468
 10
80.32274574814848
 20
-99.42373315656768
 10
80.32274574814848
 20
-99.42373315656768
 10
80.10467120393217
 20
-99.42373315656768
 10
80.10467120393217
 20
-99.42373315656768
 10
80.11535099993644
 20
-99.22701820435992
 10
80.12637530548925
 20
-99.0323703094433
 10
80.12637530548925
 20
-98.88423120357756
 10
80.12637530548925
 20
-98.88423120357756
 10
80.12637530548925
 20
-98.30028751882772
 10
80.12637530548925
 20
-98.30028751882772
 10
80.04334850429473
 20
-98.42741154223343
 10
79.9892605051763
 20
-98.5014810951663
 10
79.90623370398178
 20
-98.58588593455492
 10
79.90623370398178
 20
-98.58588593455492
 10
79.76567380818358
 20
-98.44222545282
 10
79.76567380818358
 20
-98.44222545282
 10
80.02336695048027
 20
-98.17557506226167
 10
80.23282875598346
 20
-97.80109318301501
 10
80.31930065266323
 20
-97.48173283153236
 10
80.31930065266323
 20
-97.48173283153236
 10
80.49224444602278
 20
-97.59163137751182
 10
80.49224444602278
 20
-97.59163137751182
 10
80.50671384706082
 20
-97.60024411622494
 10
80.51394854757984
 20
-97.60437823080724
 10
80.51394854757984
 20
-97.61712508410267
 10
80.51394854757984
 20
-97.64881996256696
 10
80.47605249724211
 20
-97.65088701985812
 10
80.45090330019978
 20
-97.65295407714926
 97
        0
 97
        0
 92
        1
 93
        1
 72
     4
 94
        3
 73
     0
 74
     1
 95
       74
 96
       70
 40
0.0
 40
0.0
 40
0.0
 40
0.0
 40
1.0
 40
1.0
 40
1.0
 40
2.0
 40
2.0
 40
2.0
 40
3.0
 40
3.0
 40
3.0
 40
4.0
 40
4.0
 40
4.0
 40
5.0
 40
5.0
 40
5.0
 40
6.0
 40
6.0
 40
6.0
 40
7.0
 40
7.0
 40
7.0
 40
8.0
 40
8.0
 40
8.0
 40
9.0
 40
9.0
 40
9.0
 40
10.0
 40
10.0
 40
10.0
 40
11.0
 40
11.0
 40
11.0
 40
12.0
 40
12.0
 40
12.0
 40
13.0
 40
13.0
 40
13.0
 40
14.0
 40
14.0
 40
14.0
 40
15.0
 40
15.0
 40
15.0
 40
16.0
 40
16.0
 40
16.0
 40
17.0
 40
17.0
 40
17.0
 40
18.0
 40
18.0
 40
18.0
 40
19.0
 40
19.0
 40
19.0
 40
20.0
 40
20.0
 40
20.0
 40
21.0
 40
21.0
 40
21.0
 40
22.0
 40
22.0
 40
22.0
 40
23.0
 40
23.0
 40
23.0
 40
23.0
 10
81.20813528785769
 20
-99.36034339963909
 10
81.20813528785769
 20
-99.36034339963909
 10
80.8925645414088
 20
-99.36034339963909
 10
80.8925645414088
 20
-99.36034339963909
 10
80.76647404664867
 20
-99.36034339963909
 10
80.68172469771152
 20
-99.32658146388364
 10
80.68172469771152
 20
-99.16569550472246
 10
80.68172469771152
 20
-99.16569550472246
 10
80.68172469771152
 20
-98.0463839815648
 10
80.68172469771152
 20
-98.0463839815648
 10
80.68172469771152
 20
-97.91753741041646
 10
80.68000214996889
 20
-97.87102862136558
 10
80.6744899971925
 20
-97.50274791399238
 10
80.6744899971925
 20
-97.50274791399238
 10
80.8980766941852
 20
-97.5389214165875
 10
80.8980766941852
 20
-97.5389214165875
 10
80.91426864296588
 20
-97.54098847387864
 10
80.93252764903771
 20
-97.54925670304324
 10
80.93252764903771
 20
-97.56854923776065
 10
80.93252764903771
 20
-97.59611000164264
 10
80.90358884696161
 20
-97.60851234538954
 10
80.86913789210911
 20
-97.62125919868497
 10
80.86397024888123
 20
-97.8879095892433
 10
80.86190319159009
 20
-97.92821720642073
 10
80.86190319159009
 20
-98.0463839815648
 10
80.86190319159009
 20
-98.0463839815648
 10
80.86190319159009
 20
-98.22001679402139
 10
80.86190319159009
 20
-98.22001679402139
 10
80.93597274452296
 20
-98.19038897284824
 10
81.14509004047763
 20
-98.08255748415992
 10
81.28599444582434
 20
-97.93028426371188
 10
81.28599444582434
 20
-97.93028426371188
 10
81.42827688936515
 20
-98.11218530533307
 10
81.42827688936515
 20
-98.11218530533307
 10
81.43378904214156
 20
-98.12045353449767
 10
81.4427462904032
 20
-98.13526744508424
 10
81.4427462904032
 20
-98.14594724108852
 10
81.4427462904032
 20
-98.16282820896625
 10
81.4248317938799
 20
-98.17350800497051
 10
81.41036239284186
 20
-98.17350800497051
 10
81.39933808728905
 20
-98.17350800497051
 10
81.38693574354215
 20
-98.16696232354855
 10
81.36350909424246
 20
-98.15662703709279
 10
81.23362899444854
 20
-98.24757755790338
 10
81.2191595934105
 20
-98.25825735390767
 10
81.11821829569267
 20
-98.31096731483198
 10
80.9738687948607
 20
-98.38917098234715
 10
80.91254609522326
 20
-98.41259763164686
 10
80.86190319159009
 20
-98.42947859952459
 10
80.86190319159009
 20
-98.42947859952459
 10
80.86190319159009
 20
-99.055796958743
 10
80.86190319159009
 20
-99.055796958743
 10
80.86190319159009
 20
-99.12952200212735
 10
80.86190319159009
 20
-99.17844235801789
 10
80.94665254052723
 20
-99.17844235801789
 10
80.94665254052723
 20
-99.17844235801789
 10
81.20090058733867
 20
-99.17844235801789
 10
81.20090058733867
 20
-99.17844235801789
 10
81.26050073923349
 20
-99.17844235801789
 10
81.27324759252892
 20
-99.14226885542277
 10
81.28599444582434
 20
-99.10437280508502
 10
81.30390894234763
 20
-99.05338539190332
 10
81.32561304390471
 20
-98.96484643793241
 10
81.34525008817063
 20
-98.84392358640014
 10
81.34525008817063
 20
-98.84392358640014
 10
81.51130369055967
 20
-99.01548934156558
 10
81.51130369055967
 20
-99.01548934156558
 10
81.45721569144125
 20
-99.33278263575708
 10
81.40485024006546
 20
-99.36034339963909
 10
81.20813528785769
 20
-99.36034339963909
 97
        0
 97
        0
 75
     2
 76
     1
 98
        0
  0
ENDBLK
  5
163
330
160
100
AcDbEntity
  8
0
100
AcDbBlockEnd
  0
BLOCK
  5
17B
330
179
100
AcDbEntity
  8
0
100
AcDbBlockBegin
  2
block 17
 70
     0
 10
0.0
 20
0.0
 30
0.0
  3
block 17
  1

  0
SPLINE
  5
17D
330
179
100
AcDbEntity
  8
_U+30EC_U+30A4_U+30E4_U+30FC 1
370
     0
100
AcDbSpline
210
0.0
220
0.0
230
1.0
 70
    11
 71
     3
 72
    44
 73
    40
 74
     0
 42
0.0000000001
 43
0.0000000001
 12
1.0
 22
0.0
 32
0.0
 13
1.0
 23
0.0
 33
0.0
 40
0.0
 40
0.0
 40
0.0
 40
0.0
 40
1.0
 40
1.0
 40
1.0
 40
2.0
 40
2.0
 40
2.0
 40
3.0
 40
3.0
 40
3.0
 40
4.0
 40
4.0
 40
4.0
 40
5.0
 40
5.0
 40
5.0
 40
6.0
 40
6.0
 40
6.0
 40
7.0
 40
7.0
 40
7.0
 40
8.0
 40
8.0
 40
8.0
 40
9.0
 40
9.0
 40
9.0
 40
10.0
 40
10.0
 40
10.0
 40
11.0
 40
11.0
 40
11.0
 40
12.0
 40
12.0
 40
12.0
 40
13.0
 40
13.0
 40
13.0
 40
13.0
 10
75.6567084229261
 20
-100.6663790980973
 30
0.0
 10
75.56127927798468
 20
-101.0346598054705
 30
0.0
 10
75.51787107487054
 20
-101.193134197792
 30
0.0
 10
75.3504394342874
 20
-101.4429036204726
 30
0.0
 10
75.19334308016
 20
-101.6733805084358
 30
0.0
 10
74.99146048472436
 20
-101.8597601741878
 30
0.0
 10
74.7534043866936
 20
-101.9527777522896
 30
0.0
 10
74.7534043866936
 20
-101.9527777522896
 30
0.0
 10
74.5894178415957
 20
-101.7729437679595
 30
0.0
 10
74.5894178415957
 20
-101.7729437679595
 30
0.0
 10
75.13580998555634
 20
-101.6206705475115
 30
0.0
 10
75.41692977715272
 20
-101.0642876266437
 30
0.0
 10
75.47101777627114
 20
-100.6240044236287
 30
0.0
 10
75.47101777627114
 20
-100.6240044236287
 30
0.0
 10
74.8181721818163
 20
-100.6240044236287
 30
0.0
 10
74.8181721818163
 20
-100.6240044236287
 30
0.0
 10
74.73893498565555
 20
-100.6240044236287
 30
0.0
 10
74.58218314107668
 20
-100.6284830477595
 30
0.0
 10
74.44851343624899
 20
-100.6474310729284
 30
0.0
 10
74.44851343624899
 20
-100.6474310729284
 30
0.0
 10
74.44851343624899
 20
-100.427289471421
 30
0.0
 10
74.44851343624899
 20
-100.427289471421
 30
0.0
 10
74.52258298918186
 20
-100.4486490634295
 30
0.0
 10
74.73721243791292
 20
-100.4486490634295
 30
0.0
 10
74.82196178685007
 20
-100.4486490634295
 30
0.0
 10
74.82196178685007
 20
-100.4486490634295
 30
0.0
 10
75.18989798467476
 20
-100.4486490634295
 30
0.0
 10
75.18989798467476
 20
-100.4486490634295
 30
0.0
 10
75.22572697772135
 20
-100.4486490634295
 30
0.0
 10
75.42588702541437
 20
-100.4462374965898
 30
0.0
 10
75.45861543252424
 20
-100.4400363247164
 30
0.0
 10
75.49444442557083
 20
-100.4338351528429
 30
0.0
 10
75.49651148286199
 20
-100.4317680955518
 30
0.0
 10
75.54853242468926
 20
-100.3914604783744
 30
0.0
 10
75.54853242468926
 20
-100.3914604783744
 30
0.0
 10
75.70907387430191
 20
-100.5458007561136
 30
0.0
 10
75.70907387430191
 20
-100.5458007561136
 30
0.0
 10
75.68392467725958
 20
-100.5754285772867
 30
0.0
 10
75.67117782396416
 20
-100.607123455751
 30
0.0
 10
75.6567084229261
 20
-100.6663790980973
 30
0.0
  0
SPLINE
  5
17E
330
179
100
AcDbEntity
  8
_U+30EC_U+30A4_U+30E4_U+30FC 1
370
     0
100
AcDbSpline
210
0.0
220
0.0
230
1.0
 70
    11
 71
     3
 72
    17
 73
    13
 74
     0
 42
0.0000000001
 43
0.0000000001
 12
1.0
 22
0.0
 32
0.0
 13
1.0
 23
0.0
 33
0.0
 40
0.0
 40
0.0
 40
0.0
 40
0.0
 40
1.0
 40
1.0
 40
1.0
 40
2.0
 40
2.0
 40
2.0
 40
3.0
 40
3.0
 40
3.0
 40
4.0
 40
4.0
 40
4.0
 40
4.0
 10
75.83550887861057
 20
-100.4675970885984
 30
0.0
 10
75.72733288037372
 20
-100.4675970885984
 30
0.0
 10
75.64051647414543
 20
-100.3659667717835
 30
0.0
 10
75.64051647414543
 20
-100.2391872579263
 30
0.0
 10
75.64051647414543
 20
-100.1120632345206
 30
0.0
 10
75.72733288037372
 20
-100.0083658604146
 30
0.0
 10
75.83550887861057
 20
-100.0083658604146
 30
0.0
 10
75.94368487684741
 20
-100.0083658604146
 30
0.0
 10
76.03187932126981
 20
-100.1120632345206
 30
0.0
 10
76.03187932126981
 20
-100.2391872579263
 30
0.0
 10
76.03187932126981
 20
-100.3659667717835
 30
0.0
 10
75.94368487684741
 20
-100.4675970885984
 30
0.0
 10
75.83550887861057
 20
-100.4675970885984
 30
0.0
  0
SPLINE
  5
17F
330
179
100
AcDbEntity
  8
_U+30EC_U+30A4_U+30E4_U+30FC 1
370
     0
100
AcDbSpline
210
0.0
220
0.0
230
1.0
 70
    11
 71
     3
 72
    17
 73
    13
 74
     0
 42
0.0000000001
 43
0.0000000001
 12
1.0
 22
0.0
 32
0.0
 13
1.0
 23
0.0
 33
0.0
 40
0.0
 40
0.0
 40
0.0
 40
0.0
 40
1.0
 40
1.0
 40
1.0
 40
2.0
 40
2.0
 40
2.0
 40
3.0
 40
3.0
 40
3.0
 40
4.0
 40
4.0
 40
4.0
 40
4.0
 10
75.83344182131943
 20
-100.1375569411115
 30
0.0
 10
75.78658852272002
 20
-100.1375569411115
 30
0.0
 10
75.74869247238227
 20
-100.1819986728712
 30
0.0
 10
75.74869247238227
 20
-100.2371202006352
 30
0.0
 10
75.74869247238227
 20
-100.2939642761418
 30
0.0
 10
75.78658852272002
 20
-100.3428846320323
 30
0.0
 10
75.8372314263532
 20
-100.3428846320323
 30
0.0
 10
75.88752982043785
 20
-100.3428846320323
 30
0.0
 10
75.92198077529034
 20
-100.2918972188506
 30
0.0
 10
75.92198077529034
 20
-100.2391872579263
 30
0.0
 10
75.92198077529034
 20
-100.1819986728712
 30
0.0
 10
75.88236217720997
 20
-100.1375569411115
 30
0.0
 10
75.83344182131943
 20
-100.1375569411115
 30
0.0
  0
HATCH
  5
180
330
179
100
AcDbEntity
  8
_U+30EC_U+30A4_U+30E4_U+30FC 1
 62
   179
420
  2234388
100
AcDbHatch
 10
0.0
 20
0.0
 30
0.0
210
0.0
220
0.0
230
1.0
  2
SOLID
 70
     1
 71
     0
 91
        3
 92
        1
 93
        1
 72
     4
 94
        3
 73
     0
 74
     1
 95
       44
 96
       40
 40
0.0
 40
0.0
 40
0.0
 40
0.0
 40
1.0
 40
1.0
 40
1.0
 40
2.0
 40
2.0
 40
2.0
 40
3.0
 40
3.0
 40
3.0
 40
4.0
 40
4.0
 40
4.0
 40
5.0
 40
5.0
 40
5.0
 40
6.0
 40
6.0
 40
6.0
 40
7.0
 40
7.0
 40
7.0
 40
8.0
 40
8.0
 40
8.0
 40
9.0
 40
9.0
 40
9.0
 40
10.0
 40
10.0
 40
10.0
 40
11.0
 40
11.0
 40
11.0
 40
12.0
 40
12.0
 40
12.0
 40
13.0
 40
13.0
 40
13.0
 40
13.0
 10
75.6567084229261
 20
-100.6663790980973
 10
75.56127927798468
 20
-101.0346598054705
 10
75.51787107487054
 20
-101.193134197792
 10
75.3504394342874
 20
-101.4429036204726
 10
75.19334308016
 20
-101.6733805084358
 10
74.99146048472436
 20
-101.8597601741878
 10
74.7534043866936
 20
-101.9527777522896
 10
74.7534043866936
 20
-101.9527777522896
 10
74.5894178415957
 20
-101.7729437679595
 10
74.5894178415957
 20
-101.7729437679595
 10
75.13580998555634
 20
-101.6206705475115
 10
75.41692977715272
 20
-101.0642876266437
 10
75.47101777627114
 20
-100.6240044236287
 10
75.47101777627114
 20
-100.6240044236287
 10
74.8181721818163
 20
-100.6240044236287
 10
74.8181721818163
 20
-100.6240044236287
 10
74.73893498565555
 20
-100.6240044236287
 10
74.58218314107668
 20
-100.6284830477595
 10
74.44851343624899
 20
-100.6474310729284
 10
74.44851343624899
 20
-100.6474310729284
 10
74.44851343624899
 20
-100.427289471421
 10
74.44851343624899
 20
-100.427289471421
 10
74.52258298918186
 20
-100.4486490634295
 10
74.73721243791292
 20
-100.4486490634295
 10
74.82196178685007
 20
-100.4486490634295
 10
74.82196178685007
 20
-100.4486490634295
 10
75.18989798467476
 20
-100.4486490634295
 10
75.18989798467476
 20
-100.4486490634295
 10
75.22572697772135
 20
-100.4486490634295
 10
75.42588702541437
 20
-100.4462374965898
 10
75.45861543252424
 20
-100.4400363247164
 10
75.49444442557083
 20
-100.4338351528429
 10
75.49651148286199
 20
-100.4317680955518
 10
75.54853242468926
 20
-100.3914604783744
 10
75.54853242468926
 20
-100.3914604783744
 10
75.70907387430191
 20
-100.5458007561136
 10
75.70907387430191
 20
-100.5458007561136
 10
75.68392467725958
 20
-100.5754285772867
 10
75.67117782396416
 20
-100.607123455751
 10
75.6567084229261
 20
-100.6663790980973
 97
        0
 97
        0
 92
        1
 93
        1
 72
     4
 94
        3
 73
     0
 74
     1
 95
       17
 96
       13
 40
0.0
 40
0.0
 40
0.0
 40
0.0
 40
1.0
 40
1.0
 40
1.0
 40
2.0
 40
2.0
 40
2.0
 40
3.0
 40
3.0
 40
3.0
 40
4.0
 40
4.0
 40
4.0
 40
4.0
 10
75.83550887861057
 20
-100.4675970885984
 10
75.72733288037372
 20
-100.4675970885984
 10
75.64051647414543
 20
-100.3659667717835
 10
75.64051647414543
 20
-100.2391872579263
 10
75.64051647414543
 20
-100.1120632345206
 10
75.72733288037372
 20
-100.0083658604146
 10
75.83550887861057
 20
-100.0083658604146
 10
75.94368487684741
 20
-100.0083658604146
 10
76.03187932126981
 20
-100.1120632345206
 10
76.03187932126981
 20
-100.2391872579263
 10
76.03187932126981
 20
-100.3659667717835
 10
75.94368487684741
 20
-100.4675970885984
 10
75.83550887861057
 20
-100.4675970885984
 97
        0
 97
        0
 92
        1
 93
        1
 72
     4
 94
        3
 73
     0
 74
     1
 95
       17
 96
       13
 40
0.0
 40
0.0
 40
0.0
 40
0.0
 40
1.0
 40
1.0
 40
1.0
 40
2.0
 40
2.0
 40
2.0
 40
3.0
 40
3.0
 40
3.0
 40
4.0
 40
4.0
 40
4.0
 40
4.0
 10
75.83344182131943
 20
-100.1375569411115
 10
75.78658852272002
 20
-100.1375569411115
 10
75.74869247238227
 20
-100.1819986728712
 10
75.74869247238227
 20
-100.2371202006352
 10
75.74869247238227
 20
-100.2939642761418
 10
75.78658852272002
 20
-100.3428846320323
 10
75.8372314263532
 20
-100.3428846320323
 10
75.88752982043785
 20
-100.3428846320323
 10
75.92198077529034
 20
-100.2918972188506
 10
75.92198077529034
 20
-100.2391872579263
 10
75.92198077529034
 20
-100.1819986728712
 10
75.88236217720997
 20
-100.1375569411115
 10
75.83344182131943
 20
-100.1375569411115
 97
        0
 97
        0
 75
     2
 76
     1
 98
        0
  0
SPLINE
  5
181
330
179
100
AcDbEntity
  8
_U+30EC_U+30A4_U+30E4_U+30FC 1
370
     0
100
AcDbSpline
210
0.0
220
0.0
230
1.0
 70
    11
 71
     3
 72
    50
 73
    46
 74
     0
 42
0.0000000001
 43
0.0000000001
 12
1.0
 22
0.0
 32
0.0
 13
1.0
 23
0.0
 33
0.0
 40
0.0
 40
0.0
 40
0.0
 40
0.0
 40
1.0
 40
1.0
 40
1.0
 40
2.0
 40
2.0
 40
2.0
 40
3.0
 40
3.0
 40
3.0
 40
4.0
 40
4.0
 40
4.0
 40
5.0
 40
5.0
 40
5.0
 40
6.0
 40
6.0
 40
6.0
 40
7.0
 40
7.0
 40
7.0
 40
8.0
 40
8.0
 40
8.0
 40
9.0
 40
9.0
 40
9.0
 40
10.0
 40
10.0
 40
10.0
 40
11.0
 40
11.0
 40
11.0
 40
12.0
 40
12.0
 40
12.0
 40
13.0
 40
13.0
 40
13.0
 40
14.0
 40
14.0
 40
14.0
 40
15.0
 40
15.0
 40
15.0
 40
15.0
 10
77.36306421677035
 20
-100.9754041631242
 30
0.0
 10
77.29657387390503
 20
-101.1528265806146
 30
0.0
 10
77.18116317514915
 20
-101.3602213288266
 30
0.0
 10
77.06368541910214
 20
-101.5000922055278
 30
0.0
 10
76.91968042781869
 20
-101.6713134511447
 30
0.0
 10
76.78084307976313
 20
-101.7601969146641
 30
0.0
 10
76.50833602687986
 20
-101.9017903391079
 30
0.0
 10
76.50833602687986
 20
-101.9017903391079
 30
0.0
 10
76.3639865260479
 20
-101.7136881256132
 30
0.0
 10
76.3639865260479
 20
-101.7136881256132
 30
0.0
 10
76.52280542791792
 20
-101.6902614763136
 30
0.0
 10
76.66887747649251
 20
-101.6037895796338
 30
0.0
 10
76.79875757628642
 20
-101.4980251482366
 30
0.0
 10
77.02234427327915
 20
-101.3157795970669
 30
0.0
 10
77.18460827063441
 20
-101.0026204174577
 30
0.0
 10
77.22594941645741
 20
-100.8207193758365
 30
0.0
 10
77.22594941645741
 20
-100.8207193758365
 30
0.0
 10
76.65440807545446
 20
-100.8207193758365
 30
0.0
 10
76.65440807545446
 20
-100.8207193758365
 30
0.0
 10
76.51936033243267
 20
-100.8207193758365
 30
0.0
 10
76.2702799288491
 20
-100.8293321145496
 30
0.0
 10
76.14039982905518
 20
-100.8462130824273
 30
0.0
 10
76.14039982905518
 20
-100.8462130824273
 30
0.0
 10
76.14039982905518
 20
-100.6178032517553
 30
0.0
 10
76.14039982905518
 20
-100.6178032517553
 30
0.0
 10
76.16933863113128
 20
-100.6240044236287
 30
0.0
 10
76.19104273268836
 20
-100.6305501050507
 30
0.0
 10
76.23617348354513
 20
-100.634684219633
 30
0.0
 10
76.3226453802249
 20
-100.6408853915064
 30
0.0
 10
76.49042153035657
 20
-100.6432969583461
 30
0.0
 10
76.56242402599828
 20
-100.6432969583461
 30
0.0
 10
76.56242402599828
 20
-100.6432969583461
 30
0.0
 10
76.99340547120305
 20
-100.6432969583461
 30
0.0
 10
76.99340547120305
 20
-100.6432969583461
 30
0.0
 10
77.05128307535524
 20
-100.6432969583461
 30
0.0
 10
77.17565102237276
 20
-100.6388183342153
 30
0.0
 10
77.22801647374855
 20
-100.6326171623418
 30
0.0
 10
77.289339173386
 20
-100.6240044236287
 30
0.0
 10
77.3127658226857
 20
-100.6091905130422
 30
0.0
 10
77.34136011521328
 20
-100.586108373291
 30
0.0
 10
77.34136011521328
 20
-100.586108373291
 30
0.0
 10
77.48226452056
 20
-100.7531955043256
 30
0.0
 10
77.48226452056
 20
-100.7531955043256
 30
0.0
 10
77.42266436866517
 20
-100.8207193758365
 30
0.0
 10
77.3830457705848
 20
-100.9244167499425
 30
0.0
 10
77.36306421677035
 20
-100.9754041631242
 30
0.0
  0
SPLINE
  5
182
330
179
100
AcDbEntity
  8
_U+30EC_U+30A4_U+30E4_U+30FC 1
370
     0
100
AcDbSpline
210
0.0
220
0.0
230
1.0
 70
    11
 71
     3
 72
    29
 73
    25
 74
     0
 42
0.0000000001
 43
0.0000000001
 12
1.0
 22
0.0
 32
0.0
 13
1.0
 23
0.0
 33
0.0
 40
0.0
 40
0.0
 40
0.0
 40
0.0
 40
1.0
 40
1.0
 40
1.0
 40
2.0
 40
2.0
 40
2.0
 40
3.0
 40
3.0
 40
3.0
 40
4.0
 40
4.0
 40
4.0
 40
5.0
 40
5.0
 40
5.0
 40
6.0
 40
6.0
 40
6.0
 40
7.0
 40
7.0
 40
7.0
 40
8.0
 40
8.0
 40
8.0
 40
8.0
 10
76.9431070771184
 20
-100.3490858039058
 30
0.0
 10
76.9431070771184
 20
-100.3490858039058
 30
0.0
 10
76.65268552771184
 20
-100.3490858039058
 30
0.0
 10
76.65268552771184
 20
-100.3490858039058
 30
0.0
 10
76.55518932547926
 20
-100.3490858039058
 30
0.0
 10
76.45597057550407
 20
-100.3532199184881
 30
0.0
 10
76.35881888282002
 20
-100.3680338290747
 30
0.0
 10
76.35881888282002
 20
-100.3680338290747
 30
0.0
 10
76.35881888282002
 20
-100.1585720235715
 30
0.0
 10
76.35881888282002
 20
-100.1585720235715
 30
0.0
 10
76.45976018053784
 20
-100.173385934158
 30
0.0
 10
76.60755477685505
 20
-100.1778645582889
 30
0.0
 10
76.65268552771184
 20
-100.1778645582889
 30
0.0
 10
76.65268552771184
 20
-100.1778645582889
 30
0.0
 10
76.9431070771184
 20
-100.1778645582889
 30
0.0
 10
76.9431070771184
 20
-100.1778645582889
 30
0.0
 10
77.04232582709359
 20
-100.1778645582889
 30
0.0
 10
77.14120006752026
 20
-100.173385934158
 30
0.0
 10
77.24041881749545
 20
-100.1585720235715
 30
0.0
 10
77.24041881749545
 20
-100.1585720235715
 30
0.0
 10
77.24041881749545
 20
-100.3680338290747
 30
0.0
 10
77.24041881749545
 20
-100.3680338290747
 30
0.0
 10
77.11260577499269
 20
-100.3490858039058
 30
0.0
 10
76.9555094208653
 20
-100.3490858039058
 30
0.0
 10
76.9431070771184
 20
-100.3490858039058
 30
0.0
  0
HATCH
  5
183
330
179
100
AcDbEntity
  8
_U+30EC_U+30A4_U+30E4_U+30FC 1
 62
   179
420
  2234388
100
AcDbHatch
 10
0.0
 20
0.0
 30
0.0
210
0.0
220
0.0
230
1.0
  2
SOLID
 70
     1
 71
     0
 91
        2
 92
        1
 93
        1
 72
     4
 94
        3
 73
     0
 74
     1
 95
       50
 96
       46
 40
0.0
 40
0.0
 40
0.0
 40
0.0
 40
1.0
 40
1.0
 40
1.0
 40
2.0
 40
2.0
 40
2.0
 40
3.0
 40
3.0
 40
3.0
 40
4.0
 40
4.0
 40
4.0
 40
5.0
 40
5.0
 40
5.0
 40
6.0
 40
6.0
 40
6.0
 40
7.0
 40
7.0
 40
7.0
 40
8.0
 40
8.0
 40
8.0
 40
9.0
 40
9.0
 40
9.0
 40
10.0
 40
10.0
 40
10.0
 40
11.0
 40
11.0
 40
11.0
 40
12.0
 40
12.0
 40
12.0
 40
13.0
 40
13.0
 40
13.0
 40
14.0
 40
14.0
 40
14.0
 40
15.0
 40
15.0
 40
15.0
 40
15.0
 10
77.36306421677035
 20
-100.9754041631242
 10
77.29657387390503
 20
-101.1528265806146
 10
77.18116317514915
 20
-101.3602213288266
 10
77.06368541910214
 20
-101.5000922055278
 10
76.91968042781869
 20
-101.6713134511447
 10
76.78084307976313
 20
-101.7601969146641
 10
76.50833602687986
 20
-101.9017903391079
 10
76.50833602687986
 20
-101.9017903391079
 10
76.3639865260479
 20
-101.7136881256132
 10
76.3639865260479
 20
-101.7136881256132
 10
76.52280542791792
 20
-101.6902614763136
 10
76.66887747649251
 20
-101.6037895796338
 10
76.79875757628642
 20
-101.4980251482366
 10
77.02234427327915
 20
-101.3157795970669
 10
77.18460827063441
 20
-101.0026204174577
 10
77.22594941645741
 20
-100.8207193758365
 10
77.22594941645741
 20
-100.8207193758365
 10
76.65440807545446
 20
-100.8207193758365
 10
76.65440807545446
 20
-100.8207193758365
 10
76.51936033243267
 20
-100.8207193758365
 10
76.2702799288491
 20
-100.8293321145496
 10
76.14039982905518
 20
-100.8462130824273
 10
76.14039982905518
 20
-100.8462130824273
 10
76.14039982905518
 20
-100.6178032517553
 10
76.14039982905518
 20
-100.6178032517553
 10
76.16933863113128
 20
-100.6240044236287
 10
76.19104273268836
 20
-100.6305501050507
 10
76.23617348354513
 20
-100.634684219633
 10
76.3226453802249
 20
-100.6408853915064
 10
76.49042153035657
 20
-100.6432969583461
 10
76.56242402599828
 20
-100.6432969583461
 10
76.56242402599828
 20
-100.6432969583461
 10
76.99340547120305
 20
-100.6432969583461
 10
76.99340547120305
 20
-100.6432969583461
 10
77.05128307535524
 20
-100.6432969583461
 10
77.17565102237276
 20
-100.6388183342153
 10
77.22801647374855
 20
-100.6326171623418
 10
77.289339173386
 20
-100.6240044236287
 10
77.3127658226857
 20
-100.6091905130422
 10
77.34136011521328
 20
-100.586108373291
 10
77.34136011521328
 20
-100.586108373291
 10
77.48226452056
 20
-100.7531955043256
 10
77.48226452056
 20
-100.7531955043256
 10
77.42266436866517
 20
-100.8207193758365
 10
77.3830457705848
 20
-100.9244167499425
 10
77.36306421677035
 20
-100.9754041631242
 97
        0
 97
        0
 92
        1
 93
        1
 72
     4
 94
        3
 73
     0
 74
     1
 95
       29
 96
       25
 40
0.0
 40
0.0
 40
0.0
 40
0.0
 40
1.0
 40
1.0
 40
1.0
 40
2.0
 40
2.0
 40
2.0
 40
3.0
 40
3.0
 40
3.0
 40
4.0
 40
4.0
 40
4.0
 40
5.0
 40
5.0
 40
5.0
 40
6.0
 40
6.0
 40
6.0
 40
7.0
 40
7.0
 40
7.0
 40
8.0
 40
8.0
 40
8.0
 40
8.0
 10
76.9431070771184
 20
-100.3490858039058
 10
76.9431070771184
 20
-100.3490858039058
 10
76.65268552771184
 20
-100.3490858039058
 10
76.65268552771184
 20
-100.3490858039058
 10
76.55518932547926
 20
-100.3490858039058
 10
76.45597057550407
 20
-100.3532199184881
 10
76.35881888282002
 20
-100.3680338290747
 10
76.35881888282002
 20
-100.3680338290747
 10
76.35881888282002
 20
-100.1585720235715
 10
76.35881888282002
 20
-100.1585720235715
 10
76.45976018053784
 20
-100.173385934158
 10
76.60755477685505
 20
-100.1778645582889
 10
76.65268552771184
 20
-100.1778645582889
 10
76.65268552771184
 20
-100.1778645582889
 10
76.9431070771184
 20
-100.1778645582889
 10
76.9431070771184
 20
-100.1778645582889
 10
77.04232582709359
 20
-100.1778645582889
 10
77.14120006752026
 20
-100.173385934158
 10
77.24041881749545
 20
-100.1585720235715
 10
77.24041881749545
 20
-100.1585720235715
 10
77.24041881749545
 20
-100.3680338290747
 10
77.24041881749545
 20
-100.3680338290747
 10
77.11260577499269
 20
-100.3490858039058
 10
76.9555094208653
 20
-100.3490858039058
 10
76.9431070771184
 20
-100.3490858039058
 97
        0
 97
        0
 75
     2
 76
     1
 98
        0
  0
SPLINE
  5
184
330
179
100
AcDbEntity
  8
_U+30EC_U+30A4_U+30E4_U+30FC 1
370
     0
100
AcDbSpline
210
0.0
220
0.0
230
1.0
 70
    11
 71
     3
 72
    50
 73
    46
 74
     0
 42
0.0000000001
 43
0.0000000001
 12
1.0
 22
0.0
 32
0.0
 13
1.0
 23
0.0
 33
0.0
 40
0.0
 40
0.0
 40
0.0
 40
0.0
 40
1.0
 40
1.0
 40
1.0
 40
2.0
 40
2.0
 40
2.0
 40
3.0
 40
3.0
 40
3.0
 40
4.0
 40
4.0
 40
4.0
 40
5.0
 40
5.0
 40
5.0
 40
6.0
 40
6.0
 40
6.0
 40
7.0
 40
7.0
 40
7.0
 40
8.0
 40
8.0
 40
8.0
 40
9.0
 40
9.0
 40
9.0
 40
10.0
 40
10.0
 40
10.0
 40
11.0
 40
11.0
 40
11.0
 40
12.0
 40
12.0
 40
12.0
 40
13.0
 40
13.0
 40
13.0
 40
14.0
 40
14.0
 40
14.0
 40
15.0
 40
15.0
 40
15.0
 40
15.0
 10
78.81896156883693
 20
-100.3342718933192
 30
0.0
 10
78.64050562270099
 20
-100.5478678134047
 30
0.0
 10
78.57918292306354
 20
-100.6198703090464
 30
0.0
 10
78.45826007153127
 20
-100.738381593739
 30
0.0
 10
78.45826007153127
 20
-100.738381593739
 30
0.0
 10
78.45826007153127
 20
-101.3054443106112
 30
0.0
 10
78.45826007153127
 20
-101.3054443106112
 30
0.0
 10
78.45826007153127
 20
-101.455650473768
 30
0.0
 10
78.46377222430768
 20
-101.4745984989369
 30
0.0
 10
78.46721731979292
 20
-101.6523654259758
 30
0.0
 10
78.46893986753555
 20
-101.7836235639638
 30
0.0
 10
78.47445202031194
 20
-101.8321994103058
 30
0.0
 10
78.47996417308835
 20
-101.8914550526521
 30
0.0
 10
78.47996417308835
 20
-101.8914550526521
 30
0.0
 10
78.28703882591435
 20
-101.8914550526521
 30
0.0
 10
78.28703882591435
 20
-101.8914550526521
 30
0.0
 10
78.2904839213996
 20
-101.8470133208924
 30
0.0
 10
78.29427352643339
 20
-101.8005045318415
 30
0.0
 10
78.29427352643339
 20
-101.7918917931284
 30
0.0
 10
78.29427352643339
 20
-101.7116210683221
 30
0.0
 10
78.29771862191863
 20
-101.3602213288266
 30
0.0
 10
78.29771862191863
 20
-101.2882188331849
 30
0.0
 10
78.29771862191863
 20
-101.2882188331849
 30
0.0
 10
78.29771862191863
 20
-100.8820420754739
 30
0.0
 10
78.29771862191863
 20
-100.8820420754739
 30
0.0
 10
78.14268932508239
 20
-101.0070990415885
 30
0.0
 10
77.97663572269335
 20
-101.116997587568
 30
0.0
 10
77.80369192933381
 20
-101.2038139937963
 30
0.0
 10
77.80369192933381
 20
-101.2038139937963
 30
0.0
 10
77.63040362642573
 20
-101.040860977344
 30
0.0
 10
77.63040362642573
 20
-101.040860977344
 30
0.0
 10
77.73513452917733
 20
-101.0050319842974
 30
0.0
 10
77.95320907339365
 20
-100.9309624313645
 30
0.0
 10
78.24742022783398
 20
-100.6749918368104
 30
0.0
 10
78.4310438171978
 20
-100.5161729349404
 30
0.0
 10
78.59537487184421
 20
-100.3280707214458
 30
0.0
 10
78.72525497163814
 20
-100.1079291199383
 30
0.0
 10
78.72525497163814
 20
-100.1079291199383
 30
0.0
 10
78.88924151673602
 20
-100.2519341112217
 30
0.0
 10
78.88924151673602
 20
-100.2519341112217
 30
0.0
 10
78.8999213127403
 20
-100.2622693976775
 30
0.0
 10
78.90715601325932
 20
-100.2770833082641
 30
0.0
 10
78.90715601325932
 20
-100.2898301615595
 30
0.0
 10
78.90715601325932
 20
-100.3301377787369
 30
0.0
 10
78.87477211569798
 20
-100.3301377787369
 30
0.0
 10
78.81896156883693
 20
-100.3342718933192
 30
0.0
  0
HATCH
  5
185
330
179
100
AcDbEntity
  8
_U+30EC_U+30A4_U+30E4_U+30FC 1
 62
   179
420
  2234388
100
AcDbHatch
 10
0.0
 20
0.0
 30
0.0
210
0.0
220
0.0
230
1.0
  2
SOLID
 70
     1
 71
     0
 91
        1
 92
        1
 93
        1
 72
     4
 94
        3
 73
     0
 74
     1
 95
       50
 96
       46
 40
0.0
 40
0.0
 40
0.0
 40
0.0
 40
1.0
 40
1.0
 40
1.0
 40
2.0
 40
2.0
 40
2.0
 40
3.0
 40
3.0
 40
3.0
 40
4.0
 40
4.0
 40
4.0
 40
5.0
 40
5.0
 40
5.0
 40
6.0
 40
6.0
 40
6.0
 40
7.0
 40
7.0
 40
7.0
 40
8.0
 40
8.0
 40
8.0
 40
9.0
 40
9.0
 40
9.0
 40
10.0
 40
10.0
 40
10.0
 40
11.0
 40
11.0
 40
11.0
 40
12.0
 40
12.0
 40
12.0
 40
13.0
 40
13.0
 40
13.0
 40
14.0
 40
14.0
 40
14.0
 40
15.0
 40
15.0
 40
15.0
 40
15.0
 10
78.81896156883693
 20
-100.3342718933192
 10
78.64050562270099
 20
-100.5478678134047
 10
78.57918292306354
 20
-100.6198703090464
 10
78.45826007153127
 20
-100.738381593739
 10
78.45826007153127
 20
-100.738381593739
 10
78.45826007153127
 20
-101.3054443106112
 10
78.45826007153127
 20
-101.3054443106112
 10
78.45826007153127
 20
-101.455650473768
 10
78.46377222430768
 20
-101.4745984989369
 10
78.46721731979292
 20
-101.6523654259758
 10
78.46893986753555
 20
-101.7836235639638
 10
78.47445202031194
 20
-101.8321994103058
 10
78.47996417308835
 20
-101.8914550526521
 10
78.47996417308835
 20
-101.8914550526521
 10
78.28703882591435
 20
-101.8914550526521
 10
78.28703882591435
 20
-101.8914550526521
 10
78.2904839213996
 20
-101.8470133208924
 10
78.29427352643339
 20
-101.8005045318415
 10
78.29427352643339
 20
-101.7918917931284
 10
78.29427352643339
 20
-101.7116210683221
 10
78.29771862191863
 20
-101.3602213288266
 10
78.29771862191863
 20
-101.2882188331849
 10
78.29771862191863
 20
-101.2882188331849
 10
78.29771862191863
 20
-100.8820420754739
 10
78.29771862191863
 20
-100.8820420754739
 10
78.14268932508239
 20
-101.0070990415885
 10
77.97663572269335
 20
-101.116997587568
 10
77.80369192933381
 20
-101.2038139937963
 10
77.80369192933381
 20
-101.2038139937963
 10
77.63040362642573
 20
-101.040860977344
 10
77.63040362642573
 20
-101.040860977344
 10
77.73513452917733
 20
-101.0050319842974
 10
77.95320907339365
 20
-100.9309624313645
 10
78.24742022783398
 20
-100.6749918368104
 10
78.4310438171978
 20
-100.5161729349404
 10
78.59537487184421
 20
-100.3280707214458
 10
78.72525497163814
 20
-100.1079291199383
 10
78.72525497163814
 20
-100.1079291199383
 10
78.88924151673602
 20
-100.2519341112217
 10
78.88924151673602
 20
-100.2519341112217
 10
78.8999213127403
 20
-100.2622693976775
 10
78.90715601325932
 20
-100.2770833082641
 10
78.90715601325932
 20
-100.2898301615595
 10
78.90715601325932
 20
-100.3301377787369
 10
78.87477211569798
 20
-100.3301377787369
 10
78.81896156883693
 20
-100.3342718933192
 97
        0
 97
        0
 75
     2
 76
     1
 98
        0
  0
SPLINE
  5
186
330
179
100
AcDbEntity
  8
_U+30EC_U+30A4_U+30E4_U+30FC 1
370
     0
100
AcDbSpline
210
0.0
220
0.0
230
1.0
 70
    11
 71
     3
 72
    50
 73
    46
 74
     0
 42
0.0000000001
 43
0.0000000001
 12
1.0
 22
0.0
 32
0.0
 13
1.0
 23
0.0
 33
0.0
 40
0.0
 40
0.0
 40
0.0
 40
0.0
 40
1.0
 40
1.0
 40
1.0
 40
2.0
 40
2.0
 40
2.0
 40
3.0
 40
3.0
 40
3.0
 40
4.0
 40
4.0
 40
4.0
 40
5.0
 40
5.0
 40
5.0
 40
6.0
 40
6.0
 40
6.0
 40
7.0
 40
7.0
 40
7.0
 40
8.0
 40
8.0
 40
8.0
 40
9.0
 40
9.0
 40
9.0
 40
10.0
 40
10.0
 40
10.0
 40
11.0
 40
11.0
 40
11.0
 40
12.0
 40
12.0
 40
12.0
 40
13.0
 40
13.0
 40
13.0
 40
14.0
 40
14.0
 40
14.0
 40
15.0
 40
15.0
 40
15.0
 40
15.0
 10
80.27313637316088
 20
-100.8610269930139
 30
0.0
 10
80.22077092178509
 20
-100.9330294886556
 30
0.0
 10
79.998906772535
 20
-101.2503227828471
 30
0.0
 10
79.95033092619298
 20
-101.3137125397758
 30
0.0
 10
80.0223334218347
 20
-101.4112087420083
 30
0.0
 10
80.06574162494884
 20
-101.4745984989369
 30
0.0
 10
80.1215521718099
 20
-101.5655490197475
 30
0.0
 10
80.1215521718099
 20
-101.5655490197475
 30
0.0
 10
79.96480032723103
 20
-101.703008329609
 30
0.0
 10
79.96480032723103
 20
-101.703008329609
 30
0.0
 10
79.84938962847515
 20
-101.4914794668146
 30
0.0
 10
79.70331757990056
 20
-101.2672037507249
 30
0.0
 10
79.45251462857438
 20
-101.068421741226
 30
0.0
 10
79.45251462857438
 20
-101.068421741226
 30
0.0
 10
79.57894963288304
 20
-100.9140814634868
 30
0.0
 10
79.57894963288304
 20
-100.9140814634868
 30
0.0
 10
79.67265623008184
 20
-100.9943521882931
 30
0.0
 10
79.76085067450424
 20
-101.0832356518125
 30
0.0
 10
79.84387747569876
 20
-101.1783202872054
 30
0.0
 10
79.90175507985096
 20
-101.1021836769814
 30
0.0
 10
80.0746988732105
 20
-100.8589599357228
 30
0.0
 10
80.18838702422374
 20
-100.6305501050507
 30
0.0
 10
80.18838702422374
 20
-100.6305501050507
 30
0.0
 10
79.61477862592965
 20
-100.6305501050507
 30
0.0
 10
79.61477862592965
 20
-100.6305501050507
 30
0.0
 10
79.50832517543542
 20
-100.6305501050507
 30
0.0
 10
79.29404023625288
 20
-100.6388183342153
 30
0.0
 10
79.11523978056842
 20
-100.6494981302196
 30
0.0
 10
79.11523978056842
 20
-100.6494981302196
 30
0.0
 10
79.11523978056842
 20
-100.4293565287121
 30
0.0
 10
79.11523978056842
 20
-100.4293565287121
 30
0.0
 10
79.2723361346958
 20
-100.4486490634295
 30
0.0
 10
79.4473469853465
 20
-100.4527831780118
 30
0.0
 10
79.60754392541062
 20
-100.4527831780118
 30
0.0
 10
79.60754392541062
 20
-100.4527831780118
 30
0.0
 10
80.03680282287274
 20
-100.4527831780118
 30
0.0
 10
80.03680282287274
 20
-100.4527831780118
 30
0.0
 10
80.32550182453669
 20
-100.4527831780118
 30
0.0
 10
80.36339787487444
 20
-100.4379692674252
 30
0.0
 10
80.43367782277353
 20
-100.3976616502478
 30
0.0
 10
80.43367782277353
 20
-100.3976616502478
 30
0.0
 10
80.57596026631435
 20
-100.5564805521178
 30
0.0
 10
80.57596026631435
 20
-100.5564805521178
 30
0.0
 10
80.44608016652043
 20
-100.6284830477595
 30
0.0
 10
80.32343476724553
 20
-100.7910915546633
 30
0.0
 10
80.27313637316088
 20
-100.8610269930139
 30
0.0
  0
HATCH
  5
187
330
179
100
AcDbEntity
  8
_U+30EC_U+30A4_U+30E4_U+30FC 1
 62
   179
420
  2234388
100
AcDbHatch
 10
0.0
 20
0.0
 30
0.0
210
0.0
220
0.0
230
1.0
  2
SOLID
 70
     1
 71
     0
 91
        1
 92
        1
 93
        1
 72
     4
 94
        3
 73
     0
 74
     1
 95
       50
 96
       46
 40
0.0
 40
0.0
 40
0.0
 40
0.0
 40
1.0
 40
1.0
 40
1.0
 40
2.0
 40
2.0
 40
2.0
 40
3.0
 40
3.0
 40
3.0
 40
4.0
 40
4.0
 40
4.0
 40
5.0
 40
5.0
 40
5.0
 40
6.0
 40
6.0
 40
6.0
 40
7.0
 40
7.0
 40
7.0
 40
8.0
 40
8.0
 40
8.0
 40
9.0
 40
9.0
 40
9.0
 40
10.0
 40
10.0
 40
10.0
 40
11.0
 40
11.0
 40
11.0
 40
12.0
 40
12.0
 40
12.0
 40
13.0
 40
13.0
 40
13.0
 40
14.0
 40
14.0
 40
14.0
 40
15.0
 40
15.0
 40
15.0
 40
15.0
 10
80.27313637316088
 20
-100.8610269930139
 10
80.22077092178509
 20
-100.9330294886556
 10
79.998906772535
 20
-101.2503227828471
 10
79.95033092619298
 20
-101.3137125397758
 10
80.0223334218347
 20
-101.4112087420083
 10
80.06574162494884
 20
-101.4745984989369
 10
80.1215521718099
 20
-101.5655490197475
 10
80.1215521718099
 20
-101.5655490197475
 10
79.96480032723103
 20
-101.703008329609
 10
79.96480032723103
 20
-101.703008329609
 10
79.84938962847515
 20
-101.4914794668146
 10
79.70331757990056
 20
-101.2672037507249
 10
79.45251462857438
 20
-101.068421741226
 10
79.45251462857438
 20
-101.068421741226
 10
79.57894963288304
 20
-100.9140814634868
 10
79.57894963288304
 20
-100.9140814634868
 10
79.67265623008184
 20
-100.9943521882931
 10
79.76085067450424
 20
-101.0832356518125
 10
79.84387747569876
 20
-101.1783202872054
 10
79.90175507985096
 20
-101.1021836769814
 10
80.0746988732105
 20
-100.8589599357228
 10
80.18838702422374
 20
-100.6305501050507
 10
80.18838702422374
 20
-100.6305501050507
 10
79.61477862592965
 20
-100.6305501050507
 10
79.61477862592965
 20
-100.6305501050507
 10
79.50832517543542
 20
-100.6305501050507
 10
79.29404023625288
 20
-100.6388183342153
 10
79.11523978056842
 20
-100.6494981302196
 10
79.11523978056842
 20
-100.6494981302196
 10
79.11523978056842
 20
-100.4293565287121
 10
79.11523978056842
 20
-100.4293565287121
 10
79.2723361346958
 20
-100.4486490634295
 10
79.4473469853465
 20
-100.4527831780118
 10
79.60754392541062
 20
-100.4527831780118
 10
79.60754392541062
 20
-100.4527831780118
 10
80.03680282287274
 20
-100.4527831780118
 10
80.03680282287274
 20
-100.4527831780118
 10
80.32550182453669
 20
-100.4527831780118
 10
80.36339787487444
 20
-100.4379692674252
 10
80.43367782277353
 20
-100.3976616502478
 10
80.43367782277353
 20
-100.3976616502478
 10
80.57596026631435
 20
-100.5564805521178
 10
80.57596026631435
 20
-100.5564805521178
 10
80.44608016652043
 20
-100.6284830477595
 10
80.32343476724553
 20
-100.7910915546633
 10
80.27313637316088
 20
-100.8610269930139
 97
        0
 97
        0
 75
     2
 76
     1
 98
        0
  0
SPLINE
  5
188
330
179
100
AcDbEntity
  8
_U+30EC_U+30A4_U+30E4_U+30FC 1
370
     0
100
AcDbSpline
210
0.0
220
0.0
230
1.0
 70
    11
 71
     3
 72
    29
 73
    25
 74
     0
 42
0.0000000001
 43
0.0000000001
 12
1.0
 22
0.0
 32
0.0
 13
1.0
 23
0.0
 33
0.0
 40
0.0
 40
0.0
 40
0.0
 40
0.0
 40
1.0
 40
1.0
 40
1.0
 40
2.0
 40
2.0
 40
2.0
 40
3.0
 40
3.0
 40
3.0
 40
4.0
 40
4.0
 40
4.0
 40
5.0
 40
5.0
 40
5.0
 40
6.0
 40
6.0
 40
6.0
 40
7.0
 40
7.0
 40
7.0
 40
8.0
 40
8.0
 40
8.0
 40
8.0
 10
81.6549641722946
 20
-101.1042507342726
 30
0.0
 10
81.6549641722946
 20
-101.1042507342726
 30
0.0
 10
81.24189722361314
 20
-101.1042507342726
 30
0.0
 10
81.24189722361314
 20
-101.1042507342726
 30
0.0
 10
81.21847057431344
 20
-101.1042507342726
 30
0.0
 10
80.94803057872133
 20
-101.1042507342726
 30
0.0
 10
80.76750757529423
 20
-101.1297444408634
 30
0.0
 10
80.76750757529423
 20
-101.1297444408634
 30
0.0
 10
80.76750757529423
 20
-100.8992675529002
 30
0.0
 10
80.76750757529423
 20
-100.8992675529002
 30
0.0
 10
80.90289982786456
 20
-100.9223496926514
 30
0.0
 10
81.06516382521983
 20
-100.9244167499425
 30
0.0
 10
81.24189722361314
 20
-100.9244167499425
 30
0.0
 10
81.24189722361314
 20
-100.9244167499425
 30
0.0
 10
81.6549641722946
 20
-100.9244167499425
 30
0.0
 10
81.6549641722946
 20
-100.9244167499425
 30
0.0
 10
81.81343856461609
 20
-100.9244167499425
 30
0.0
 10
81.97225746648611
 20
-100.9223496926514
 30
0.0
 10
82.12900931106498
 20
-100.8992675529002
 30
0.0
 10
82.12900931106498
 20
-100.8992675529002
 30
0.0
 10
82.12900931106498
 20
-101.1297444408634
 30
0.0
 10
82.12900931106498
 20
-101.1297444408634
 30
0.0
 10
81.97225746648611
 20
-101.1063177915637
 30
0.0
 10
81.76141762278881
 20
-101.1042507342726
 30
0.0
 10
81.6549641722946
 20
-101.1042507342726
 30
0.0
  0
HATCH
  5
189
330
179
100
AcDbEntity
  8
_U+30EC_U+30A4_U+30E4_U+30FC 1
 62
   179
420
  2234388
100
AcDbHatch
 10
0.0
 20
0.0
 30
0.0
210
0.0
220
0.0
230
1.0
  2
SOLID
 70
     1
 71
     0
 91
        1
 92
        1
 93
        1
 72
     4
 94
        3
 73
     0
 74
     1
 95
       29
 96
       25
 40
0.0
 40
0.0
 40
0.0
 40
0.0
 40
1.0
 40
1.0
 40
1.0
 40
2.0
 40
2.0
 40
2.0
 40
3.0
 40
3.0
 40
3.0
 40
4.0
 40
4.0
 40
4.0
 40
5.0
 40
5.0
 40
5.0
 40
6.0
 40
6.0
 40
6.0
 40
7.0
 40
7.0
 40
7.0
 40
8.0
 40
8.0
 40
8.0
 40
8.0
 10
81.6549641722946
 20
-101.1042507342726
 10
81.6549641722946
 20
-101.1042507342726
 10
81.24189722361314
 20
-101.1042507342726
 10
81.24189722361314
 20
-101.1042507342726
 10
81.21847057431344
 20
-101.1042507342726
 10
80.94803057872133
 20
-101.1042507342726
 10
80.76750757529423
 20
-101.1297444408634
 10
80.76750757529423
 20
-101.1297444408634
 10
80.76750757529423
 20
-100.8992675529002
 10
80.76750757529423
 20
-100.8992675529002
 10
80.90289982786456
 20
-100.9223496926514
 10
81.06516382521983
 20
-100.9244167499425
 10
81.24189722361314
 20
-100.9244167499425
 10
81.24189722361314
 20
-100.9244167499425
 10
81.6549641722946
 20
-100.9244167499425
 10
81.6549641722946
 20
-100.9244167499425
 10
81.81343856461609
 20
-100.9244167499425
 10
81.97225746648611
 20
-100.9223496926514
 10
82.12900931106498
 20
-100.8992675529002
 10
82.12900931106498
 20
-100.8992675529002
 10
82.12900931106498
 20
-101.1297444408634
 10
82.12900931106498
 20
-101.1297444408634
 10
81.97225746648611
 20
-101.1063177915637
 10
81.76141762278881
 20
-101.1042507342726
 10
81.6549641722946
 20
-101.1042507342726
 97
        0
 97
        0
 75
     2
 76
     1
 98
        0
  0
ENDBLK
  5
17C
330
179
100
AcDbEntity
  8
0
100
AcDbBlockEnd
  0
ENDSEC
  0
SECTION
  2
ENTITIES
  0
POLYLINE
  5
41
330
1F
100
AcDbEntity
  8
_U+30EC_U+30A4_U+30E4_U+30FC 1
 62
   179
420
  2234388
370
    25
100
AcDb2dPolyline
 66
     1
 10
0.0
 20
0.0
 30
0.0
  0
VERTEX
  5
42
330
41
100
AcDbEntity
  8
_U+30EC_U+30A4_U+30E4_U+30FC 1
 62
   179
420
  2234388
370
    25
100
AcDbVertex
100
AcDb2dVertex
 10
44.23364026039471
 20
-82.34672942385761
 30
0.0
  0
VERTEX
  5
43
330
41
100
AcDbEntity
  8
_U+30EC_U+30A4_U+30E4_U+30FC 1
 62
   179
420
  2234388
370
    25
100
AcDbVertex
100
AcDb2dVertex
 10
57.23406548428179
 20
-82.34672942385761
 30
0.0
  0
SEQEND
  5
44
330
41
100
AcDbEntity
  8
_U+30EC_U+30A4_U+30E4_U+30FC 1
 62
   179
420
  2234388
370
    25
  0
POLYLINE
  5
45
330
1F
100
AcDbEntity
  8
_U+30EC_U+30A4_U+30E4_U+30FC 1
 62
   179
420
  2234388
370
    25
100
AcDb2dPolyline
 66
     1
 10
0.0
 20
0.0
 30
0.0
  0
VERTEX
  5
46
330
45
100
AcDbEntity
  8
_U+30EC_U+30A4_U+30E4_U+30FC 1
 62
   179
420
  2234388
370
    25
100
AcDbVertex
100
AcDb2dVertex
 10
81.23396042754901
 20
-82.34672942385761
 30
0.0
  0
VERTEX
  5
47
330
45
100
AcDbEntity
  8
_U+30EC_U+30A4_U+30E4_U+30FC 1
 62
   179
420
  2234388
370
    25
100
AcDbVertex
100
AcDb2dVertex
 10
81.23396042754901
 20
-83.34720720138536
 30
0.0
  0
SEQEND
  5
48
330
45
100
AcDbEntity
  8
_U+30EC_U+30A4_U+30E4_U+30FC 1
 62
   179
420
  2234388
370
    25
  0
POLYLINE
  5
49
330
1F
100
AcDbEntity
  8
_U+30EC_U+30A4_U+30E4_U+30FC 1
 62
   179
420
  2234388
370
    25
100
AcDb2dPolyline
 66
     1
 10
0.0
 20
0.0
 30
0.0
  0
VERTEX
  5
4A
330
49
100
AcDbEntity
  8
_U+30EC_U+30A4_U+30E4_U+30FC 1
 62
   179
420
  2234388
370
    25
100
AcDbVertex
100
AcDb2dVertex
 10
59.2336098777136
 20
-83.34720720138536
 30
0.0
  0
VERTEX
  5
4B
330
49
100
AcDbEntity
  8
_U+30EC_U+30A4_U+30E4_U+30FC 1
 62
   179
420
  2234388
370
    25
100
AcDbVertex
100
AcDb2dVertex
 10
81.23396042754901
 20
-83.34720720138536
 30
0.0
  0
SEQEND
  5
4C
330
49
100
AcDbEntity
  8
_U+30EC_U+30A4_U+30E4_U+30FC 1
 62
   179
420
  2234388
370
    25
  0
POLYLINE
  5
4D
330
1F
100
AcDbEntity
  8
_U+30EC_U+30A4_U+30E4_U+30FC 1
 62
   179
420
  2234388
370
    25
100
AcDb2dPolyline
 66
     1
 10
0.0
 20
0.0
 30
0.0
  0
VERTEX
  5
4E
330
4D
100
AcDbEntity
  8
_U+30EC_U+30A4_U+30E4_U+30FC 1
 62
   179
420
  2234388
370
    25
100
AcDbVertex
100
AcDb2dVertex
 10
44.23364026039471
 20
-82.34672942385761
 30
0.0
  0
VERTEX
  5
4F
330
4D
100
AcDbEntity
  8
_U+30EC_U+30A4_U+30E4_U+30FC 1
 62
   179
420
  2234388
370
    25
100
AcDbVertex
100
AcDb2dVertex
 10
44.23364026039471
 20
-83.84674053459386
 30
0.0
  0
SEQEND
  5
50
330
4D
100
AcDbEntity
  8
_U+30EC_U+30A4_U+30E4_U+30FC 1
 62
   179
420
  2234388
370
    25
  0
POLYLINE
  5
51
330
1F
100
AcDbEntity
  8
_U+30EC_U+30A4_U+30E4_U+30FC 1
 62
   179
420
  2234388
370
    25
100
AcDb2dPolyline
 66
     1
 10
0.0
 20
0.0
 30
0.0
  0
VERTEX
  5
52
330
51
100
AcDbEntity
  8
_U+30EC_U+30A4_U+30E4_U+30FC 1
 62
   179
420
  2234388
370
    25
100
AcDbVertex
100
AcDb2dVertex
 10
56.23358773202833
 20
-83.84674053459386
 30
0.0
  0
VERTEX
  5
53
330
51
100
AcDbEntity
  8
_U+30EC_U+30A4_U+30E4_U+30FC 1
 62
   179
420
  2234388
370
    25
100
AcDbVertex
100
AcDb2dVertex
 10
56.23358773202833
 20
-97.34669942010781
 30
0.0
  0
SEQEND
  5
54
330
51
100
AcDbEntity
  8
_U+30EC_U+30A4_U+30E4_U+30FC 1
 62
   179
420
  2234388
370
    25
  0
POLYLINE
  5
55
330
1F
100
AcDbEntity
  8
_U+30EC_U+30A4_U+30E4_U+30FC 1
 62
   179
420
  2234388
370
    25
100
AcDb2dPolyline
 66
     1
 10
0.0
 20
0.0
 30
0.0
  0
VERTEX
  5
56
330
55
100
AcDbEntity
  8
_U+30EC_U+30A4_U+30E4_U+30FC 1
 62
   179
420
  2234388
370
    25
100
AcDbVertex
100
AcDb2dVertex
 10
66.23402776121928
 20
-96.34692719813528
 30
0.0
  0
VERTEX
  5
57
330
55
100
AcDbEntity
  8
_U+30EC_U+30A4_U+30E4_U+30FC 1
 62
   179
420
  2234388
370
    25
100
AcDbVertex
100
AcDb2dVertex
 10
66.23402776121928
 20
-96.64664719806083
 30
0.0
  0
SEQEND
  5
58
330
55
100
AcDbEntity
  8
_U+30EC_U+30A4_U+30E4_U+30FC 1
 62
   179
420
  2234388
370
    25
  0
POLYLINE
  5
59
330
1F
100
AcDbEntity
  8
_U+30EC_U+30A4_U+30E4_U+30FC 1
 62
   179
420
  2234388
370
    25
100
AcDb2dPolyline
 66
     1
 10
0.0
 20
0.0
 30
0.0
  0
VERTEX
  5
5A
330
59
100
AcDbEntity
  8
_U+30EC_U+30A4_U+30E4_U+30FC 1
 62
   179
420
  2234388
370
    25
100
AcDbVertex
100
AcDb2dVertex
 10
59.2336098777136
 20
-96.34692719813528
 30
0.0
  0
VERTEX
  5
5B
330
59
100
AcDbEntity
  8
_U+30EC_U+30A4_U+30E4_U+30FC 1
 62
   179
420
  2234388
370
    25
100
AcDbVertex
100
AcDb2dVertex
 10
66.23402776121928
 20
-96.34692719813528
 30
0.0
  0
SEQEND
  5
5C
330
59
100
AcDbEntity
  8
_U+30EC_U+30A4_U+30E4_U+30FC 1
 62
   179
420
  2234388
370
    25
  0
POLYLINE
  5
5D
330
1F
100
AcDbEntity
  8
_U+30EC_U+30A4_U+30E4_U+30FC 1
 62
   179
420
  2234388
370
    25
100
AcDb2dPolyline
 66
     1
 10
0.0
 20
0.0
 30
0.0
  0
VERTEX
  5
5E
330
5D
100
AcDbEntity
  8
_U+30EC_U+30A4_U+30E4_U+30FC 1
 62
   179
420
  2234388
370
    25
100
AcDbVertex
100
AcDb2dVertex
 10
58.23383768099769
 20
-82.34672942385761
 30
0.0
  0
VERTEX
  5
5F
330
5D
100
AcDbEntity
  8
_U+30EC_U+30A4_U+30E4_U+30FC 1
 62
   179
420
  2234388
370
    25
100
AcDbVertex
100
AcDb2dVertex
 10
81.23396042754901
 20
-82.34672942385761
 30
0.0
  0
SEQEND
  5
60
330
5D
100
AcDbEntity
  8
_U+30EC_U+30A4_U+30E4_U+30FC 1
 62
   179
420
  2234388
370
    25
  0
POLYLINE
  5
61
330
1F
100
AcDbEntity
  8
_U+30EC_U+30A4_U+30E4_U+30FC 1
 62
   179
420
  2234388
370
    25
100
AcDb2dPolyline
 66
     1
 10
0.0
 20
0.0
 30
0.0
  0
VERTEX
  5
62
330
61
100
AcDbEntity
  8
_U+30EC_U+30A4_U+30E4_U+30FC 1
 62
   179
420
  2234388
370
    25
100
AcDbVertex
100
AcDb2dVertex
 10
44.23364026039471
 20
-83.84674053459386
 30
0.0
  0
VERTEX
  5
63
330
61
100
AcDbEntity
  8
_U+30EC_U+30A4_U+30E4_U+30FC 1
 62
   179
420
  2234388
370
    25
100
AcDbVertex
100
AcDb2dVertex
 10
56.23358773202833
 20
-83.84674053459386
 30
0.0
  0
SEQEND
  5
64
330
61
100
AcDbEntity
  8
_U+30EC_U+30A4_U+30E4_U+30FC 1
 62
   179
420
  2234388
370
    25
  0
POLYLINE
  5
65
330
1F
100
AcDbEntity
  8
_U+30EC_U+30A4_U+30E4_U+30FC 1
 62
   179
420
  2234388
370
    25
100
AcDb2dPolyline
 66
     1
 10
0.0
 20
0.0
 30
0.0
  0
VERTEX
  5
66
330
65
100
AcDbEntity
  8
_U+30EC_U+30A4_U+30E4_U+30FC 1
 62
   179
420
  2234388
370
    25
100
AcDbVertex
100
AcDb2dVertex
 10
57.23406548428179
 20
-82.34672942385761
 30
0.0
  0
VERTEX
  5
67
330
65
100
AcDbEntity
  8
_U+30EC_U+30A4_U+30E4_U+30FC 1
 62
   179
420
  2234388
370
    25
100
AcDbVertex
100
AcDb2dVertex
 10
57.23406548428179
 20
-96.34692719813528
 30
0.0
  0
SEQEND
  5
68
330
65
100
AcDbEntity
  8
_U+30EC_U+30A4_U+30E4_U+30FC 1
 62
   179
420
  2234388
370
    25
  0
POLYLINE
  5
69
330
1F
100
AcDbEntity
  8
_U+30EC_U+30A4_U+30E4_U+30FC 1
 62
   179
420
  2234388
370
    25
100
AcDb2dPolyline
 66
     1
 10
0.0
 20
0.0
 30
0.0
  0
VERTEX
  5
6A
330
69
100
AcDbEntity
  8
_U+30EC_U+30A4_U+30E4_U+30FC 1
 62
   179
420
  2234388
370
    25
100
AcDbVertex
100
AcDb2dVertex
 10
58.23383768099769
 20
-82.34672942385761
 30
0.0
  0
VERTEX
  5
6B
330
69
100
AcDbEntity
  8
_U+30EC_U+30A4_U+30E4_U+30FC 1
 62
   179
420
  2234388
370
    25
100
AcDbVertex
100
AcDb2dVertex
 10
58.23383768099769
 20
-96.34692719813528
 30
0.0
  0
SEQEND
  5
6C
330
69
100
AcDbEntity
  8
_U+30EC_U+30A4_U+30E4_U+30FC 1
 62
   179
420
  2234388
370
    25
  0
POLYLINE
  5
6D
330
1F
100
AcDbEntity
  8
_U+30EC_U+30A4_U+30E4_U+30FC 1
 62
   179
420
  2234388
370
    25
100
AcDb2dPolyline
 66
     1
 10
0.0
 20
0.0
 30
0.0
  0
VERTEX
  5
6E
330
6D
100
AcDbEntity
  8
_U+30EC_U+30A4_U+30E4_U+30FC 1
 62
   179
420
  2234388
370
    25
100
AcDbVertex
100
AcDb2dVertex
 10
59.2336098777136
 20
-83.34720720138536
 30
0.0
  0
VERTEX
  5
6F
330
6D
100
AcDbEntity
  8
_U+30EC_U+30A4_U+30E4_U+30FC 1
 62
   179
420
  2234388
370
    25
100
AcDbVertex
100
AcDb2dVertex
 10
59.2336098777136
 20
-96.34692719813528
 30
0.0
  0
SEQEND
  5
70
330
6D
100
AcDbEntity
  8
_U+30EC_U+30A4_U+30E4_U+30FC 1
 62
   179
420
  2234388
370
    25
  0
POLYLINE
  5
71
330
1F
100
AcDbEntity
  8
_U+30EC_U+30A4_U+30E4_U+30FC 1
 62
   179
420
  2234388
370
    25
100
AcDb2dPolyline
 66
     1
 10
0.0
 20
0.0
 30
0.0
  0
VERTEX
  5
72
330
71
100
AcDbEntity
  8
_U+30EC_U+30A4_U+30E4_U+30FC 1
 62
   179
420
  2234388
370
    25
100
AcDbVertex
100
AcDb2dVertex
 10
57.23406548428179
 20
-96.34692719813528
 30
0.0
  0
VERTEX
  5
73
330
71
100
AcDbEntity
  8
_U+30EC_U+30A4_U+30E4_U+30FC 1
 62
   179
420
  2234388
370
    25
100
AcDbVertex
100
AcDb2dVertex
 10
58.23383768099769
 20
-96.34692719813528
 30
0.0
  0
SEQEND
  5
74
330
71
100
AcDbEntity
  8
_U+30EC_U+30A4_U+30E4_U+30FC 1
 62
   179
420
  2234388
370
    25
  0
POLYLINE
  5
75
330
1F
100
AcDbEntity
  8
_U+30EC_U+30A4_U+30E4_U+30FC 1
 62
   179
420
  2234388
370
    25
100
AcDb2dPolyline
 66
     1
 10
0.0
 20
0.0
 30
0.0
  0
VERTEX
  5
76
330
75
100
AcDbEntity
  8
_U+30EC_U+30A4_U+30E4_U+30FC 1
 62
   179
420
  2234388
370
    25
100
AcDbVertex
100
AcDb2dVertex
 10
56.23358773202833
 20
-97.34669942010781
 30
0.0
  0
VERTEX
  5
77
330
75
100
AcDbEntity
  8
_U+30EC_U+30A4_U+30E4_U+30FC 1
 62
   179
420
  2234388
370
    25
100
AcDbVertex
100
AcDb2dVertex
 10
66.23402776121928
 20
-96.64664719806083
 30
0.0
  0
SEQEND
  5
78
330
75
100
AcDbEntity
  8
_U+30EC_U+30A4_U+30E4_U+30FC 1
 62
   179
420
  2234388
370
    25
  0
POLYLINE
  5
79
330
1F
100
AcDbEntity
  8
_U+30EC_U+30A4_U+30E4_U+30FC 1
  6
AI-Linetype-1
 62
   154
420
    23468
370
    25
100
AcDb2dPolyline
 66
     1
 10
0.0
 20
0.0
 30
0.0
  0
VERTEX
  5
7A
330
79
100
AcDbEntity
  8
_U+30EC_U+30A4_U+30E4_U+30FC 1
  6
AI-Linetype-1
 62
   154
420
    23468
370
    25
100
AcDbVertex
100
AcDb2dVertex
 10
55.73405441143915
 20
-97.88341553108461
 30
0.0
  0
VERTEX
  5
7B
330
79
100
AcDbEntity
  8
_U+30EC_U+30A4_U+30E4_U+30FC 1
  6
AI-Linetype-1
 62
   154
420
    23468
370
    25
100
AcDbVertex
100
AcDb2dVertex
 10
66.26849247601658
 20
-97.1454749757135
 30
0.0
  0
SEQEND
  5
7D
330
79
100
AcDbEntity
  8
_U+30EC_U+30A4_U+30E4_U+30FC 1
  6
AI-Linetype-1
 62
   154
420
    23468
370
    25
  0
POLYLINE
  5
7E
330
1F
100
AcDbEntity
  8
_U+30EC_U+30A4_U+30E4_U+30FC 1
  6
AI-Linetype-2
 62
   154
420
    23468
370
    25
100
AcDb2dPolyline
 66
     1
 10
0.0
 20
0.0
 30
0.0
  0
VERTEX
  5
7F
330
7E
100
AcDbEntity
  8
_U+30EC_U+30A4_U+30E4_U+30FC 1
  6
AI-Linetype-2
 62
   154
420
    23468
370
    25
100
AcDbVertex
100
AcDb2dVertex
 10
55.73405441143915
 20
-84.34697942335758
 30
0.0
  0
VERTEX
  5
80
330
7E
100
AcDbEntity
  8
_U+30EC_U+30A4_U+30E4_U+30FC 1
  6
AI-Linetype-2
 62
   154
420
    23468
370
    25
100
AcDbVertex
100
AcDb2dVertex
 10
55.73405441143915
 20
-97.88341553108461
 30
0.0
  0
SEQEND
  5
82
330
7E
100
AcDbEntity
  8
_U+30EC_U+30A4_U+30E4_U+30FC 1
  6
AI-Linetype-2
 62
   154
420
    23468
370
    25
  0
POLYLINE
  5
83
330
1F
100
AcDbEntity
  8
_U+30EC_U+30A4_U+30E4_U+30FC 1
  6
AI-Linetype-3
 62
   154
420
    23468
370
    25
100
AcDb2dPolyline
 66
     1
 10
0.0
 20
0.0
 30
0.0
  0
VERTEX
  5
84
330
83
100
AcDbEntity
  8
_U+30EC_U+30A4_U+30E4_U+30FC 1
  6
AI-Linetype-3
 62
   154
420
    23468
370
    25
100
AcDbVertex
100
AcDb2dVertex
 10
44.23364026039471
 20
-84.34697942335758
 30
0.0
  0
VERTEX
  5
85
330
83
100
AcDbEntity
  8
_U+30EC_U+30A4_U+30E4_U+30FC 1
  6
AI-Linetype-3
 62
   154
420
    23468
370
    25
100
AcDbVertex
100
AcDb2dVertex
 10
55.73405441143915
 20
-84.34697942335758
 30
0.0
  0
SEQEND
  5
87
330
83
100
AcDbEntity
  8
_U+30EC_U+30A4_U+30E4_U+30FC 1
  6
AI-Linetype-3
 62
   154
420
    23468
370
    25
  0
POLYLINE
  5
88
330
1F
100
AcDbEntity
  8
_U+30EC_U+30A4_U+30E4_U+30FC 1
 62
   179
420
  2234388
370
     9
100
AcDb2dPolyline
 66
     1
 10
0.0
 20
0.0
 30
0.0
  0
VERTEX
  5
89
330
88
100
AcDbEntity
  8
_U+30EC_U+30A4_U+30E4_U+30FC 1
 62
   179
420
  2234388
370
     9
100
AcDbVertex
100
AcDb2dVertex
 10
64.21243308402657
 20
-97.68914080891103
 30
0.0
  0
VERTEX
  5
8A
330
88
100
AcDbEntity
  8
_U+30EC_U+30A4_U+30E4_U+30FC 1
 62
   179
420
  2234388
370
     9
100
AcDbVertex
100
AcDb2dVertex
 10
72.12446232661834
 20
-102.2573308077693
 30
0.0
  0
SEQEND
  5
8B
330
88
100
AcDbEntity
  8
_U+30EC_U+30A4_U+30E4_U+30FC 1
 62
   179
420
  2234388
370
     9
  0
POLYLINE
  5
8C
330
1F
100
AcDbEntity
  8
_U+30EC_U+30A4_U+30E4_U+30FC 1
 62
   179
420
  2234388
370
     9
100
AcDb2dPolyline
 66
     1
 10
0.0
 20
0.0
 30
0.0
  0
VERTEX
  5
8D
330
8C
100
AcDbEntity
  8
_U+30EC_U+30A4_U+30E4_U+30FC 1
 62
   179
420
  2234388
370
     9
100
AcDbVertex
100
AcDb2dVertex
 10
64.21243308402657
 20
-97.68914080891103
 30
0.0
  0
VERTEX
  5
8E
330
8C
100
AcDbEntity
  8
_U+30EC_U+30A4_U+30E4_U+30FC 1
 62
   179
420
  2234388
370
     9
100
AcDbVertex
100
AcDb2dVertex
 10
65.17844444827045
 20
-97.94818553106853
 30
0.0
  0
SEQEND
  5
8F
330
8C
100
AcDbEntity
  8
_U+30EC_U+30A4_U+30E4_U+30FC 1
 62
   179
420
  2234388
370
     9
  0
POLYLINE
  5
90
330
1F
100
AcDbEntity
  8
_U+30EC_U+30A4_U+30E4_U+30FC 1
 62
   179
420
  2234388
370
     9
100
AcDb2dPolyline
 66
     1
 10
0.0
 20
0.0
 30
0.0
  0
VERTEX
  5
91
330
90
100
AcDbEntity
  8
_U+30EC_U+30A4_U+30E4_U+30FC 1
 62
   179
420
  2234388
370
     9
100
AcDbVertex
100
AcDb2dVertex
 10
64.21243308402657
 20
-97.68914080891103
 30
0.0
  0
VERTEX
  5
92
330
90
100
AcDbEntity
  8
_U+30EC_U+30A4_U+30E4_U+30FC 1
 62
   179
420
  2234388
370
     9
100
AcDbVertex
100
AcDb2dVertex
 10
64.91936445488014
 20
-98.39607219762308
 30
0.0
  0
SEQEND
  5
93
330
90
100
AcDbEntity
  8
_U+30EC_U+30A4_U+30E4_U+30FC 1
 62
   179
420
  2234388
370
     9
  0
POLYLINE
  5
94
330
1F
100
AcDbEntity
  8
_U+30EC_U+30A4_U+30E4_U+30FC 1
 62
   179
420
  2234388
370
     9
100
AcDb2dPolyline
 66
     1
 10
0.0
 20
0.0
 30
0.0
  0
VERTEX
  5
95
330
94
100
AcDbEntity
  8
_U+30EC_U+30A4_U+30E4_U+30FC 1
 62
   179
420
  2234388
370
     9
100
AcDbVertex
100
AcDb2dVertex
 10
72.12446232661834
 20
-102.2573308077693
 30
0.0
  0
VERTEX
  5
96
330
94
100
AcDbEntity
  8
_U+30EC_U+30A4_U+30E4_U+30FC 1
 62
   179
420
  2234388
370
     9
100
AcDbVertex
100
AcDb2dVertex
 10
85.02565116414826
 20
-102.2573308077693
 30
0.0
  0
SEQEND
  5
97
330
94
100
AcDbEntity
  8
_U+30EC_U+30A4_U+30E4_U+30FC 1
 62
   179
420
  2234388
370
     9
  0
SPLINE
  5
98
330
1F
100
AcDbEntity
  8
_U+30EC_U+30A4_U+30E4_U+30FC 1
 62
   179
420
  2234388
370
     9
100
AcDbSpline
210
0.0
220
0.0
230
1.0
 70
    11
 71
     3
 72
    17
 73
    13
 74
     0
 42
0.0000000001
 43
0.0000000001
 12
1.0
 22
0.0
 32
0.0
 13
1.0
 23
0.0
 33
0.0
 40
0.0
 40
0.0
 40
0.0
 40
0.0
 40
1.0
 40
1.0
 40
1.0
 40
2.0
 40
2.0
 40
2.0
 40
3.0
 40
3.0
 40
3.0
 40
4.0
 40
4.0
 40
4.0
 40
4.0
 10
81.33386709166685
 20
-78.34697025819105
 30
0.0
 10
81.33386709166685
 20
-78.29186636931581
 30
0.0
 10
81.28909959280897
 20
-78.24706359154942
 30
0.0
 10
81.23396042754901
 20
-78.24706359154942
 30
0.0
 10
81.17885654006594
 20
-78.24706359154942
 30
0.0
 10
81.13405376343118
 20
-78.29186636931581
 30
0.0
 10
81.13405376343118
 20
-78.34697025819105
 30
0.0
 10
81.13405376343118
 20
-78.40210942484381
 30
0.0
 10
81.17885654006594
 20
-78.4468769248327
 30
0.0
 10
81.23396042754901
 20
-78.4468769248327
 30
0.0
 10
81.28909959280897
 20
-78.4468769248327
 30
0.0
 10
81.33386709166685
 20
-78.40210942484381
 30
0.0
 10
81.33386709166685
 20
-78.34697025819105
 30
0.0
  0
SPLINE
  5
99
330
1F
100
AcDbEntity
  8
_U+30EC_U+30A4_U+30E4_U+30FC 1
 62
   179
420
  2234388
370
     9
100
AcDbSpline
210
0.0
220
0.0
230
1.0
 70
    11
 71
     3
 72
    17
 73
    13
 74
     0
 42
0.0000000001
 43
0.0000000001
 12
1.0
 22
0.0
 32
0.0
 13
1.0
 23
0.0
 33
0.0
 40
0.0
 40
0.0
 40
0.0
 40
0.0
 40
1.0
 40
1.0
 40
1.0
 40
2.0
 40
2.0
 40
2.0
 40
3.0
 40
3.0
 40
3.0
 40
4.0
 40
4.0
 40
4.0
 40
4.0
 10
85.33362615629116
 20
-82.34672942385761
 30
0.0
 10
85.33362615629116
 20
-82.2916255349827
 30
0.0
 10
85.28885865743327
 20
-82.24682275721598
 30
0.0
 10
85.23371949217332
 20
-82.24682275721598
 30
0.0
 10
85.17861560469025
 20
-82.24682275721598
 30
0.0
 10
85.13381282805548
 20
-82.2916255349827
 30
0.0
 10
85.13381282805548
 20
-82.34672942385761
 30
0.0
 10
85.13381282805548
 20
-82.40253886828837
 30
0.0
 10
85.17861560469025
 20
-82.44734164605478
 30
0.0
 10
85.23371949217332
 20
-82.44734164605478
 30
0.0
 10
85.28885865743327
 20
-82.44734164605478
 30
0.0
 10
85.33362615629116
 20
-82.40253886828837
 30
0.0
 10
85.33362615629116
 20
-82.34672942385761
 30
0.0
  0
SPLINE
  5
9A
330
1F
100
AcDbEntity
  8
_U+30EC_U+30A4_U+30E4_U+30FC 1
 62
   179
420
  2234388
370
     9
100
AcDbSpline
210
0.0
220
0.0
230
1.0
 70
    11
 71
     3
 72
    17
 73
    13
 74
     0
 42
0.0000000001
 43
0.0000000001
 12
1.0
 22
0.0
 32
0.0
 13
1.0
 23
0.0
 33
0.0
 40
0.0
 40
0.0
 40
0.0
 40
0.0
 40
1.0
 40
1.0
 40
1.0
 40
2.0
 40
2.0
 40
2.0
 40
3.0
 40
3.0
 40
3.0
 40
4.0
 40
4.0
 40
4.0
 40
4.0
 10
85.33362615629116
 20
-83.34720720138536
 30
0.0
 10
85.33362615629116
 20
-83.29206803473261
 30
0.0
 10
85.28885865743327
 20
-83.24730053474372
 30
0.0
 10
85.23371949217332
 20
-83.24730053474372
 30
0.0
 10
85.17861560469025
 20
-83.24730053474372
 30
0.0
 10
85.13381282805548
 20
-83.29206803473261
 30
0.0
 10
85.13381282805548
 20
-83.34720720138536
 30
0.0
 10
85.13381282805548
 20
-83.4023110902606
 30
0.0
 10
85.17861560469025
 20
-83.447113868027
 30
0.0
 10
85.23371949217332
 20
-83.447113868027
 30
0.0
 10
85.28885865743327
 20
-83.447113868027
 30
0.0
 10
85.33362615629116
 20
-83.4023110902606
 30
0.0
 10
85.33362615629116
 20
-83.34720720138536
 30
0.0
  0
SPLINE
  5
9B
330
1F
100
AcDbEntity
  8
_U+30EC_U+30A4_U+30E4_U+30FC 1
 62
   179
420
  2234388
370
     9
100
AcDbSpline
210
0.0
220
0.0
230
1.0
 70
    11
 71
     3
 72
    17
 73
    13
 74
     0
 42
0.0000000001
 43
0.0000000001
 12
1.0
 22
0.0
 32
0.0
 13
1.0
 23
0.0
 33
0.0
 40
0.0
 40
0.0
 40
0.0
 40
0.0
 40
1.0
 40
1.0
 40
1.0
 40
2.0
 40
2.0
 40
2.0
 40
3.0
 40
3.0
 40
3.0
 40
4.0
 40
4.0
 40
4.0
 40
4.0
 10
40.33378887880556
 20
-82.34672942385761
 30
0.0
 10
40.33378887880556
 20
-82.2916255349827
 30
0.0
 10
40.28902036103035
 20
-82.24682275721598
 30
0.0
 10
40.2338811957704
 20
-82.24682275721598
 30
0.0
 10
40.17877730828733
 20
-82.24682275721598
 30
0.0
 10
40.13397453165256
 20
-82.2916255349827
 30
0.0
 10
40.13397453165256
 20
-82.34672942385761
 30
0.0
 10
40.13397453165256
 20
-82.40253886828837
 30
0.0
 10
40.17877730828733
 20
-82.44734164605478
 30
0.0
 10
40.2338811957704
 20
-82.44734164605478
 30
0.0
 10
40.28902036103035
 20
-82.44734164605478
 30
0.0
 10
40.33378887880556
 20
-82.40253886828837
 30
0.0
 10
40.33378887880556
 20
-82.34672942385761
 30
0.0
  0
SPLINE
  5
9C
330
1F
100
AcDbEntity
  8
_U+30EC_U+30A4_U+30E4_U+30FC 1
 62
   179
420
  2234388
370
     9
100
AcDbSpline
210
0.0
220
0.0
230
1.0
 70
    11
 71
     3
 72
    17
 73
    13
 74
     0
 42
0.0000000001
 43
0.0000000001
 12
1.0
 22
0.0
 32
0.0
 13
1.0
 23
0.0
 33
0.0
 40
0.0
 40
0.0
 40
0.0
 40
0.0
 40
1.0
 40
1.0
 40
1.0
 40
2.0
 40
2.0
 40
2.0
 40
3.0
 40
3.0
 40
3.0
 40
4.0
 40
4.0
 40
4.0
 40
4.0
 10
40.33378887880556
 20
-83.84674053459386
 30
0.0
 10
40.33378887880556
 20
-83.79160136794111
 30
0.0
 10
40.28902036103035
 20
-83.74683386795223
 30
0.0
 10
40.2338811957704
 20
-83.74683386795223
 30
0.0
 10
40.17877730828733
 20
-83.74683386795223
 30
0.0
 10
40.13397453165256
 20
-83.79160136794111
 30
0.0
 10
40.13397453165256
 20
-83.84674053459386
 30
0.0
 10
40.13397453165256
 20
-83.9025499790243
 30
0.0
 10
40.17877730828733
 20
-83.9473174790132
 30
0.0
 10
40.2338811957704
 20
-83.9473174790132
 30
0.0
 10
40.28902036103035
 20
-83.9473174790132
 30
0.0
 10
40.33378887880556
 20
-83.9025499790243
 30
0.0
 10
40.33378887880556
 20
-83.84674053459386
 30
0.0
  0
SPLINE
  5
9D
330
1F
100
AcDbEntity
  8
_U+30EC_U+30A4_U+30E4_U+30FC 1
 62
   179
420
  2234388
370
     9
100
AcDbSpline
210
0.0
220
0.0
230
1.0
 70
    11
 71
     3
 72
    17
 73
    13
 74
     0
 42
0.0000000001
 43
0.0000000001
 12
1.0
 22
0.0
 32
0.0
 13
1.0
 23
0.0
 33
0.0
 40
0.0
 40
0.0
 40
0.0
 40
0.0
 40
1.0
 40
1.0
 40
1.0
 40
2.0
 40
2.0
 40
2.0
 40
3.0
 40
3.0
 40
3.0
 40
4.0
 40
4.0
 40
4.0
 40
4.0
 10
44.33354692451255
 20
-78.34697025819105
 30
0.0
 10
44.33354692451255
 20
-78.29186636931581
 30
0.0
 10
44.28878054448325
 20
-78.24706359154942
 30
0.0
 10
44.23364026039471
 20
-78.24706359154942
 30
0.0
 10
44.17853637291164
 20
-78.24706359154942
 30
0.0
 10
44.13373359627688
 20
-78.29186636931581
 30
0.0
 10
44.13373359627688
 20
-78.34697025819105
 30
0.0
 10
44.13373359627688
 20
-78.40210942484381
 30
0.0
 10
44.17853637291164
 20
-78.4468769248327
 30
0.0
 10
44.23364026039471
 20
-78.4468769248327
 30
0.0
 10
44.28878054448325
 20
-78.4468769248327
 30
0.0
 10
44.33354692451255
 20
-78.40210942484381
 30
0.0
 10
44.33354692451255
 20
-78.34697025819105
 30
0.0
  0
SPLINE
  5
9E
330
1F
100
AcDbEntity
  8
_U+30EC_U+30A4_U+30E4_U+30FC 1
 62
   179
420
  2234388
370
     9
100
AcDbSpline
210
0.0
220
0.0
230
1.0
 70
    11
 71
     3
 72
    17
 73
    13
 74
     0
 42
0.0000000001
 43
0.0000000001
 12
1.0
 22
0.0
 32
0.0
 13
1.0
 23
0.0
 33
0.0
 40
0.0
 40
0.0
 40
0.0
 40
0.0
 40
1.0
 40
1.0
 40
1.0
 40
2.0
 40
2.0
 40
2.0
 40
3.0
 40
3.0
 40
3.0
 40
4.0
 40
4.0
 40
4.0
 40
4.0
 10
66.33393275212484
 20
-101.3471288635521
 30
0.0
 10
66.33393275212484
 20
-101.2920249746771
 30
0.0
 10
66.28916525326694
 20
-101.2472221969104
 30
0.0
 10
66.23402776121928
 20
-101.2472221969104
 30
0.0
 10
66.17892220052393
 20
-101.2472221969104
 30
0.0
 10
66.13411942388916
 20
-101.2920249746771
 30
0.0
 10
66.13411942388916
 20
-101.3471288635521
 30
0.0
 10
66.13411942388916
 20
-101.4022680302051
 30
0.0
 10
66.17892220052393
 20
-101.4470355301937
 30
0.0
 10
66.23402776121928
 20
-101.4470355301937
 30
0.0
 10
66.28916525326694
 20
-101.4470355301937
 30
0.0
 10
66.33393275212484
 20
-101.4022680302051
 30
0.0
 10
66.33393275212484
 20
-101.3471288635521
 30
0.0
  0
SPLINE
  5
9F
330
1F
100
AcDbEntity
  8
_U+30EC_U+30A4_U+30E4_U+30FC 1
 62
   179
420
  2234388
370
     9
100
AcDbSpline
210
0.0
220
0.0
230
1.0
 70
    11
 71
     3
 72
    17
 73
    13
 74
     0
 42
0.0000000001
 43
0.0000000001
 12
1.0
 22
0.0
 32
0.0
 13
1.0
 23
0.0
 33
0.0
 40
0.0
 40
0.0
 40
0.0
 40
0.0
 40
1.0
 40
1.0
 40
1.0
 40
2.0
 40
2.0
 40
2.0
 40
3.0
 40
3.0
 40
3.0
 40
4.0
 40
4.0
 40
4.0
 40
4.0
 10
56.33349439614616
 20
-101.3471288635521
 30
0.0
 10
56.33349439614616
 20
-101.2920249746771
 30
0.0
 10
56.28872689728827
 20
-101.2472221969104
 30
0.0
 10
56.23358773202833
 20
-101.2472221969104
 30
0.0
 10
56.17848384454525
 20
-101.2472221969104
 30
0.0
 10
56.13368106791049
 20
-101.2920249746771
 30
0.0
 10
56.13368106791049
 20
-101.3471288635521
 30
0.0
 10
56.13368106791049
 20
-101.4022680302051
 30
0.0
 10
56.17848384454525
 20
-101.4470355301937
 30
0.0
 10
56.23358773202833
 20
-101.4470355301937
 30
0.0
 10
56.28872689728827
 20
-101.4470355301937
 30
0.0
 10
56.33349439614616
 20
-101.4022680302051
 30
0.0
 10
56.33349439614616
 20
-101.3471288635521
 30
0.0
  0
SPLINE
  5
A0
330
1F
100
AcDbEntity
  8
_U+30EC_U+30A4_U+30E4_U+30FC 1
 62
   179
420
  2234388
370
     9
100
AcDbSpline
210
0.0
220
0.0
230
1.0
 70
    11
 71
     3
 72
    17
 73
    13
 74
     0
 42
0.0000000001
 43
0.0000000001
 12
1.0
 22
0.0
 32
0.0
 13
1.0
 23
0.0
 33
0.0
 40
0.0
 40
0.0
 40
0.0
 40
0.0
 40
1.0
 40
1.0
 40
1.0
 40
2.0
 40
2.0
 40
2.0
 40
3.0
 40
3.0
 40
3.0
 40
4.0
 40
4.0
 40
4.0
 40
4.0
 10
44.33354692451255
 20
-101.3471288635521
 30
0.0
 10
44.33354692451255
 20
-101.2920249746771
 30
0.0
 10
44.28878054448325
 20
-101.2472221969104
 30
0.0
 10
44.23364026039471
 20
-101.2472221969104
 30
0.0
 10
44.17853637291164
 20
-101.2472221969104
 30
0.0
 10
44.13373359627688
 20
-101.2920249746771
 30
0.0
 10
44.13373359627688
 20
-101.3471288635521
 30
0.0
 10
44.13373359627688
 20
-101.4022680302051
 30
0.0
 10
44.17853637291164
 20
-101.4470355301937
 30
0.0
 10
44.23364026039471
 20
-101.4470355301937
 30
0.0
 10
44.28878054448325
 20
-101.4470355301937
 30
0.0
 10
44.33354692451255
 20
-101.4022680302051
 30
0.0
 10
44.33354692451255
 20
-101.3471288635521
 30
0.0
  0
SPLINE
  5
A1
330
1F
100
AcDbEntity
  8
_U+30EC_U+30A4_U+30E4_U+30FC 1
 62
   179
420
  2234388
370
     9
100
AcDbSpline
210
0.0
220
0.0
230
1.0
 70
    11
 71
     3
 72
    17
 73
    13
 74
     0
 42
0.0000000001
 43
0.0000000001
 12
1.0
 22
0.0
 32
0.0
 13
1.0
 23
0.0
 33
0.0
 40
0.0
 40
0.0
 40
0.0
 40
0.0
 40
1.0
 40
1.0
 40
1.0
 40
2.0
 40
2.0
 40
2.0
 40
3.0
 40
3.0
 40
3.0
 40
4.0
 40
4.0
 40
4.0
 40
4.0
 10
70.33369181674914
 20
-96.34692719813528
 30
0.0
 10
70.33369181674914
 20
-96.29178803148284
 30
0.0
 10
70.28888904011438
 20
-96.24702053149363
 30
0.0
 10
70.23378515263131
 20
-96.24702053149363
 30
0.0
 10
70.17864598737135
 20
-96.24702053149363
 30
0.0
 10
70.13387848851347
 20
-96.29178803148284
 30
0.0
 10
70.13387848851347
 20
-96.34692719813528
 30
0.0
 10
70.13387848851347
 20
-96.40203108701083
 30
0.0
 10
70.17864598737135
 20
-96.4468338647769
 30
0.0
 10
70.23378515263131
 20
-96.4468338647769
 30
0.0
 10
70.28888904011438
 20
-96.4468338647769
 30
0.0
 10
70.33369181674914
 20
-96.40203108701083
 30
0.0
 10
70.33369181674914
 20
-96.34692719813528
 30
0.0
  0
SPLINE
  5
A2
330
1F
100
AcDbEntity
  8
_U+30EC_U+30A4_U+30E4_U+30FC 1
 62
   179
420
  2234388
370
     9
100
AcDbSpline
210
0.0
220
0.0
230
1.0
 70
    11
 71
     3
 72
    17
 73
    13
 74
     0
 42
0.0000000001
 43
0.0000000001
 12
1.0
 22
0.0
 32
0.0
 13
1.0
 23
0.0
 33
0.0
 40
0.0
 40
0.0
 40
0.0
 40
0.0
 40
1.0
 40
1.0
 40
1.0
 40
2.0
 40
2.0
 40
2.0
 40
3.0
 40
3.0
 40
3.0
 40
4.0
 40
4.0
 40
4.0
 40
4.0
 10
70.33369181674914
 20
-96.64664719806083
 30
0.0
 10
70.33369181674914
 20
-96.59150803140776
 30
0.0
 10
70.28888904011438
 20
-96.54674053141919
 30
0.0
 10
70.23378515263131
 20
-96.54674053141919
 30
0.0
 10
70.17864598737135
 20
-96.54674053141919
 30
0.0
 10
70.13387848851347
 20
-96.59150803140776
 30
0.0
 10
70.13387848851347
 20
-96.64664719806083
 30
0.0
 10
70.13387848851347
 20
-96.70245664249127
 30
0.0
 10
70.17864598737135
 20
-96.74722414247982
 30
0.0
 10
70.23378515263131
 20
-96.74722414247982
 30
0.0
 10
70.28888904011438
 20
-96.74722414247982
 30
0.0
 10
70.33369181674914
 20
-96.70245664249127
 30
0.0
 10
70.33369181674914
 20
-96.64664719806083
 30
0.0
  0
SPLINE
  5
A3
330
1F
100
AcDbEntity
  8
_U+30EC_U+30A4_U+30E4_U+30FC 1
 62
   179
420
  2234388
370
     9
100
AcDbSpline
210
0.0
220
0.0
230
1.0
 70
    11
 71
     3
 72
    17
 73
    13
 74
     0
 42
0.0000000001
 43
0.0000000001
 12
1.0
 22
0.0
 32
0.0
 13
1.0
 23
0.0
 33
0.0
 40
0.0
 40
0.0
 40
0.0
 40
0.0
 40
1.0
 40
1.0
 40
1.0
 40
2.0
 40
2.0
 40
2.0
 40
3.0
 40
3.0
 40
3.0
 40
4.0
 40
4.0
 40
4.0
 40
4.0
 10
85.33362615629116
 20
-96.34692719813528
 30
0.0
 10
85.33362615629116
 20
-96.29178803148284
 30
0.0
 10
85.28885865743327
 20
-96.24702053149363
 30
0.0
 10
85.23371949217332
 20
-96.24702053149363
 30
0.0
 10
85.17861560469025
 20
-96.24702053149363
 30
0.0
 10
85.13381282805548
 20
-96.29178803148284
 30
0.0
 10
85.13381282805548
 20
-96.34692719813528
 30
0.0
 10
85.13381282805548
 20
-96.40203108701083
 30
0.0
 10
85.17861560469025
 20
-96.4468338647769
 30
0.0
 10
85.23371949217332
 20
-96.4468338647769
 30
0.0
 10
85.28885865743327
 20
-96.4468338647769
 30
0.0
 10
85.33362615629116
 20
-96.40203108701083
 30
0.0
 10
85.33362615629116
 20
-96.34692719813528
 30
0.0
  0
INSERT
  5
A5
330
1F
100
AcDbEntity
  8
_U+30EC_U+30A4_U+30E4_U+30FC 1
100
AcDbBlockReference
  2
block 2
 10
0.0
 20
0.0
 30
0.0
  0
INSERT
  5
BF
330
1F
100
AcDbEntity
  8
_U+30EC_U+30A4_U+30E4_U+30FC 1
100
AcDbBlockReference
  2
block 4
 10
0.0
 20
0.0
 30
0.0
  0
INSERT
  5
D7
330
1F
100
AcDbEntity
  8
_U+30EC_U+30A4_U+30E4_U+30FC 1
100
AcDbBlockReference
  2
block 6
 10
0.0
 20
0.0
 30
0.0
  0
INSERT
  5
FC
330
1F
100
AcDbEntity
  8
_U+30EC_U+30A4_U+30E4_U+30FC 1
100
AcDbBlockReference
  2
block 8
 10
0.0
 20
0.0
 30
0.0
  0
INSERT
  5
115
330
1F
100
AcDbEntity
  8
_U+30EC_U+30A4_U+30E4_U+30FC 1
100
AcDbBlockReference
  2
block 10
 10
0.0
 20
0.0
 30
0.0
  0
INSERT
  5
129
330
1F
100
AcDbEntity
  8
_U+30EC_U+30A4_U+30E4_U+30FC 1
100
AcDbBlockReference
  2
block 12
 10
0.0
 20
0.0
 30
0.0
  0
INSERT
  5
14D
330
1F
100
AcDbEntity
  8
_U+30EC_U+30A4_U+30E4_U+30FC 1
100
AcDbBlockReference
  2
block 14
 10
0.0
 20
0.0
 30
0.0
  0
INSERT
  5
161
330
1F
100
AcDbEntity
  8
_U+30EC_U+30A4_U+30E4_U+30FC 1
100
AcDbBlockReference
  2
block 16
 10
0.0
 20
0.0
 30
0.0
  0
INSERT
  5
17A
330
1F
100
AcDbEntity
  8
_U+30EC_U+30A4_U+30E4_U+30FC 1
100
AcDbBlockReference
  2
block 17
 10
0.0
 20
0.0
 30
0.0
  0
ENDSEC
  0
SECTION
  2
OBJECTS
  0
DICTIONARY
  5
C
330
0
100
AcDbDictionary
281
     1
  3
ACAD_GROUP
350
D
  3
ACAD_LAYOUT
350
1A
  3
ACAD_MATERIAL
350
3B
  3
ACAD_MLEADERSTYLE
350
18B
  3
ACAD_MLINESTYLE
350
17
  3
ACAD_PLOTSETTINGS
350
19
  3
ACAD_PLOTSTYLENAME
350
E
  3
ACAD_TABLESTYLE
350
18A
  3
ACAD_VISUALSTYLE
350
2A
  0
SUN
  5
3F
330
29
100
AcDbSun
 90
        1
290
     0
 63
     7
421
 16777215
 40
1.0
291
     1
 91
  2455826
 92
 54000000
292
     0
 70
     2
 71
   256
280
     1
  0
DICTIONARY
  5
D
102
{ACAD_REACTORS
330
C
102
}
330
C
100
AcDbDictionary
281
     1
  0
DICTIONARY
  5
1A
102
{ACAD_REACTORS
330
C
102
}
330
C
100
AcDbDictionary
281
     1
  3
Layout1
350
1E
  3
Layout2
350
26
  3
Model
350
22
  0
DICTIONARY
  5
3B
102
{ACAD_REACTORS
330
C
102
}
330
C
100
AcDbDictionary
281
     1
  3
ByBlock
350
3D
  3
ByLayer
350
3C
  3
Global
350
3E
  0
DICTIONARY
  5
18B
102
{ACAD_REACTORS
330
C
102
}
330
C
100
AcDbDictionary
281
     1
  0
DICTIONARY
  5
17
102
{ACAD_REACTORS
330
C
102
}
330
C
100
AcDbDictionary
281
     1
  3
Standard
350
18
  0
DICTIONARY
  5
19
102
{ACAD_REACTORS
330
C
102
}
330
C
100
AcDbDictionary
281
     1
  0
ACDBDICTIONARYWDFLT
  5
E
102
{ACAD_REACTORS
330
C
102
}
330
C
100
AcDbDictionary
281
     1
  3
Normal
350
F
100
AcDbDictionaryWithDefault
340
F
  0
DICTIONARY
  5
18A
102
{ACAD_REACTORS
330
C
102
}
330
C
100
AcDbDictionary
281
     1
  0
DICTIONARY
  5
2A
102
{ACAD_REACTORS
330
C
102
}
330
C
100
AcDbDictionary
281
     1
  3
2dWireframe
350
2F
  3
3D Hidden
350
31
  3
3dWireframe
350
30
  3
Basic
350
32
  3
Brighten
350
36
  3
ColorChange
350
3A
  3
Conceptual
350
34
  3
Dim
350
35
  3
Facepattern
350
39
  3
Flat
350
2B
  3
FlatWithEdges
350
2C
  3
Gouraud
350
2D
  3
GouraudWithEdges
350
2E
  3
Linepattern
350
38
  3
Realistic
350
33
  3
Thicken
350
37
  0
LAYOUT
  5
1E
102
{ACAD_REACTORS
330
1A
102
}
330
1A
100
AcDbPlotSettings
  1

  2
none_device
  4

  6

 40
0.0
 41
0.0
 42
0.0
 43
0.0
 44
0.0
 45
0.0
 46
0.0
 47
0.0
 48
0.0
 49
0.0
140
0.0
141
0.0
142
1.0
143
1.0
 70
   688
 72
     0
 73
     0
 74
     5
  7

 75
    16
 76
     0
 77
     2
 78
   300
147
1.0
148
0.0
149
0.0
100
AcDbLayout
  1
Layout1
 70
     1
 71
     1
 10
0.0
 20
0.0
 11
12.0
 21
9.0
 12
0.0
 22
0.0
 32
0.0
 14
1.000000000000000E+20
 24
1.000000000000000E+20
 34
1.000000000000000E+20
 15
-1.000000000000000E+20
 25
-1.000000000000000E+20
 35
-1.000000000000000E+20
146
0.0
 13
0.0
 23
0.0
 33
0.0
 16
1.0
 26
0.0
 36
0.0
 17
0.0
 27
1.0
 37
0.0
 76
     0
330
1B
  0
LAYOUT
  5
26
102
{ACAD_REACTORS
330
1A
102
}
330
1A
100
AcDbPlotSettings
  1

  2
none_device
  4

  6

 40
0.0
 41
0.0
 42
0.0
 43
0.0
 44
0.0
 45
0.0
 46
0.0
 47
0.0
 48
0.0
 49
0.0
140
0.0
141
0.0
142
1.0
143
1.0
 70
   688
 72
     0
 73
     0
 74
     5
  7

 75
    16
 76
     0
 77
     2
 78
   300
147
1.0
148
0.0
149
0.0
100
AcDbLayout
  1
Layout2
 70
     1
 71
     2
 10
0.0
 20
0.0
 11
0.0
 21
0.0
 12
0.0
 22
0.0
 32
0.0
 14
0.0
 24
0.0
 34
0.0
 15
0.0
 25
0.0
 35
0.0
146
0.0
 13
0.0
 23
0.0
 33
0.0
 16
1.0
 26
0.0
 36
0.0
 17
0.0
 27
1.0
 37
0.0
 76
     0
330
23
  0
LAYOUT
  5
22
102
{ACAD_REACTORS
330
1A
102
}
330
1A
100
AcDbPlotSettings
  1

  2
none_device
  4

  6

 40
0.0
 41
0.0
 42
0.0
 43
0.0
 44
0.0
 45
0.0
 46
0.0
 47
0.0
 48
0.0
 49
0.0
140
0.0
141
0.0
142
1.0
143
1.0
 70
  1712
 72
     0
 73
     0
 74
     0
  7

 75
     0
 76
     0
 77
     2
 78
   300
147
1.0
148
0.0
149
0.0
100
AcDbLayout
  1
Model
 70
     1
 71
     0
 10
0.0
 20
0.0
 11
12.0
 21
9.0
 12
0.0
 22
0.0
 32
0.0
 14
1.000000000000000E+20
 24
1.000000000000000E+20
 34
1.000000000000000E+20
 15
-1.000000000000000E+20
 25
-1.000000000000000E+20
 35
-1.000000000000000E+20
146
0.0
 13
0.0
 23
0.0
 33
0.0
 16
1.0
 26
0.0
 36
0.0
 17
0.0
 27
1.0
 37
0.0
 76
     0
330
1F
331
29
  0
MATERIAL
  5
3D
102
{ACAD_REACTORS
330
3B
102
}
330
3B
100
AcDbMaterial
  1
ByBlock
 72
     1
 94
      127
  0
MATERIAL
  5
3C
102
{ACAD_REACTORS
330
3B
102
}
330
3B
100
AcDbMaterial
  1
ByLayer
 72
     1
 94
      127
  0
MATERIAL
  5
3E
102
{ACAD_REACTORS
330
3B
102
}
330
3B
100
AcDbMaterial
  1
Global
 72
     1
 94
      127
  0
MLINESTYLE
  5
18
102
{ACAD_REACTORS
330
17
102
}
330
17
100
AcDbMlineStyle
  2
Standard
 70
     0
  3

 62
   256
 51
90.0
 52
90.0
 71
     2
 49
0.5
 62
   256
  6
BYLAYER
 49
-0.5
 62
   256
  6
BYLAYER
  0
ACDBPLACEHOLDER
  5
F
102
{ACAD_REACTORS
330
E
102
}
330
E
  0
VISUALSTYLE
  5
2F
102
{ACAD_REACTORS
330
2A
102
}
330
2A
100
AcDbVisualStyle
  2
2dWireframe
 70
     4
177
     2
291
     0
 71
     0
176
     1
 72
     2
176
     1
 73
     0
176
     1
 90
        0
176
     1
 40
-0.6
176
     1
 41
-30.0
176
     1
 62
     5
 63
     7
421
 16777215
176
     1
 74
     1
176
     1
 91
        4
176
     1
 64
     7
176
     1
 65
   257
176
     1
 75
     1
176
     1
175
     1
176
     1
 42
1.0
176
     1
 92
        0
176
     1
 66
   257
176
     1
 43
1.0
176
     1
 76
     1
176
     1
 77
     6
176
     1
 78
     2
176
     1
 67
     7
176
     1
 79
     5
176
     1
170
     0
176
     1
171
     0
176
     1
290
     0
176
     1
 93
        1
176
     1
 44
0.0
176
     1
173
     0
176
     1
  0
VISUALSTYLE
  5
31
102
{ACAD_REACTORS
330
2A
102
}
330
2A
100
AcDbVisualStyle
  2
3D Hidden
 70
     6
177
     2
291
     0
 71
     1
176
     1
 72
     2
176
     1
 73
     2
176
     1
 90
        0
176
     1
 40
-0.6
176
     1
 41
-30.0
176
     1
 62
     5
 63
     7
421
 16777215
176
     1
 74
     2
176
     1
 91
        2
176
     1
 64
     7
176
     1
 65
   257
176
     1
 75
     2
176
     1
175
     1
176
     1
 42
40.0
176
     1
 92
        0
176
     1
 66
   257
176
     1
 43
1.0
176
     1
 76
     1
176
     1
 77
     6
176
     1
 78
     2
176
     1
 67
     7
176
     1
 79
     3
176
     1
170
     0
176
     1
171
     0
176
     1
290
     0
176
     1
 93
        1
176
     1
 44
0.0
176
     1
173
     0
176
     1
  0
VISUALSTYLE
  5
30
102
{ACAD_REACTORS
330
2A
102
}
330
2A
100
AcDbVisualStyle
  2
3dWireframe
 70
     5
177
     2
291
     0
 71
     0
176
     1
 72
     2
176
     1
 73
     0
176
     1
 90
        0
176
     1
 40
-0.6
176
     1
 41
-30.0
176
     1
 62
     5
 63
     7
421
 16777215
176
     1
 74
     1
176
     1
 91
        4
176
     1
 64
     7
176
     1
 65
   257
176
     1
 75
     1
176
     1
175
     1
176
     1
 42
1.0
176
     1
 92
        0
176
     1
 66
   257
176
     1
 43
1.0
176
     1
 76
     1
176
     1
 77
     6
176
     1
 78
     2
176
     1
 67
     7
176
     1
 79
     5
176
     1
170
     0
176
     1
171
     0
176
     1
290
     0
176
     1
 93
        1
176
     1
 44
0.0
176
     1
173
     0
176
     1
  0
VISUALSTYLE
  5
32
102
{ACAD_REACTORS
330
2A
102
}
330
2A
100
AcDbVisualStyle
  2
Basic
 70
     7
177
     2
291
     1
 71
     1
176
     1
 72
     0
176
     1
 73
     1
176
     1
 90
        0
176
     1
 40
-0.6
176
     1
 41
-30.0
176
     1
 62
     5
 63
     7
421
 16777215
176
     1
 74
     0
176
     1
 91
        4
176
     1
 64
     7
176
     1
 65
   257
176
     1
 75
     1
176
     1
175
     1
176
     1
 42
1.0
176
     1
 92
        8
176
     1
 66
     7
176
     1
 43
1.0
176
     1
 76
     1
176
     1
 77
     6
176
     1
 78
     2
176
     1
 67
     7
176
     1
 79
     5
176
     1
170
     0
176
     1
171
     0
176
     1
290
     0
176
     1
 93
        1
176
     1
 44
0.0
176
     1
173
     0
176
     1
  0
VISUALSTYLE
  5
36
102
{ACAD_REACTORS
330
2A
102
}
330
2A
100
AcDbVisualStyle
  2
Brighten
 70
    12
177
     2
291
     1
 71
     2
176
     1
 72
     2
176
     1
 73
     0
176
     1
 90
        0
176
     1
 40
-0.6
176
     1
 41
-30.0
176
     1
 62
     5
 63
     7
421
 16777215
176
     1
 74
     1
176
     1
 91
        4
176
     1
 64
     7
176
     1
 65
   257
176
     1
 75
     1
176
     1
175
     1
176
     1
 42
1.0
176
     1
 92
        8
176
     1
 66
     7
176
     1
 43
1.0
176
     1
 76
     1
176
     1
 77
     6
176
     1
 78
     2
176
     1
 67
     7
176
     1
 79
     5
176
     1
170
     0
176
     1
171
     0
176
     1
290
     0
176
     1
 93
        1
176
     1
 44
50.0
176
     1
173
     0
176
     1
  0
VISUALSTYLE
  5
3A
102
{ACAD_REACTORS
330
2A
102
}
330
2A
100
AcDbVisualStyle
  2
ColorChange
 70
    16
177
     2
291
     1
 71
     2
176
     1
 72
     2
176
     1
 73
     3
176
     1
 90
        0
176
     1
 40
-0.6
176
     1
 41
-30.0
176
     1
 62
     5
 63
     8
421
  8421504
176
     1
 74
     1
176
     1
 91
        4
176
     1
 64
     7
176
     1
 65
   257
176
     1
 75
     1
176
     1
175
     1
176
     1
 42
1.0
176
     1
 92
        8
176
     1
 66
     8
424
  8421504
176
     1
 43
1.0
176
     1
 76
     1
176
     1
 77
     6
176
     1
 78
     2
176
     1
 67
     7
176
     1
 79
     5
176
     1
170
     0
176
     1
171
     0
176
     1
290
     0
176
     1
 93
        1
176
     1
 44
0.0
176
     1
173
     0
176
     1
  0
VISUALSTYLE
  5
34
102
{ACAD_REACTORS
330
2A
102
}
330
2A
100
AcDbVisualStyle
  2
Conceptual
 70
     9
177
     2
291
     0
 71
     3
176
     1
 72
     2
176
     1
 73
     0
176
     1
 90
        0
176
     1
 40
-0.6
176
     1
 41
-30.0
176
     1
 62
     5
 63
     7
421
 16777215
176
     1
 74
     2
176
     1
 91
        2
176
     1
 64
     7
176
     1
 65
   257
176
     1
 75
     1
176
     1
175
     1
176
     1
 42
40.0
176
     1
 92
        8
176
     1
 66
     7
176
     1
 43
1.0
176
     1
 76
     1
176
     1
 77
     6
176
     1
 78
     2
176
     1
 67
     7
176
     1
 79
     3
176
     1
170
     0
176
     1
171
     0
176
     1
290
     0
176
     1
 93
        1
176
     1
 44
0.0
176
     1
173
     0
176
     1
  0
VISUALSTYLE
  5
35
102
{ACAD_REACTORS
330
2A
102
}
330
2A
100
AcDbVisualStyle
  2
Dim
 70
    11
177
     2
291
     1
 71
     2
176
     1
 72
     2
176
     1
 73
     0
176
     1
 90
        0
176
     1
 40
-0.6
176
     1
 41
-30.0
176
     1
 62
     5
 63
     7
421
 16777215
176
     1
 74
     1
176
     1
 91
        4
176
     1
 64
     7
176
     1
 65
   257
176
     1
 75
     1
176
     1
175
     1
176
     1
 42
1.0
176
     1
 92
        8
176
     1
 66
     7
176
     1
 43
1.0
176
     1
 76
     1
176
     1
 77
     6
176
     1
 78
     2
176
     1
 67
     7
176
     1
 79
     5
176
     1
170
     0
176
     1
171
     0
176
     1
290
     0
176
     1
 93
        1
176
     1
 44
-50.0
176
     1
173
     0
176
     1
  0
VISUALSTYLE
  5
39
102
{ACAD_REACTORS
330
2A
102
}
330
2A
100
AcDbVisualStyle
  2
Facepattern
 70
    15
177
     2
291
     1
 71
     2
176
     1
 72
     2
176
     1
 73
     0
176
     1
 90
        0
176
     1
 40
-0.6
176
     1
 41
-30.0
176
     1
 62
     5
 63
     7
421
 16777215
176
     1
 74
     1
176
     1
 91
        4
176
     1
 64
     7
176
     1
 65
   257
176
     1
 75
     1
176
     1
175
     1
176
     1
 42
1.0
176
     1
 92
        8
176
     1
 66
     7
176
     1
 43
1.0
176
     1
 76
     1
176
     1
 77
     6
176
     1
 78
     2
176
     1
 67
     7
176
     1
 79
     5
176
     1
170
     0
176
     1
171
     0
176
     1
290
     0
176
     1
 93
        1
176
     1
 44
0.0
176
     1
173
     0
176
     1
  0
VISUALSTYLE
  5
2B
102
{ACAD_REACTORS
330
2A
102
}
330
2A
100
AcDbVisualStyle
  2
Flat
 70
     0
177
     2
291
     1
 71
     2
176
     1
 72
     1
176
     1
 73
     1
176
     1
 90
        2
176
     1
 40
-0.6
176
     1
 41
30.0
176
     1
 62
     5
 63
     7
421
 16777215
176
     1
 74
     0
176
     1
 91
        4
176
     1
 64
     7
176
     1
 65
   257
176
     1
 75
     1
176
     1
175
     1
176
     1
 42
1.0
176
     1
 92
        8
176
     1
 66
     7
176
     1
 43
1.0
176
     1
 76
     1
176
     1
 77
     6
176
     1
 78
     2
176
     1
 67
     7
176
     1
 79
     5
176
     1
170
     0
176
     1
171
     0
176
     1
290
     0
176
     1
 93
       13
176
     1
 44
0.0
176
     1
173
     0
176
     1
  0
VISUALSTYLE
  5
2C
102
{ACAD_REACTORS
330
2A
102
}
330
2A
100
AcDbVisualStyle
  2
FlatWithEdges
 70
     1
177
     2
291
     1
 71
     2
176
     1
 72
     1
176
     1
 73
     1
176
     1
 90
        2
176
     1
 40
-0.6
176
     1
 41
30.0
176
     1
 62
     5
 63
     7
421
 16777215
176
     1
 74
     1
176
     1
 91
        4
176
     1
 64
     7
176
     1
 65
   257
176
     1
 75
     1
176
     1
175
     1
176
     1
 42
1.0
176
     1
 92
        0
176
     1
 66
   257
176
     1
 43
1.0
176
     1
 76
     1
176
     1
 77
     6
176
     1
 78
     2
176
     1
 67
     7
176
     1
 79
     5
176
     1
170
     0
176
     1
171
     0
176
     1
290
     0
176
     1
 93
       13
176
     1
 44
0.0
176
     1
173
     0
176
     1
  0
VISUALSTYLE
  5
2D
102
{ACAD_REACTORS
330
2A
102
}
330
2A
100
AcDbVisualStyle
  2
Gouraud
 70
     2
177
     2
291
     1
 71
     2
176
     1
 72
     2
176
     1
 73
     1
176
     1
 90
        2
176
     1
 40
-0.6
176
     1
 41
30.0
176
     1
 62
     5
 63
     7
421
 16777215
176
     1
 74
     0
176
     1
 91
        4
176
     1
 64
     7
176
     1
 65
   257
176
     1
 75
     1
176
     1
175
     1
176
     1
 42
1.0
176
     1
 92
        0
176
     1
 66
     7
176
     1
 43
1.0
176
     1
 76
     1
176
     1
 77
     6
176
     1
 78
     2
176
     1
 67
     7
176
     1
 79
     5
176
     1
170
     0
176
     1
171
     0
176
     1
290
     0
176
     1
 93
       13
176
     1
 44
0.0
176
     1
173
     0
176
     1
  0
VISUALSTYLE
  5
2E
102
{ACAD_REACTORS
330
2A
102
}
330
2A
100
AcDbVisualStyle
  2
GouraudWithEdges
 70
     3
177
     2
291
     1
 71
     2
176
     1
 72
     2
176
     1
 73
     1
176
     1
 90
        2
176
     1
 40
-0.6
176
     1
 41
30.0
176
     1
 62
     5
 63
     7
421
 16777215
176
     1
 74
     1
176
     1
 91
        4
176
     1
 64
     7
176
     1
 65
   257
176
     1
 75
     1
176
     1
175
     1
176
     1
 42
1.0
176
     1
 92
        0
176
     1
 66
   257
176
     1
 43
1.0
176
     1
 76
     1
176
     1
 77
     6
176
     1
 78
     2
176
     1
 67
     7
176
     1
 79
     5
176
     1
170
     0
176
     1
171
     0
176
     1
290
     0
176
     1
 93
       13
176
     1
 44
0.0
176
     1
173
     0
176
     1
  0
VISUALSTYLE
  5
38
102
{ACAD_REACTORS
330
2A
102
}
330
2A
100
AcDbVisualStyle
  2
Linepattern
 70
    14
177
     2
291
     1
 71
     2
176
     1
 72
     2
176
     1
 73
     0
176
     1
 90
        0
176
     1
 40
-0.6
176
     1
 41
-30.0
176
     1
 62
     5
 63
     7
421
 16777215
176
     1
 74
     1
176
     1
 91
        4
176
     1
 64
     7
176
     1
 65
   257
176
     1
 75
     7
176
     1
175
     7
176
     1
 42
1.0
176
     1
 92
        8
176
     1
 66
     7
176
     1
 43
1.0
176
     1
 76
     1
176
     1
 77
     6
176
     1
 78
     2
176
     1
 67
     7
176
     1
 79
     5
176
     1
170
     0
176
     1
171
     0
176
     1
290
     0
176
     1
 93
        1
176
     1
 44
0.0
176
     1
173
     0
176
     1
  0
VISUALSTYLE
  5
33
102
{ACAD_REACTORS
330
2A
102
}
330
2A
100
AcDbVisualStyle
  2
Realistic
 70
     8
177
     2
291
     0
 71
     2
176
     1
 72
     2
176
     1
 73
     0
176
     1
 90
        0
176
     1
 40
-0.6
176
     1
 41
-30.0
176
     1
 62
     5
 63
     7
421
 16777215
176
     1
 74
     1
176
     1
 91
        0
176
     1
 64
     7
176
     1
 65
   257
176
     1
 75
     1
176
     1
175
     1
176
     1
 42
1.0
176
     1
 92
        8
176
     1
 66
     8
424
  7895160
176
     1
 43
1.0
176
     1
 76
     1
176
     1
 77
     6
176
     1
 78
     2
176
     1
 67
     7
176
     1
 79
     5
176
     1
170
     0
176
     1
171
     0
176
     1
290
     0
176
     1
 93
       13
176
     1
 44
0.0
176
     1
173
     0
176
     1
  0
VISUALSTYLE
  5
37
102
{ACAD_REACTORS
330
2A
102
}
330
2A
100
AcDbVisualStyle
  2
Thicken
 70
    13
177
     2
291
     1
 71
     2
176
     1
 72
     2
176
     1
 73
     0
176
     1
 90
        0
176
     1
 40
-0.6
176
     1
 41
-30.0
176
     1
 62
     5
 63
     7
421
 16777215
176
     1
 74
     1
176
     1
 91
        4
176
     1
 64
     7
176
     1
 65
   257
176
     1
 75
     1
176
     1
175
     1
176
     1
 42
1.0
176
     1
 92
       12
176
     1
 66
     7
176
     1
 43
1.0
176
     1
 76
     1
176
     1
 77
     6
176
     1
 78
     2
176
     1
 67
     7
176
     1
 79
     5
176
     1
170
     0
176
     1
171
     0
176
     1
290
     0
176
     1
 93
        1
176
     1
 44
0.0
176
     1
173
     0
176
     1
  0
ENDSEC
  0
EOF
