  0
SECTION
  2
HEADER
  9
$ACADVER
  1
AC1024
  9
$ACADMAINTVER
 70
     6
  9
$DWGCODEPAGE
  3
UNDEFINED
  9
$INSBASE
 10
0.0
 20
0.0
 30
0.0
  9
$EXTMIN
 10
1.000000000000000E+20
 20
1.000000000000000E+20
 30
1.000000000000000E+20
  9
$EXTMAX
 10
-1.000000000000000E+20
 20
-1.000000000000000E+20
 30
-1.000000000000000E+20
  9
$LIMMIN
 10
0.0
 20
0.0
  9
$LIMMAX
 10
12.0
 20
9.0
  9
$ORTHOMODE
 70
     0
  9
$REGENMODE
 70
     1
  9
$FILLMODE
 70
     1
  9
$QTEXTMODE
 70
     0
  9
$MIRRTEXT
 70
     1
  9
$LTSCALE
 40
1.0
  9
$ATTMODE
 70
     1
  9
$TEXTSIZE
 40
0.2
  9
$TRACEWID
 40
0.05
  9
$TEXTSTYLE
  7
Standard
  9
$CLAYER
  8
0
  9
$CELTYPE
  6
ByLayer
  9
$CECOLOR
 62
   256
  9
$CELTSCALE
 40
1.0
  9
$DISPSILH
 70
     0
  9
$DIMSCALE
 40
1.0
  9
$DIMASZ
 40
0.18
  9
$DIMEXO
 40
0.0625
  9
$DIMDLI
 40
0.38
  9
$DIMRND
 40
0.0
  9
$DIMDLE
 40
0.0
  9
$DIMEXE
 40
0.18
  9
$DIMTP
 40
0.0
  9
$DIMTM
 40
0.0
  9
$DIMTXT
 40
0.18
  9
$DIMCEN
 40
0.09
  9
$DIMTSZ
 40
0.0
  9
$DIMTOL
 70
     0
  9
$DIMLIM
 70
     0
  9
$DIMTIH
 70
     1
  9
$DIMTOH
 70
     1
  9
$DIMSE1
 70
     0
  9
$DIMSE2
 70
     0
  9
$DIMTAD
 70
     0
  9
$DIMZIN
 70
     0
  9
$DIMBLK
  1

  9
$DIMASO
 70
     1
  9
$DIMSHO
 70
     1
  9
$DIMPOST
  1

  9
$DIMAPOST
  1

  9
$DIMALT
 70
     0
  9
$DIMALTD
 70
     2
  9
$DIMALTF
 40
25.4
  9
$DIMLFAC
 40
1.0
  9
$DIMTOFL
 70
     0
  9
$DIMTVP
 40
0.0
  9
$DIMTIX
 70
     0
  9
$DIMSOXD
 70
     0
  9
$DIMSAH
 70
     0
  9
$DIMBLK1
  1

  9
$DIMBLK2
  1

  9
$DIMSTYLE
  2
Standard
  9
$DIMCLRD
 70
     0
  9
$DIMCLRE
 70
     0
  9
$DIMCLRT
 70
     0
  9
$DIMTFAC
 40
1.0
  9
$DIMGAP
 40
0.09
  9
$DIMJUST
 70
     0
  9
$DIMSD1
 70
     0
  9
$DIMSD2
 70
     0
  9
$DIMTOLJ
 70
     1
  9
$DIMTZIN
 70
     0
  9
$DIMALTZ
 70
     0
  9
$DIMALTTZ
 70
     0
  9
$DIMUPT
 70
     0
  9
$DIMDEC
 70
     4
  9
$DIMTDEC
 70
     4
  9
$DIMALTU
 70
     2
  9
$DIMALTTD
 70
     2
  9
$DIMTXSTY
  7
Standard
  9
$DIMAUNIT
 70
     0
  9
$DIMADEC
 70
     0
  9
$DIMALTRND
 40
0.0
  9
$DIMAZIN
 70
     0
  9
$DIMDSEP
 70
    46
  9
$DIMATFIT
 70
     3
  9
$DIMFRAC
 70
     0
  9
$DIMLDRBLK
  1

  9
$DIMLUNIT
 70
     2
  9
$DIMLWD
 70
    -2
  9
$DIMLWE
 70
    -2
  9
$DIMTMOVE
 70
     0
  9
$DIMFXL
 40
1.0
  9
$DIMFXLON
 70
     0
  9
$DIMJOGANG
 40
0.7853981633974483
  9
$DIMTFILL
 70
     0
  9
$DIMTFILLCLR
 70
     0
  9
$DIMARCSYM
 70
     0
  9
$DIMLTYPE
  6

  9
$DIMLTEX1
  6

  9
$DIMLTEX2
  6

  9
$DIMTXTDIRECTION
 70
     0
  9
$LUNITS
 70
     2
  9
$LUPREC
 70
     4
  9
$SKETCHINC
 40
0.1
  9
$FILLETRAD
 40
0.5
  9
$AUNITS
 70
     0
  9
$AUPREC
 70
     0
  9
$MENU
  1
.
  9
$ELEVATION
 40
0.0
  9
$PELEVATION
 40
0.0
  9
$THICKNESS
 40
0.0
  9
$LIMCHECK
 70
     0
  9
$CHAMFERA
 40
0.5
  9
$CHAMFERB
 40
0.5
  9
$CHAMFERC
 40
1.0
  9
$CHAMFERD
 40
0.0
  9
$SKPOLY
 70
     0
  9
$TDCREATE
 40
2457917.586412037
  9
$TDUCREATE
 40
2457917.211412037
  9
$TDUPDATE
 40
2457917.586412037
  9
$TDUUPDATE
 40
2457917.211412037
  9
$TDINDWG
 40
0.0000000116
  9
$TDUSRTIMER
 40
0.0000000116
  9
$USRTIMER
 70
     1
  9
$ANGBASE
 50
0.0
  9
$ANGDIR
 70
     0
  9
$PDMODE
 70
     0
  9
$PDSIZE
 40
0.0
  9
$PLINEWID
 40
0.0
  9
$SPLFRAME
 70
     0
  9
$SPLINETYPE
 70
     6
  9
$SPLINESEGS
 70
     8
  9
$HANDSEED
  5
105
  9
$SURFTAB1
 70
     6
  9
$SURFTAB2
 70
     6
  9
$SURFTYPE
 70
     6
  9
$SURFU
 70
     6
  9
$SURFV
 70
     6
  9
$UCSBASE
  2

  9
$UCSNAME
  2

  9
$UCSORG
 10
0.0
 20
0.0
 30
0.0
  9
$UCSXDIR
 10
1.0
 20
0.0
 30
0.0
  9
$UCSYDIR
 10
0.0
 20
1.0
 30
0.0
  9
$UCSORTHOREF
  2

  9
$UCSORTHOVIEW
 70
     0
  9
$UCSORGTOP
 10
0.0
 20
0.0
 30
0.0
  9
$UCSORGBOTTOM
 10
0.0
 20
0.0
 30
0.0
  9
$UCSORGLEFT
 10
0.0
 20
0.0
 30
0.0
  9
$UCSORGRIGHT
 10
0.0
 20
0.0
 30
0.0
  9
$UCSORGFRONT
 10
0.0
 20
0.0
 30
0.0
  9
$UCSORGBACK
 10
0.0
 20
0.0
 30
0.0
  9
$PUCSBASE
  2

  9
$PUCSNAME
  2

  9
$PUCSORG
 10
0.0
 20
0.0
 30
0.0
  9
$PUCSXDIR
 10
1.0
 20
0.0
 30
0.0
  9
$PUCSYDIR
 10
0.0
 20
1.0
 30
0.0
  9
$PUCSORTHOREF
  2

  9
$PUCSORTHOVIEW
 70
     0
  9
$PUCSORGTOP
 10
0.0
 20
0.0
 30
0.0
  9
$PUCSORGBOTTOM
 10
0.0
 20
0.0
 30
0.0
  9
$PUCSORGLEFT
 10
0.0
 20
0.0
 30
0.0
  9
$PUCSORGRIGHT
 10
0.0
 20
0.0
 30
0.0
  9
$PUCSORGFRONT
 10
0.0
 20
0.0
 30
0.0
  9
$PUCSORGBACK
 10
0.0
 20
0.0
 30
0.0
  9
$USERI1
 70
     0
  9
$USERI2
 70
     0
  9
$USERI3
 70
     0
  9
$USERI4
 70
     0
  9
$USERI5
 70
     0
  9
$USERR1
 40
0.0
  9
$USERR2
 40
0.0
  9
$USERR3
 40
0.0
  9
$USERR4
 40
0.0
  9
$USERR5
 40
0.0
  9
$WORLDVIEW
 70
     1
  9
$SHADEDGE
 70
     3
  9
$SHADEDIF
 70
    70
  9
$TILEMODE
 70
     1
  9
$MAXACTVP
 70
    64
  9
$PINSBASE
 10
0.0
 20
0.0
 30
0.0
  9
$PLIMCHECK
 70
     0
  9
$PEXTMIN
 10
1.000000000000000E+20
 20
1.000000000000000E+20
 30
1.000000000000000E+20
  9
$PEXTMAX
 10
-1.000000000000000E+20
 20
-1.000000000000000E+20
 30
-1.000000000000000E+20
  9
$PLIMMIN
 10
0.0
 20
0.0
  9
$PLIMMAX
 10
12.0
 20
9.0
  9
$UNITMODE
 70
     0
  9
$VISRETAIN
 70
     1
  9
$PLINEGEN
 70
     0
  9
$PSLTSCALE
 70
     1
  9
$TREEDEPTH
 70
  3020
  9
$CMLSTYLE
  2
Standard
  9
$CMLJUST
 70
     0
  9
$CMLSCALE
 40
1.0
  9
$PROXYGRAPHICS
 70
     1
  9
$MEASUREMENT
 70
     0
  9
$CELWEIGHT
370
    -1
  9
$ENDCAPS
280
     0
  9
$JOINSTYLE
280
     0
  9
$LWDISPLAY
290
     1
  9
$INSUNITS
 70
     1
  9
$HYPERLINKBASE
  1

  9
$STYLESHEET
  1

  9
$XEDIT
290
     1
  9
$CEPSNTYPE
380
     0
  9
$PSTYLEMODE
290
     1
  9
$FINGERPRINTGUID
  2
{6011C093-590A-D441-0B67-C39EED88EDEE}
  9
$VERSIONGUID
  2
{FAEB1C32-E019-11D5-929B-00C0DF256EC4}
  9
$EXTNAMES
290
     1
  9
$PSVPSCALE
 40
0.0
  9
$OLESTARTUP
290
     0
  9
$SORTENTS
280
   127
  9
$INDEXCTL
280
     0
  9
$HIDETEXT
280
     1
  9
$XCLIPFRAME
280
     2
  9
$HALOGAP
280
     0
  9
$OBSCOLOR
 70
   257
  9
$OBSLTYPE
280
     0
  9
$INTERSECTIONDISPLAY
280
     0
  9
$INTERSECTIONCOLOR
 70
   257
  9
$DIMASSOC
280
     2
  9
$PROJECTNAME
  1

  9
$CAMERADISPLAY
290
     0
  9
$LENSLENGTH
 40
50.0
  9
$CAMERAHEIGHT
 40
0.0
  9
$STEPSPERSEC
 40
2.0
  9
$STEPSIZE
 40
6.0
  9
$3DDWFPREC
 40
2.0
  9
$PSOLWIDTH
 40
0.25
  9
$PSOLHEIGHT
 40
4.0
  9
$LOFTANG1
 40
1.570796326794897
  9
$LOFTANG2
 40
1.570796326794897
  9
$LOFTMAG1
 40
0.0
  9
$LOFTMAG2
 40
0.0
  9
$LOFTPARAM
 70
     7
  9
$LOFTNORMALS
280
     1
  9
$LATITUDE
 40
37.795
  9
$LONGITUDE
 40
-122.394
  9
$NORTHDIRECTION
 40
0.0
  9
$TIMEZONE
 70
 -8000
  9
$LIGHTGLYPHDISPLAY
280
     1
  9
$TILEMODELIGHTSYNCH
280
     1
  9
$CMATERIAL
347
3C
  9
$SOLIDHIST
280
     1
  9
$SHOWHIST
280
     1
  9
$DWFFRAME
280
     2
  9
$DGNFRAME
280
     2
  9
$REALWORLDSCALE
290
     1
  9
$INTERFERECOLOR
 62
   256
  9
$CSHADOW
280
     0
  9
$SHADOWPLANELOCATION
 40
0.0
  0
ENDSEC
  0
SECTION
  2
CLASSES
  0
CLASS
  1
ACDBDICTIONARYWDFLT
  2
AcDbDictionaryWithDefault
  3
ObjectDBX Classes
 90
        0
 91
        4
280
     0
281
     0
  0
CLASS
  1
VISUALSTYLE
  2
AcDbVisualStyle
  3
ObjectDBX Classes
 90
     4095
 91
        4
280
     0
281
     0
  0
CLASS
  1
MATERIAL
  2
AcDbMaterial
  3
ObjectDBX Classes
 90
     1153
 91
        4
280
     0
281
     0
  0
CLASS
  1
SUN
  2
AcDbSun
  3
SCENEOE
 90
     1024
 91
        4
280
     0
281
     0
  0
ENDSEC
  0
SECTION
  2
TABLES
  0
TABLE
  2
VPORT
  5
8
330
0
100
AcDbSymbolTable
 70
     1
  0
VPORT
  5
29
330
8
100
AcDbSymbolTableRecord
100
AcDbViewportTableRecord
  2
*Active
 70
     0
 10
0.0
 20
0.0
 11
1.0
 21
1.0
 12
0.0
 22
0.0
 13
0.0
 23
0.0
 14
0.5
 24
0.5
 15
0.5
 25
0.5
 16
0.0
 26
0.0
 36
1.0
 17
105.0008280156501
 27
-148.4999710739862
 37
0.0
 40
296.9999421479724
 41
0.7070764206636528
 42
50.0
 43
0.0
 44
0.0
 50
0.0
 51
0.0
 71
     0
 72
   100
 73
     1
 74
     3
 75
     0
 76
     0
 77
     0
 78
     0
281
     0
 65
     1
110
0.0
120
0.0
130
0.0
111
1.0
121
0.0
131
0.0
112
0.0
122
1.0
132
0.0
 79
     0
146
0.0
 60
     3
 61
     5
292
     1
282
     1
141
0.0
142
0.0
 63
   250
361
3F
  0
ENDTAB
  0
TABLE
  2
LTYPE
  5
5
330
0
100
AcDbSymbolTable
 70
     1
  0
LTYPE
  5
14
330
5
100
AcDbSymbolTableRecord
100
AcDbLinetypeTableRecord
  2
ByBlock
 70
     0
  3

 72
    65
 73
     0
 40
0.0
  0
LTYPE
  5
15
330
5
100
AcDbSymbolTableRecord
100
AcDbLinetypeTableRecord
  2
ByLayer
 70
     0
  3

 72
    65
 73
     0
 40
0.0
  0
LTYPE
  5
16
330
5
100
AcDbSymbolTableRecord
100
AcDbLinetypeTableRecord
  2
Continuous
 70
     0
  3
Solid line
 72
    65
 73
     0
 40
0.0
  0
ENDTAB
  0
TABLE
  2
LAYER
  5
2
330
0
100
AcDbSymbolTable
 70
     2
  0
LAYER
  5
10
330
2
100
AcDbSymbolTableRecord
100
AcDbLayerTableRecord
  2
0
 70
     0
 62
     7
  6
Continuous
370
    -3
390
F
347
3E
  0
LAYER
  5
40
330
2
100
AcDbSymbolTableRecord
100
AcDbLayerTableRecord
  2
_U+30EC_U+30A4_U+30E4_U+30FC 1
 70
     0
 62
     7
  6
Continuous
370
    -3
390
F
347
3E
  0
ENDTAB
  0
TABLE
  2
STYLE
  5
3
330
0
100
AcDbSymbolTable
 70
     1
  0
STYLE
  5
11
330
3
100
AcDbSymbolTableRecord
100
AcDbTextStyleTableRecord
  2
Standard
 70
     0
 40
0.0
 41
1.0
 50
0.0
 71
     0
 42
0.2
  3
txt
  4

  0
ENDTAB
  0
TABLE
  2
VIEW
  5
6
330
0
100
AcDbSymbolTable
 70
     0
  0
ENDTAB
  0
TABLE
  2
UCS
  5
7
330
0
100
AcDbSymbolTable
 70
     0
  0
ENDTAB
  0
TABLE
  2
APPID
  5
9
330
0
100
AcDbSymbolTable
 70
     1
  0
APPID
  5
12
330
9
100
AcDbSymbolTableRecord
100
AcDbRegAppTableRecord
  2
ACAD
 70
     0
  0
ENDTAB
  0
TABLE
  2
DIMSTYLE
  5
A
330
0
100
AcDbSymbolTable
 70
     1
100
AcDbDimStyleTable
  0
DIMSTYLE
105
27
330
A
100
AcDbSymbolTableRecord
100
AcDbDimStyleTableRecord
  2
Standard
 70
     0
178
     0
340
11
  0
ENDTAB
  0
TABLE
  2
BLOCK_RECORD
  5
1
330
0
100
AcDbSymbolTable
 70
     7
  0
BLOCK_RECORD
  5
1F
330
1
100
AcDbSymbolTableRecord
100
AcDbBlockTableRecord
  2
*Model_Space
340
22
 70
     0
280
     1
281
     0
  0
BLOCK_RECORD
  5
1B
330
1
100
AcDbSymbolTableRecord
100
AcDbBlockTableRecord
  2
*Paper_Space
340
1E
 70
     0
280
     1
281
     0
  0
BLOCK_RECORD
  5
23
330
1
100
AcDbSymbolTableRecord
100
AcDbBlockTableRecord
  2
*Paper_Space0
340
26
 70
     0
280
     1
281
     0
  0
BLOCK_RECORD
  5
93
330
1
100
AcDbSymbolTableRecord
100
AcDbBlockTableRecord
  2
block 2
340
0
102
{BLKREFS
331
94
102
}
 70
     0
280
     1
281
     0
  0
BLOCK_RECORD
  5
A1
330
1
100
AcDbSymbolTableRecord
100
AcDbBlockTableRecord
  2
block 3
340
0
102
{BLKREFS
331
A2
102
}
 70
     0
280
     1
281
     0
  0
BLOCK_RECORD
  5
B6
330
1
100
AcDbSymbolTableRecord
100
AcDbBlockTableRecord
  2
block 4
340
0
102
{BLKREFS
331
B7
102
}
 70
     0
280
     1
281
     0
  0
BLOCK_RECORD
  5
C7
330
1
100
AcDbSymbolTableRecord
100
AcDbBlockTableRecord
  2
block 5
340
0
102
{BLKREFS
331
C8
102
}
 70
     0
280
     1
281
     0
  0
BLOCK_RECORD
  5
DA
330
1
100
AcDbSymbolTableRecord
100
AcDbBlockTableRecord
  2
block 6
340
0
102
{BLKREFS
331
DB
102
}
 70
     0
280
     1
281
     0
  0
BLOCK_RECORD
  5
F2
330
1
100
AcDbSymbolTableRecord
100
AcDbBlockTableRecord
  2
block 7
340
0
102
{BLKREFS
331
F3
102
}
 70
     0
280
     1
281
     0
  0
ENDTAB
  0
ENDSEC
  0
SECTION
  2
BLOCKS
  0
BLOCK
  5
20
330
1F
100
AcDbEntity
  8
0
100
AcDbBlockBegin
  2
*Model_Space
 70
     0
 10
0.0
 20
0.0
 30
0.0
  3
*Model_Space
  1

  0
ENDBLK
  5
21
330
1F
100
AcDbEntity
  8
0
100
AcDbBlockEnd
  0
BLOCK
  5
1C
330
1B
100
AcDbEntity
 67
     1
  8
0
100
AcDbBlockBegin
  2
*Paper_Space
 70
     0
 10
0.0
 20
0.0
 30
0.0
  3
*Paper_Space
  1

  0
ENDBLK
  5
1D
330
1B
100
AcDbEntity
 67
     1
  8
0
100
AcDbBlockEnd
  0
BLOCK
  5
24
330
23
100
AcDbEntity
  8
0
100
AcDbBlockBegin
  2
*Paper_Space0
 70
     0
 10
0.0
 20
0.0
 30
0.0
  3
*Paper_Space0
  1

  0
ENDBLK
  5
25
330
23
100
AcDbEntity
  8
0
100
AcDbBlockEnd
  0
BLOCK
  5
95
330
93
100
AcDbEntity
  8
0
100
AcDbBlockBegin
  2
block 2
 70
     0
 10
0.0
 20
0.0
 30
0.0
  3
block 2
  1

  0
SPLINE
  5
97
330
93
100
AcDbEntity
  8
_U+30EC_U+30A4_U+30E4_U+30FC 1
370
     0
100
AcDbSpline
210
0.0
220
0.0
230
1.0
 70
    11
 71
     3
 72
    26
 73
    22
 74
     0
 42
0.0000000001
 43
0.0000000001
 12
1.0
 22
0.0
 32
0.0
 13
1.0
 23
0.0
 33
0.0
 40
0.0
 40
0.0
 40
0.0
 40
0.0
 40
1.0
 40
1.0
 40
1.0
 40
2.0
 40
2.0
 40
2.0
 40
3.0
 40
3.0
 40
3.0
 40
4.0
 40
4.0
 40
4.0
 40
5.0
 40
5.0
 40
5.0
 40
6.0
 40
6.0
 40
6.0
 40
7.0
 40
7.0
 40
7.0
 40
7.0
 10
120.8163980817751
 20
-140.5604125625161
 30
0.0
 10
120.8163980817751
 20
-140.5604125625161
 30
0.0
 10
119.7122449787525
 20
-140.5604125625161
 30
0.0
 10
119.7122449787525
 20
-140.5604125625161
 30
0.0
 10
119.7122449787525
 20
-140.5604125625161
 30
0.0
 10
119.7122449787525
 20
-140.9131903402057
 30
0.0
 10
119.7122449787525
 20
-140.9131903402057
 30
0.0
 10
119.7122449787525
 20
-140.9131903402057
 30
0.0
 10
119.5641058728868
 20
-140.9131903402057
 30
0.0
 10
119.5641058728868
 20
-140.9131903402057
 30
0.0
 10
119.5492919623002
 20
-140.5581732504507
 30
0.0
 10
119.3863389458479
 20
-140.5083916206889
 30
0.0
 10
119.2719617757376
 20
-140.4768689969988
 30
0.0
 10
119.2719617757376
 20
-140.4768689969988
 30
0.0
 10
119.2719617757376
 20
-140.320806171517
 30
0.0
 10
119.2719617757376
 20
-140.320806171517
 30
0.0
 10
119.2719617757376
 20
-140.320806171517
 30
0.0
 10
120.8163980817751
 20
-140.320806171517
 30
0.0
 10
120.8163980817751
 20
-140.320806171517
 30
0.0
 10
120.8163980817751
 20
-140.320806171517
 30
0.0
 10
120.8163980817751
 20
-140.5604125625161
 30
0.0
 10
120.8163980817751
 20
-140.5604125625161
 30
0.0
  0
HATCH
  5
98
330
93
100
AcDbEntity
  8
_U+30EC_U+30A4_U+30E4_U+30FC 1
 62
   179
420
  2234388
100
AcDbHatch
 10
0.0
 20
0.0
 30
0.0
210
0.0
220
0.0
230
1.0
  2
SOLID
 70
     1
 71
     0
 91
        1
 92
        1
 93
        1
 72
     4
 94
        3
 73
     0
 74
     1
 95
       26
 96
       22
 40
0.0
 40
0.0
 40
0.0
 40
0.0
 40
1.0
 40
1.0
 40
1.0
 40
2.0
 40
2.0
 40
2.0
 40
3.0
 40
3.0
 40
3.0
 40
4.0
 40
4.0
 40
4.0
 40
5.0
 40
5.0
 40
5.0
 40
6.0
 40
6.0
 40
6.0
 40
7.0
 40
7.0
 40
7.0
 40
7.0
 10
120.8163980817751
 20
-140.5604125625161
 10
120.8163980817751
 20
-140.5604125625161
 10
119.7122449787525
 20
-140.5604125625161
 10
119.7122449787525
 20
-140.5604125625161
 10
119.7122449787525
 20
-140.5604125625161
 10
119.7122449787525
 20
-140.9131903402057
 10
119.7122449787525
 20
-140.9131903402057
 10
119.7122449787525
 20
-140.9131903402057
 10
119.5641058728868
 20
-140.9131903402057
 10
119.5641058728868
 20
-140.9131903402057
 10
119.5492919623002
 20
-140.5581732504507
 10
119.3863389458479
 20
-140.5083916206889
 10
119.2719617757376
 20
-140.4768689969988
 10
119.2719617757376
 20
-140.4768689969988
 10
119.2719617757376
 20
-140.320806171517
 10
119.2719617757376
 20
-140.320806171517
 10
119.2719617757376
 20
-140.320806171517
 10
120.8163980817751
 20
-140.320806171517
 10
120.8163980817751
 20
-140.320806171517
 10
120.8163980817751
 20
-140.320806171517
 10
120.8163980817751
 20
-140.5604125625161
 10
120.8163980817751
 20
-140.5604125625161
 97
        0
 97
        0
 75
     2
 76
     1
 98
        0
  0
ENDBLK
  5
96
330
93
100
AcDbEntity
  8
0
100
AcDbBlockEnd
  0
BLOCK
  5
A3
330
A1
100
AcDbEntity
  8
0
100
AcDbBlockBegin
  2
block 3
 70
     0
 10
0.0
 20
0.0
 30
0.0
  3
block 3
  1

  0
SPLINE
  5
A5
330
A1
100
AcDbEntity
  8
_U+30EC_U+30A4_U+30E4_U+30FC 1
370
     0
100
AcDbSpline
210
0.0
220
0.0
230
1.0
 70
    11
 71
     3
 72
    26
 73
    22
 74
     0
 42
0.0000000001
 43
0.0000000001
 12
1.0
 22
0.0
 32
0.0
 13
1.0
 23
0.0
 33
0.0
 40
0.0
 40
0.0
 40
0.0
 40
0.0
 40
1.0
 40
1.0
 40
1.0
 40
2.0
 40
2.0
 40
2.0
 40
3.0
 40
3.0
 40
3.0
 40
4.0
 40
4.0
 40
4.0
 40
5.0
 40
5.0
 40
5.0
 40
6.0
 40
6.0
 40
6.0
 40
7.0
 40
7.0
 40
7.0
 40
7.0
 10
120.8163980817751
 20
-150.22786725845
 30
0.0
 10
120.8163980817751
 20
-150.22786725845
 30
0.0
 10
119.7122449787525
 20
-150.22786725845
 30
0.0
 10
119.7122449787525
 20
-150.22786725845
 30
0.0
 10
119.7122449787525
 20
-150.22786725845
 30
0.0
 10
119.7122449787525
 20
-150.580300526591
 30
0.0
 10
119.7122449787525
 20
-150.580300526591
 30
0.0
 10
119.7122449787525
 20
-150.580300526591
 30
0.0
 10
119.5641058728868
 20
-150.580300526591
 30
0.0
 10
119.5641058728868
 20
-150.580300526591
 30
0.0
 10
119.5492919623002
 20
-150.2254556916103
 30
0.0
 10
119.3863389458479
 20
-150.1758463166227
 30
0.0
 10
119.2719617757376
 20
-150.1441514381584
 30
0.0
 10
119.2719617757376
 20
-150.1441514381584
 30
0.0
 10
119.2719617757376
 20
-149.9880886126766
 30
0.0
 10
119.2719617757376
 20
-149.9880886126766
 30
0.0
 10
119.2719617757376
 20
-149.9880886126766
 30
0.0
 10
120.8163980817751
 20
-149.9880886126766
 30
0.0
 10
120.8163980817751
 20
-149.9880886126766
 30
0.0
 10
120.8163980817751
 20
-149.9880886126766
 30
0.0
 10
120.8163980817751
 20
-150.22786725845
 30
0.0
 10
120.8163980817751
 20
-150.22786725845
 30
0.0
  0
HATCH
  5
A6
330
A1
100
AcDbEntity
  8
_U+30EC_U+30A4_U+30E4_U+30FC 1
 62
   179
420
  2234388
100
AcDbHatch
 10
0.0
 20
0.0
 30
0.0
210
0.0
220
0.0
230
1.0
  2
SOLID
 70
     1
 71
     0
 91
        1
 92
        1
 93
        1
 72
     4
 94
        3
 73
     0
 74
     1
 95
       26
 96
       22
 40
0.0
 40
0.0
 40
0.0
 40
0.0
 40
1.0
 40
1.0
 40
1.0
 40
2.0
 40
2.0
 40
2.0
 40
3.0
 40
3.0
 40
3.0
 40
4.0
 40
4.0
 40
4.0
 40
5.0
 40
5.0
 40
5.0
 40
6.0
 40
6.0
 40
6.0
 40
7.0
 40
7.0
 40
7.0
 40
7.0
 10
120.8163980817751
 20
-150.22786725845
 10
120.8163980817751
 20
-150.22786725845
 10
119.7122449787525
 20
-150.22786725845
 10
119.7122449787525
 20
-150.22786725845
 10
119.7122449787525
 20
-150.22786725845
 10
119.7122449787525
 20
-150.580300526591
 10
119.7122449787525
 20
-150.580300526591
 10
119.7122449787525
 20
-150.580300526591
 10
119.5641058728868
 20
-150.580300526591
 10
119.5641058728868
 20
-150.580300526591
 10
119.5492919623002
 20
-150.2254556916103
 10
119.3863389458479
 20
-150.1758463166227
 10
119.2719617757376
 20
-150.1441514381584
 10
119.2719617757376
 20
-150.1441514381584
 10
119.2719617757376
 20
-149.9880886126766
 10
119.2719617757376
 20
-149.9880886126766
 10
119.2719617757376
 20
-149.9880886126766
 10
120.8163980817751
 20
-149.9880886126766
 10
120.8163980817751
 20
-149.9880886126766
 10
120.8163980817751
 20
-149.9880886126766
 10
120.8163980817751
 20
-150.22786725845
 10
120.8163980817751
 20
-150.22786725845
 97
        0
 97
        0
 75
     2
 76
     1
 98
        0
  0
SPLINE
  5
A7
330
A1
100
AcDbEntity
  8
_U+30EC_U+30A4_U+30E4_U+30FC 1
370
     0
100
AcDbSpline
210
0.0
220
0.0
230
1.0
 70
    11
 71
     3
 72
    29
 73
    25
 74
     0
 42
0.0000000001
 43
0.0000000001
 12
1.0
 22
0.0
 32
0.0
 13
1.0
 23
0.0
 33
0.0
 40
0.0
 40
0.0
 40
0.0
 40
0.0
 40
1.0
 40
1.0
 40
1.0
 40
2.0
 40
2.0
 40
2.0
 40
3.0
 40
3.0
 40
3.0
 40
4.0
 40
4.0
 40
4.0
 40
5.0
 40
5.0
 40
5.0
 40
6.0
 40
6.0
 40
6.0
 40
7.0
 40
7.0
 40
7.0
 40
8.0
 40
8.0
 40
8.0
 40
8.0
 10
120.6386311547362
 20
-148.4929171720782
 30
0.0
 10
120.8480929602394
 20
-148.608327870834
 30
0.0
 10
120.8670409854083
 20
-148.7936740079405
 30
0.0
 10
120.8670409854083
 20
-148.918041954958
 30
0.0
 10
120.8670409854083
 20
-149.0896077101234
 30
0.0
 10
120.8205321963574
 20
-149.2411919114744
 30
0.0
 10
120.6386311547362
 20
-149.3428222282893
 30
0.0
 10
120.4439832598196
 20
-149.4537543029143
 30
0.0
 10
120.2069606904344
 20
-149.4740803662773
 30
0.0
 10
120.0443521835306
 20
-149.4740803662773
 30
0.0
 10
119.9003471922471
 20
-149.4740803662773
 30
0.0
 10
119.6485107122754
 20
-149.456165869754
 30
0.0
 10
119.4497287027765
 20
-149.3428222282893
 30
0.0
 10
119.2468125786952
 20
-149.227756039082
 30
0.0
 10
119.2233859293955
 20
-149.055845774368
 30
0.0
 10
119.2233859293955
 20
-148.918041954958
 30
0.0
 10
119.2233859293955
 20
-148.7481987475352
 30
0.0
 10
119.2678276611553
 20
-148.594547488893
 30
0.0
 10
119.4497287027765
 20
-148.4929171720782
 30
0.0
 10
119.6423095404019
 20
-148.3864637215839
 30
0.0
 10
119.870719371074
 20
-148.3616590340901
 30
0.0
 10
120.0443521835306
 20
-148.3616590340901
 30
0.0
 10
120.2155734291475
 20
-148.3616590340901
 30
0.0
 10
120.4460503171107
 20
-148.3843966642928
 30
0.0
 10
120.6386311547362
 20
-148.4929171720782
 30
0.0
  0
SPLINE
  5
A8
330
A1
100
AcDbEntity
  8
_U+30EC_U+30A4_U+30E4_U+30FC 1
370
     0
100
AcDbSpline
210
0.0
220
0.0
230
1.0
 70
    11
 71
     3
 72
    17
 73
    13
 74
     0
 42
0.0000000001
 43
0.0000000001
 12
1.0
 22
0.0
 32
0.0
 13
1.0
 23
0.0
 33
0.0
 40
0.0
 40
0.0
 40
0.0
 40
0.0
 40
1.0
 40
1.0
 40
1.0
 40
2.0
 40
2.0
 40
2.0
 40
3.0
 40
3.0
 40
3.0
 40
4.0
 40
4.0
 40
4.0
 40
4.0
 10
119.415966767021
 20
-148.918041954958
 30
0.0
 10
119.415966767021
 20
-149.1846923455163
 30
0.0
 10
119.6994981254571
 20
-149.2343017205039
 30
0.0
 10
120.0443521835306
 20
-149.2343017205039
 30
0.0
 10
120.3637125350132
 20
-149.2343017205039
 30
0.0
 10
120.6723930904916
 20
-149.1960611606177
 30
0.0
 10
120.6723930904916
 20
-148.918041954958
 30
0.0
 10
120.6723930904916
 20
-148.6534586216908
 30
0.0
 10
120.3912732988952
 20
-148.6014376798635
 30
0.0
 10
120.0443521835306
 20
-148.6014376798635
 30
0.0
 10
119.7246473224994
 20
-148.6014376798635
 30
0.0
 10
119.415966767021
 20
-148.6420898065895
 30
0.0
 10
119.415966767021
 20
-148.918041954958
 30
0.0
  0
HATCH
  5
A9
330
A1
100
AcDbEntity
  8
_U+30EC_U+30A4_U+30E4_U+30FC 1
 62
   179
420
  2234388
100
AcDbHatch
 10
0.0
 20
0.0
 30
0.0
210
0.0
220
0.0
230
1.0
  2
SOLID
 70
     1
 71
     0
 91
        2
 92
        1
 93
        1
 72
     4
 94
        3
 73
     0
 74
     1
 95
       29
 96
       25
 40
0.0
 40
0.0
 40
0.0
 40
0.0
 40
1.0
 40
1.0
 40
1.0
 40
2.0
 40
2.0
 40
2.0
 40
3.0
 40
3.0
 40
3.0
 40
4.0
 40
4.0
 40
4.0
 40
5.0
 40
5.0
 40
5.0
 40
6.0
 40
6.0
 40
6.0
 40
7.0
 40
7.0
 40
7.0
 40
8.0
 40
8.0
 40
8.0
 40
8.0
 10
120.6386311547362
 20
-148.4929171720782
 10
120.8480929602394
 20
-148.608327870834
 10
120.8670409854083
 20
-148.7936740079405
 10
120.8670409854083
 20
-148.918041954958
 10
120.8670409854083
 20
-149.0896077101234
 10
120.8205321963574
 20
-149.2411919114744
 10
120.6386311547362
 20
-149.3428222282893
 10
120.4439832598196
 20
-149.4537543029143
 10
120.2069606904344
 20
-149.4740803662773
 10
120.0443521835306
 20
-149.4740803662773
 10
119.9003471922471
 20
-149.4740803662773
 10
119.6485107122754
 20
-149.456165869754
 10
119.4497287027765
 20
-149.3428222282893
 10
119.2468125786952
 20
-149.227756039082
 10
119.2233859293955
 20
-149.055845774368
 10
119.2233859293955
 20
-148.918041954958
 10
119.2233859293955
 20
-148.7481987475352
 10
119.2678276611553
 20
-148.594547488893
 10
119.4497287027765
 20
-148.4929171720782
 10
119.6423095404019
 20
-148.3864637215839
 10
119.870719371074
 20
-148.3616590340901
 10
120.0443521835306
 20
-148.3616590340901
 10
120.2155734291475
 20
-148.3616590340901
 10
120.4460503171107
 20
-148.3843966642928
 10
120.6386311547362
 20
-148.4929171720782
 97
        0
 97
        0
 92
        1
 93
        1
 72
     4
 94
        3
 73
     0
 74
     1
 95
       17
 96
       13
 40
0.0
 40
0.0
 40
0.0
 40
0.0
 40
1.0
 40
1.0
 40
1.0
 40
2.0
 40
2.0
 40
2.0
 40
3.0
 40
3.0
 40
3.0
 40
4.0
 40
4.0
 40
4.0
 40
4.0
 10
119.415966767021
 20
-148.918041954958
 10
119.415966767021
 20
-149.1846923455163
 10
119.6994981254571
 20
-149.2343017205039
 10
120.0443521835306
 20
-149.2343017205039
 10
120.3637125350132
 20
-149.2343017205039
 10
120.6723930904916
 20
-149.1960611606177
 10
120.6723930904916
 20
-148.918041954958
 10
120.6723930904916
 20
-148.6534586216908
 10
120.3912732988952
 20
-148.6014376798635
 10
120.0443521835306
 20
-148.6014376798635
 10
119.7246473224994
 20
-148.6014376798635
 10
119.415966767021
 20
-148.6420898065895
 10
119.415966767021
 20
-148.918041954958
 97
        0
 97
        0
 75
     2
 76
     1
 98
        0
  0
ENDBLK
  5
A4
330
A1
100
AcDbEntity
  8
0
100
AcDbBlockEnd
  0
BLOCK
  5
B8
330
B6
100
AcDbEntity
  8
0
100
AcDbBlockBegin
  2
block 4
 70
     0
 10
0.0
 20
0.0
 30
0.0
  3
block 4
  1

  0
SPLINE
  5
BA
330
B6
100
AcDbEntity
  8
_U+30EC_U+30A4_U+30E4_U+30FC 1
370
     0
100
AcDbSpline
210
0.0
220
0.0
230
1.0
 70
    11
 71
     3
 72
    26
 73
    22
 74
     0
 42
0.0000000001
 43
0.0000000001
 12
1.0
 22
0.0
 32
0.0
 13
1.0
 23
0.0
 33
0.0
 40
0.0
 40
0.0
 40
0.0
 40
0.0
 40
1.0
 40
1.0
 40
1.0
 40
2.0
 40
2.0
 40
2.0
 40
3.0
 40
3.0
 40
3.0
 40
4.0
 40
4.0
 40
4.0
 40
5.0
 40
5.0
 40
5.0
 40
6.0
 40
6.0
 40
6.0
 40
7.0
 40
7.0
 40
7.0
 40
7.0
 10
97.44194197867772
 20
-158.2494275863057
 30
0.0
 10
97.44194197867772
 20
-158.2494275863057
 30
0.0
 10
97.44194197867772
 20
-157.1452744832831
 30
0.0
 10
97.44194197867772
 20
-157.1452744832831
 30
0.0
 10
97.44194197867772
 20
-157.1452744832831
 30
0.0
 10
97.08950871053665
 20
-157.1452744832831
 30
0.0
 10
97.08950871053665
 20
-157.1452744832831
 30
0.0
 10
97.08950871053665
 20
-157.1452744832831
 30
0.0
 10
97.08950871053665
 20
-156.9971353774174
 30
0.0
 10
97.08950871053665
 20
-156.9971353774174
 30
0.0
 10
97.44435354551739
 20
-156.9823214668308
 30
0.0
 10
97.49396292050498
 20
-156.8193684503785
 30
0.0
 10
97.52565779896929
 20
-156.7049912802682
 30
0.0
 10
97.52565779896929
 20
-156.7049912802682
 30
0.0
 10
97.6817206244511
 20
-156.7049912802682
 30
0.0
 10
97.6817206244511
 20
-156.7049912802682
 30
0.0
 10
97.6817206244511
 20
-156.7049912802682
 30
0.0
 10
97.6817206244511
 20
-158.2494275863057
 30
0.0
 10
97.6817206244511
 20
-158.2494275863057
 30
0.0
 10
97.6817206244511
 20
-158.2494275863057
 30
0.0
 10
97.44194197867772
 20
-158.2494275863057
 30
0.0
 10
97.44194197867772
 20
-158.2494275863057
 30
0.0
  0
HATCH
  5
BB
330
B6
100
AcDbEntity
  8
_U+30EC_U+30A4_U+30E4_U+30FC 1
 62
   179
420
  2234388
100
AcDbHatch
 10
0.0
 20
0.0
 30
0.0
210
0.0
220
0.0
230
1.0
  2
SOLID
 70
     1
 71
     0
 91
        1
 92
        1
 93
        1
 72
     4
 94
        3
 73
     0
 74
     1
 95
       26
 96
       22
 40
0.0
 40
0.0
 40
0.0
 40
0.0
 40
1.0
 40
1.0
 40
1.0
 40
2.0
 40
2.0
 40
2.0
 40
3.0
 40
3.0
 40
3.0
 40
4.0
 40
4.0
 40
4.0
 40
5.0
 40
5.0
 40
5.0
 40
6.0
 40
6.0
 40
6.0
 40
7.0
 40
7.0
 40
7.0
 40
7.0
 10
97.44194197867772
 20
-158.2494275863057
 10
97.44194197867772
 20
-158.2494275863057
 10
97.44194197867772
 20
-157.1452744832831
 10
97.44194197867772
 20
-157.1452744832831
 10
97.44194197867772
 20
-157.1452744832831
 10
97.08950871053665
 20
-157.1452744832831
 10
97.08950871053665
 20
-157.1452744832831
 10
97.08950871053665
 20
-157.1452744832831
 10
97.08950871053665
 20
-156.9971353774174
 10
97.08950871053665
 20
-156.9971353774174
 10
97.44435354551739
 20
-156.9823214668308
 10
97.49396292050498
 20
-156.8193684503785
 10
97.52565779896929
 20
-156.7049912802682
 10
97.52565779896929
 20
-156.7049912802682
 10
97.6817206244511
 20
-156.7049912802682
 10
97.6817206244511
 20
-156.7049912802682
 10
97.6817206244511
 20
-156.7049912802682
 10
97.6817206244511
 20
-158.2494275863057
 10
97.6817206244511
 20
-158.2494275863057
 10
97.6817206244511
 20
-158.2494275863057
 10
97.44194197867772
 20
-158.2494275863057
 10
97.44194197867772
 20
-158.2494275863057
 97
        0
 97
        0
 75
     2
 76
     1
 98
        0
  0
SPLINE
  5
BC
330
B6
100
AcDbEntity
  8
_U+30EC_U+30A4_U+30E4_U+30FC 1
370
     0
100
AcDbSpline
210
0.0
220
0.0
230
1.0
 70
    11
 71
     3
 72
    29
 73
    25
 74
     0
 42
0.0000000001
 43
0.0000000001
 12
1.0
 22
0.0
 32
0.0
 13
1.0
 23
0.0
 33
0.0
 40
0.0
 40
0.0
 40
0.0
 40
0.0
 40
1.0
 40
1.0
 40
1.0
 40
2.0
 40
2.0
 40
2.0
 40
3.0
 40
3.0
 40
3.0
 40
4.0
 40
4.0
 40
4.0
 40
5.0
 40
5.0
 40
5.0
 40
6.0
 40
6.0
 40
6.0
 40
7.0
 40
7.0
 40
7.0
 40
8.0
 40
8.0
 40
8.0
 40
8.0
 10
99.17689206504953
 20
-158.0716606592668
 30
0.0
 10
99.06148136629366
 20
-158.28112246477
 30
0.0
 10
98.87613522918723
 20
-158.3000704899389
 30
0.0
 10
98.7517672821697
 20
-158.3000704899389
 30
0.0
 10
98.58020152700426
 20
-158.3000704899389
 30
0.0
 10
98.42861732565326
 20
-158.253561700888
 30
0.0
 10
98.3269870088384
 20
-158.0716606592668
 30
0.0
 10
98.21605493421335
 20
-157.8770127643502
 30
0.0
 10
98.19572887085037
 20
-157.6403347045135
 30
0.0
 10
98.19572887085037
 20
-157.4773816880612
 30
0.0
 10
98.19572887085037
 20
-157.3333766967778
 30
0.0
 10
98.2139878769222
 20
-157.081540216806
 30
0.0
 10
98.3269870088384
 20
-156.8827582073071
 30
0.0
 10
98.44205319804574
 20
-156.6798420832259
 30
0.0
 10
98.61396346275971
 20
-156.6564154339262
 30
0.0
 10
98.7517672821697
 20
-156.6564154339262
 30
0.0
 10
98.92161048959252
 20
-156.6564154339262
 30
0.0
 10
99.07526174823467
 20
-156.7008571656859
 30
0.0
 10
99.17689206504953
 20
-156.8827582073071
 30
0.0
 10
99.28334551554376
 20
-157.0753390449325
 30
0.0
 10
99.30815020303756
 20
-157.3037488756046
 30
0.0
 10
99.30815020303756
 20
-157.4773816880612
 30
0.0
 10
99.30815020303756
 20
-157.6486029336781
 30
0.0
 10
99.2854125728349
 20
-157.8790798216413
 30
0.0
 10
99.17689206504953
 20
-158.0716606592668
 30
0.0
  0
SPLINE
  5
BD
330
B6
100
AcDbEntity
  8
_U+30EC_U+30A4_U+30E4_U+30FC 1
370
     0
100
AcDbSpline
210
0.0
220
0.0
230
1.0
 70
    11
 71
     3
 72
    17
 73
    13
 74
     0
 42
0.0000000001
 43
0.0000000001
 12
1.0
 22
0.0
 32
0.0
 13
1.0
 23
0.0
 33
0.0
 40
0.0
 40
0.0
 40
0.0
 40
0.0
 40
1.0
 40
1.0
 40
1.0
 40
2.0
 40
2.0
 40
2.0
 40
3.0
 40
3.0
 40
3.0
 40
4.0
 40
4.0
 40
4.0
 40
4.0
 10
98.7517672821697
 20
-156.8489962715516
 30
0.0
 10
98.48511689161137
 20
-156.8489962715516
 30
0.0
 10
98.43550751662377
 20
-157.1325276299877
 30
0.0
 10
98.43550751662377
 20
-157.4773816880612
 30
0.0
 10
98.43550751662377
 20
-157.7967420395439
 30
0.0
 10
98.47374807651003
 20
-158.1054225950223
 30
0.0
 10
98.7517672821697
 20
-158.1054225950223
 30
0.0
 10
99.01635061543689
 20
-158.1054225950223
 30
0.0
 10
99.06837155726416
 20
-157.8243028034259
 30
0.0
 10
99.06837155726416
 20
-157.4773816880612
 30
0.0
 10
99.06837155726416
 20
-157.15767682703
 30
0.0
 10
99.02771943053821
 20
-156.8489962715516
 30
0.0
 10
98.7517672821697
 20
-156.8489962715516
 30
0.0
  0
HATCH
  5
BE
330
B6
100
AcDbEntity
  8
_U+30EC_U+30A4_U+30E4_U+30FC 1
 62
   179
420
  2234388
100
AcDbHatch
 10
0.0
 20
0.0
 30
0.0
210
0.0
220
0.0
230
1.0
  2
SOLID
 70
     1
 71
     0
 91
        2
 92
        1
 93
        1
 72
     4
 94
        3
 73
     0
 74
     1
 95
       29
 96
       25
 40
0.0
 40
0.0
 40
0.0
 40
0.0
 40
1.0
 40
1.0
 40
1.0
 40
2.0
 40
2.0
 40
2.0
 40
3.0
 40
3.0
 40
3.0
 40
4.0
 40
4.0
 40
4.0
 40
5.0
 40
5.0
 40
5.0
 40
6.0
 40
6.0
 40
6.0
 40
7.0
 40
7.0
 40
7.0
 40
8.0
 40
8.0
 40
8.0
 40
8.0
 10
99.17689206504953
 20
-158.0716606592668
 10
99.06148136629366
 20
-158.28112246477
 10
98.87613522918723
 20
-158.3000704899389
 10
98.7517672821697
 20
-158.3000704899389
 10
98.58020152700426
 20
-158.3000704899389
 10
98.42861732565326
 20
-158.253561700888
 10
98.3269870088384
 20
-158.0716606592668
 10
98.21605493421335
 20
-157.8770127643502
 10
98.19572887085037
 20
-157.6403347045135
 10
98.19572887085037
 20
-157.4773816880612
 10
98.19572887085037
 20
-157.3333766967778
 10
98.2139878769222
 20
-157.081540216806
 10
98.3269870088384
 20
-156.8827582073071
 10
98.44205319804574
 20
-156.6798420832259
 10
98.61396346275971
 20
-156.6564154339262
 10
98.7517672821697
 20
-156.6564154339262
 10
98.92161048959252
 20
-156.6564154339262
 10
99.07526174823467
 20
-156.7008571656859
 10
99.17689206504953
 20
-156.8827582073071
 10
99.28334551554376
 20
-157.0753390449325
 10
99.30815020303756
 20
-157.3037488756046
 10
99.30815020303756
 20
-157.4773816880612
 10
99.30815020303756
 20
-157.6486029336781
 10
99.2854125728349
 20
-157.8790798216413
 10
99.17689206504953
 20
-158.0716606592668
 97
        0
 97
        0
 92
        1
 93
        1
 72
     4
 94
        3
 73
     0
 74
     1
 95
       17
 96
       13
 40
0.0
 40
0.0
 40
0.0
 40
0.0
 40
1.0
 40
1.0
 40
1.0
 40
2.0
 40
2.0
 40
2.0
 40
3.0
 40
3.0
 40
3.0
 40
4.0
 40
4.0
 40
4.0
 40
4.0
 10
98.7517672821697
 20
-156.8489962715516
 10
98.48511689161137
 20
-156.8489962715516
 10
98.43550751662377
 20
-157.1325276299877
 10
98.43550751662377
 20
-157.4773816880612
 10
98.43550751662377
 20
-157.7967420395439
 10
98.47374807651003
 20
-158.1054225950223
 10
98.7517672821697
 20
-158.1054225950223
 10
99.01635061543689
 20
-158.1054225950223
 10
99.06837155726416
 20
-157.8243028034259
 10
99.06837155726416
 20
-157.4773816880612
 10
99.06837155726416
 20
-157.15767682703
 10
99.02771943053821
 20
-156.8489962715516
 10
98.7517672821697
 20
-156.8489962715516
 97
        0
 97
        0
 75
     2
 76
     1
 98
        0
  0
ENDBLK
  5
B9
330
B6
100
AcDbEntity
  8
0
100
AcDbBlockEnd
  0
BLOCK
  5
C9
330
C7
100
AcDbEntity
  8
0
100
AcDbBlockBegin
  2
block 5
 70
     0
 10
0.0
 20
0.0
 30
0.0
  3
block 5
  1

  0
SPLINE
  5
CB
330
C7
100
AcDbEntity
  8
_U+30EC_U+30A4_U+30E4_U+30FC 1
370
     0
100
AcDbSpline
210
0.0
220
0.0
230
1.0
 70
    11
 71
     3
 72
    32
 73
    28
 74
     0
 42
0.0000000001
 43
0.0000000001
 12
1.0
 22
0.0
 32
0.0
 13
1.0
 23
0.0
 33
0.0
 40
0.0
 40
0.0
 40
0.0
 40
0.0
 40
1.0
 40
1.0
 40
1.0
 40
2.0
 40
2.0
 40
2.0
 40
3.0
 40
3.0
 40
3.0
 40
4.0
 40
4.0
 40
4.0
 40
5.0
 40
5.0
 40
5.0
 40
6.0
 40
6.0
 40
6.0
 40
7.0
 40
7.0
 40
7.0
 40
8.0
 40
8.0
 40
8.0
 40
9.0
 40
9.0
 40
9.0
 40
9.0
 10
90.16521129473301
 20
-158.3000704899389
 30
0.0
 10
89.61347925277025
 20
-158.3000704899389
 30
0.0
 10
89.6045220045086
 20
-157.7460991359107
 30
0.0
 10
89.6045220045086
 20
-157.5321587062767
 30
0.0
 10
89.6045220045086
 20
-157.3016818183135
 30
0.0
 10
89.62484806787157
 20
-156.654348376635
 30
0.0
 10
90.20586342145896
 20
-156.654348376635
 30
0.0
 10
90.39138181333966
 20
-156.654348376635
 30
0.0
 10
90.65355357976718
 20
-156.7242838149856
 30
0.0
 10
90.69420570649312
 20
-157.0563910197637
 30
0.0
 10
90.69420570649312
 20
-157.0563910197637
 30
0.0
 10
90.46596813059531
 20
-157.0563910197637
 30
0.0
 10
90.46596813059531
 20
-157.0563910197637
 30
0.0
 10
90.454599315494
 20
-156.9992024347085
 30
0.0
 10
90.42066512496429
 20
-156.8510633288428
 30
0.0
 10
90.20362410939354
 20
-156.8510633288428
 30
0.0
 10
89.89167071320416
 20
-156.8510633288428
 30
0.0
 10
89.8487792744128
 20
-157.1790364190386
 30
0.0
 10
89.83517114724607
 20
-157.3840196004109
 30
0.0
 10
89.93456215199554
 20
-157.3058159328958
 30
0.0
 10
90.00690915718577
 20
-157.2465602905495
 30
0.0
 10
90.20138479732813
 20
-157.2465602905495
 30
0.0
 10
90.39362112540508
 20
-157.2465602905495
 30
0.0
 10
90.71694333669576
 20
-157.3547362887863
 30
0.0
 10
90.71694333669576
 20
-157.7609130464973
 30
0.0
 10
90.71694333669576
 20
-158.0802733979799
 30
0.0
 10
90.50438094525585
 20
-158.3000704899389
 30
0.0
 10
90.16521129473301
 20
-158.3000704899389
 30
0.0
  0
SPLINE
  5
CC
330
C7
100
AcDbEntity
  8
_U+30EC_U+30A4_U+30E4_U+30FC 1
370
     0
100
AcDbSpline
210
0.0
220
0.0
230
1.0
 70
    11
 71
     3
 72
    17
 73
    13
 74
     0
 42
0.0000000001
 43
0.0000000001
 12
1.0
 22
0.0
 32
0.0
 13
1.0
 23
0.0
 33
0.0
 40
0.0
 40
0.0
 40
0.0
 40
0.0
 40
1.0
 40
1.0
 40
1.0
 40
2.0
 40
2.0
 40
2.0
 40
3.0
 40
3.0
 40
3.0
 40
4.0
 40
4.0
 40
4.0
 40
4.0
 10
90.18329804603057
 20
-157.4412081854661
 30
0.0
 10
89.90286727353123
 20
-157.4412081854661
 30
0.0
 10
89.86221514680528
 20
-157.6527370482604
 30
0.0
 10
89.86221514680528
 20
-157.7691812756619
 30
0.0
 10
89.86221514680528
 20
-157.9448811454096
 30
0.0
 10
89.96401771839442
 20
-158.1078341618619
 30
0.0
 10
90.16073267060219
 20
-158.1078341618619
 30
0.0
 10
90.28957924175053
 20
-158.1078341618619
 30
0.0
 10
90.47716469092238
 20
-158.0485785195156
 30
0.0
 10
90.47716469092238
 20
-157.7629801037884
 30
0.0
 10
90.47716469092238
 20
-157.5387043876987
 30
0.0
 10
90.32799205641106
 20
-157.4412081854661
 30
0.0
 10
90.18329804603057
 20
-157.4412081854661
 30
0.0
  0
HATCH
  5
CD
330
C7
100
AcDbEntity
  8
_U+30EC_U+30A4_U+30E4_U+30FC 1
 62
   179
420
  2234388
100
AcDbHatch
 10
0.0
 20
0.0
 30
0.0
210
0.0
220
0.0
230
1.0
  2
SOLID
 70
     1
 71
     0
 91
        2
 92
        1
 93
        1
 72
     4
 94
        3
 73
     0
 74
     1
 95
       32
 96
       28
 40
0.0
 40
0.0
 40
0.0
 40
0.0
 40
1.0
 40
1.0
 40
1.0
 40
2.0
 40
2.0
 40
2.0
 40
3.0
 40
3.0
 40
3.0
 40
4.0
 40
4.0
 40
4.0
 40
5.0
 40
5.0
 40
5.0
 40
6.0
 40
6.0
 40
6.0
 40
7.0
 40
7.0
 40
7.0
 40
8.0
 40
8.0
 40
8.0
 40
9.0
 40
9.0
 40
9.0
 40
9.0
 10
90.16521129473301
 20
-158.3000704899389
 10
89.61347925277025
 20
-158.3000704899389
 10
89.6045220045086
 20
-157.7460991359107
 10
89.6045220045086
 20
-157.5321587062767
 10
89.6045220045086
 20
-157.3016818183135
 10
89.62484806787157
 20
-156.654348376635
 10
90.20586342145896
 20
-156.654348376635
 10
90.39138181333966
 20
-156.654348376635
 10
90.65355357976718
 20
-156.7242838149856
 10
90.69420570649312
 20
-157.0563910197637
 10
90.69420570649312
 20
-157.0563910197637
 10
90.46596813059531
 20
-157.0563910197637
 10
90.46596813059531
 20
-157.0563910197637
 10
90.454599315494
 20
-156.9992024347085
 10
90.42066512496429
 20
-156.8510633288428
 10
90.20362410939354
 20
-156.8510633288428
 10
89.89167071320416
 20
-156.8510633288428
 10
89.8487792744128
 20
-157.1790364190386
 10
89.83517114724607
 20
-157.3840196004109
 10
89.93456215199554
 20
-157.3058159328958
 10
90.00690915718577
 20
-157.2465602905495
 10
90.20138479732813
 20
-157.2465602905495
 10
90.39362112540508
 20
-157.2465602905495
 10
90.71694333669576
 20
-157.3547362887863
 10
90.71694333669576
 20
-157.7609130464973
 10
90.71694333669576
 20
-158.0802733979799
 10
90.50438094525585
 20
-158.3000704899389
 10
90.16521129473301
 20
-158.3000704899389
 97
        0
 97
        0
 92
        1
 93
        1
 72
     4
 94
        3
 73
     0
 74
     1
 95
       17
 96
       13
 40
0.0
 40
0.0
 40
0.0
 40
0.0
 40
1.0
 40
1.0
 40
1.0
 40
2.0
 40
2.0
 40
2.0
 40
3.0
 40
3.0
 40
3.0
 40
4.0
 40
4.0
 40
4.0
 40
4.0
 10
90.18329804603057
 20
-157.4412081854661
 10
89.90286727353123
 20
-157.4412081854661
 10
89.86221514680528
 20
-157.6527370482604
 10
89.86221514680528
 20
-157.7691812756619
 10
89.86221514680528
 20
-157.9448811454096
 10
89.96401771839442
 20
-158.1078341618619
 10
90.16073267060219
 20
-158.1078341618619
 10
90.28957924175053
 20
-158.1078341618619
 10
90.47716469092238
 20
-158.0485785195156
 10
90.47716469092238
 20
-157.7629801037884
 10
90.47716469092238
 20
-157.5387043876987
 10
90.32799205641106
 20
-157.4412081854661
 10
90.18329804603057
 20
-157.4412081854661
 97
        0
 97
        0
 75
     2
 76
     1
 98
        0
  0
ENDBLK
  5
CA
330
C7
100
AcDbEntity
  8
0
100
AcDbBlockEnd
  0
BLOCK
  5
DC
330
DA
100
AcDbEntity
  8
0
100
AcDbBlockBegin
  2
block 6
 70
     0
 10
0.0
 20
0.0
 30
0.0
  3
block 6
  1

  0
SPLINE
  5
DE
330
DA
100
AcDbEntity
  8
_U+30EC_U+30A4_U+30E4_U+30FC 1
370
     0
100
AcDbSpline
210
0.0
220
0.0
230
1.0
 70
    11
 71
     3
 72
    62
 73
    58
 74
     0
 42
0.0000000001
 43
0.0000000001
 12
1.0
 22
0.0
 32
0.0
 13
1.0
 23
0.0
 33
0.0
 40
0.0
 40
0.0
 40
0.0
 40
0.0
 40
1.0
 40
1.0
 40
1.0
 40
2.0
 40
2.0
 40
2.0
 40
3.0
 40
3.0
 40
3.0
 40
4.0
 40
4.0
 40
4.0
 40
5.0
 40
5.0
 40
5.0
 40
6.0
 40
6.0
 40
6.0
 40
7.0
 40
7.0
 40
7.0
 40
8.0
 40
8.0
 40
8.0
 40
9.0
 40
9.0
 40
9.0
 40
10.0
 40
10.0
 40
10.0
 40
11.0
 40
11.0
 40
11.0
 40
12.0
 40
12.0
 40
12.0
 40
13.0
 40
13.0
 40
13.0
 40
14.0
 40
14.0
 40
14.0
 40
15.0
 40
15.0
 40
15.0
 40
16.0
 40
16.0
 40
16.0
 40
17.0
 40
17.0
 40
17.0
 40
18.0
 40
18.0
 40
18.0
 40
19.0
 40
19.0
 40
19.0
 40
19.0
 10
101.9849893950767
 20
-138.2999131598695
 30
0.0
 10
101.8833590782618
 20
-138.2999131598695
 30
0.0
 10
101.6504706234589
 20
-138.2788980774095
 30
0.0
 10
101.5171454281797
 20
-138.0926906664317
 30
0.0
 10
101.437908232019
 20
-137.9805528083868
 30
0.0
 10
101.4334296078882
 20
-137.8811618036374
 30
0.0
 10
101.4289509837573
 20
-137.7965847094745
 30
0.0
 10
101.4289509837573
 20
-137.7965847094745
 30
0.0
 10
101.6639064958514
 20
-137.7965847094745
 30
0.0
 10
101.6639064958514
 20
-137.7965847094745
 30
0.0
 10
101.6663180626911
 20
-137.8706542624074
 30
0.0
 10
101.6776868777924
 20
-138.1054375197271
 30
0.0
 10
101.9805107709459
 20
-138.1054375197271
 30
0.0
 10
102.127616348166
 20
-138.1054375197271
 30
0.0
 10
102.2902248550698
 20
-138.0356743361508
 30
0.0
 10
102.2902248550698
 20
-137.8070922507045
 30
0.0
 10
102.2902248550698
 20
-137.6908202780773
 30
0.0
 10
102.2495727283439
 20
-137.642072176961
 30
0.0
 10
102.2158107925884
 20
-137.6103772984967
 30
0.0
 10
102.1365735964277
 20
-137.5363077455638
 30
0.0
 10
102.0122056494101
 20
-137.5237331470427
 30
0.0
 10
101.9532945166124
 20
-137.5237331470427
 30
0.0
 10
101.9329684532494
 20
-137.5237331470427
 30
0.0
 10
101.8947278933631
 20
-137.5258002043338
 30
0.0
 10
101.86510007219
 20
-137.5299343189161
 30
0.0
 10
101.86510007219
 20
-137.5299343189161
 30
0.0
 10
101.86510007219
 20
-137.3352864239995
 30
0.0
 10
101.86510007219
 20
-137.3352864239995
 30
0.0
 10
101.9057521989159
 20
-137.3416598506472
 30
0.0
 10
101.9512274593212
 20
-137.3438991627126
 30
0.0
 10
101.9577731407432
 20
-137.3438991627126
 30
0.0
 10
102.0280530886423
 20
-137.3438991627126
 30
0.0
 10
102.2406154800822
 20
-137.3227118254784
 30
0.0
 10
102.2406154800822
 20
-137.0856892560932
 30
0.0
 10
102.2406154800822
 20
-136.9080945838285
 30
0.0
 10
102.1004000938325
 20
-136.8529730560645
 30
0.0
 10
101.9829223377855
 20
-136.8529730560645
 30
0.0
 10
101.7000799984465
 20
-136.8529730560645
 30
0.0
 10
101.6911227501849
 20
-137.0856892560932
 30
0.0
 10
101.686644126054
 20
-137.1576917517349
 30
0.0
 10
101.686644126054
 20
-137.1576917517349
 30
0.0
 10
101.4696031104833
 20
-137.1576917517349
 30
0.0
 10
101.4696031104833
 20
-137.1576917517349
 30
0.0
 10
101.4785603587449
 20
-137.0328070403946
 30
0.0
 10
101.5078436703696
 20
-136.6562581038568
 30
0.0
 10
101.996358210178
 20
-136.6562581038568
 30
0.0
 10
102.2361368559514
 20
-136.6562581038568
 30
0.0
 10
102.4938299982481
 20
-136.7832098724882
 30
0.0
 10
102.4938299982481
 20
-137.0793158294454
 30
0.0
 10
102.4938299982481
 20
-137.2655232404232
 30
0.0
 10
102.3918551718847
 20
-137.3480332772949
 30
0.0
 10
102.285746230939
 20
-137.4093559769324
 30
0.0
 10
102.3512030451587
 20
-137.4369167408144
 30
0.0
 10
102.5458509400754
 20
-137.517359720395
 30
0.0
 10
102.5458509400754
 20
-137.7945176521833
 30
0.0
 10
102.5458509400754
 20
-138.1329982836091
 30
0.0
 10
102.2812676068082
 20
-138.2999131598695
 30
0.0
 10
101.9849893950767
 20
-138.2999131598695
 30
0.0
  0
HATCH
  5
DF
330
DA
100
AcDbEntity
  8
_U+30EC_U+30A4_U+30E4_U+30FC 1
 62
   179
420
  2234388
100
AcDbHatch
 10
0.0
 20
0.0
 30
0.0
210
0.0
220
0.0
230
1.0
  2
SOLID
 70
     1
 71
     0
 91
        1
 92
        1
 93
        1
 72
     4
 94
        3
 73
     0
 74
     1
 95
       62
 96
       58
 40
0.0
 40
0.0
 40
0.0
 40
0.0
 40
1.0
 40
1.0
 40
1.0
 40
2.0
 40
2.0
 40
2.0
 40
3.0
 40
3.0
 40
3.0
 40
4.0
 40
4.0
 40
4.0
 40
5.0
 40
5.0
 40
5.0
 40
6.0
 40
6.0
 40
6.0
 40
7.0
 40
7.0
 40
7.0
 40
8.0
 40
8.0
 40
8.0
 40
9.0
 40
9.0
 40
9.0
 40
10.0
 40
10.0
 40
10.0
 40
11.0
 40
11.0
 40
11.0
 40
12.0
 40
12.0
 40
12.0
 40
13.0
 40
13.0
 40
13.0
 40
14.0
 40
14.0
 40
14.0
 40
15.0
 40
15.0
 40
15.0
 40
16.0
 40
16.0
 40
16.0
 40
17.0
 40
17.0
 40
17.0
 40
18.0
 40
18.0
 40
18.0
 40
19.0
 40
19.0
 40
19.0
 40
19.0
 10
101.9849893950767
 20
-138.2999131598695
 10
101.8833590782618
 20
-138.2999131598695
 10
101.6504706234589
 20
-138.2788980774095
 10
101.5171454281797
 20
-138.0926906664317
 10
101.437908232019
 20
-137.9805528083868
 10
101.4334296078882
 20
-137.8811618036374
 10
101.4289509837573
 20
-137.7965847094745
 10
101.4289509837573
 20
-137.7965847094745
 10
101.6639064958514
 20
-137.7965847094745
 10
101.6639064958514
 20
-137.7965847094745
 10
101.6663180626911
 20
-137.8706542624074
 10
101.6776868777924
 20
-138.1054375197271
 10
101.9805107709459
 20
-138.1054375197271
 10
102.127616348166
 20
-138.1054375197271
 10
102.2902248550698
 20
-138.0356743361508
 10
102.2902248550698
 20
-137.8070922507045
 10
102.2902248550698
 20
-137.6908202780773
 10
102.2495727283439
 20
-137.642072176961
 10
102.2158107925884
 20
-137.6103772984967
 10
102.1365735964277
 20
-137.5363077455638
 10
102.0122056494101
 20
-137.5237331470427
 10
101.9532945166124
 20
-137.5237331470427
 10
101.9329684532494
 20
-137.5237331470427
 10
101.8947278933631
 20
-137.5258002043338
 10
101.86510007219
 20
-137.5299343189161
 10
101.86510007219
 20
-137.5299343189161
 10
101.86510007219
 20
-137.3352864239995
 10
101.86510007219
 20
-137.3352864239995
 10
101.9057521989159
 20
-137.3416598506472
 10
101.9512274593212
 20
-137.3438991627126
 10
101.9577731407432
 20
-137.3438991627126
 10
102.0280530886423
 20
-137.3438991627126
 10
102.2406154800822
 20
-137.3227118254784
 10
102.2406154800822
 20
-137.0856892560932
 10
102.2406154800822
 20
-136.9080945838285
 10
102.1004000938325
 20
-136.8529730560645
 10
101.9829223377855
 20
-136.8529730560645
 10
101.7000799984465
 20
-136.8529730560645
 10
101.6911227501849
 20
-137.0856892560932
 10
101.686644126054
 20
-137.1576917517349
 10
101.686644126054
 20
-137.1576917517349
 10
101.4696031104833
 20
-137.1576917517349
 10
101.4696031104833
 20
-137.1576917517349
 10
101.4785603587449
 20
-137.0328070403946
 10
101.5078436703696
 20
-136.6562581038568
 10
101.996358210178
 20
-136.6562581038568
 10
102.2361368559514
 20
-136.6562581038568
 10
102.4938299982481
 20
-136.7832098724882
 10
102.4938299982481
 20
-137.0793158294454
 10
102.4938299982481
 20
-137.2655232404232
 10
102.3918551718847
 20
-137.3480332772949
 10
102.285746230939
 20
-137.4093559769324
 10
102.3512030451587
 20
-137.4369167408144
 10
102.5458509400754
 20
-137.517359720395
 10
102.5458509400754
 20
-137.7945176521833
 10
102.5458509400754
 20
-138.1329982836091
 10
102.2812676068082
 20
-138.2999131598695
 10
101.9849893950767
 20
-138.2999131598695
 97
        0
 97
        0
 75
     2
 76
     1
 98
        0
  0
SPLINE
  5
E0
330
DA
100
AcDbEntity
  8
_U+30EC_U+30A4_U+30E4_U+30FC 1
370
     0
100
AcDbSpline
210
0.0
220
0.0
230
1.0
 70
    11
 71
     3
 72
    26
 73
    22
 74
     0
 42
0.0000000001
 43
0.0000000001
 12
1.0
 22
0.0
 32
0.0
 13
1.0
 23
0.0
 33
0.0
 40
0.0
 40
0.0
 40
0.0
 40
0.0
 40
1.0
 40
1.0
 40
1.0
 40
2.0
 40
2.0
 40
2.0
 40
3.0
 40
3.0
 40
3.0
 40
4.0
 40
4.0
 40
4.0
 40
5.0
 40
5.0
 40
5.0
 40
6.0
 40
6.0
 40
6.0
 40
7.0
 40
7.0
 40
7.0
 40
7.0
 10
103.1997300631758
 20
-138.2492702562363
 30
0.0
 10
103.1997300631758
 20
-138.2492702562363
 30
0.0
 10
103.1997300631758
 20
-137.1449448984395
 30
0.0
 10
103.1997300631758
 20
-137.1449448984395
 30
0.0
 10
103.1997300631758
 20
-137.1449448984395
 30
0.0
 10
102.8472967950347
 20
-137.1449448984395
 30
0.0
 10
102.8472967950347
 20
-137.1449448984395
 30
0.0
 10
102.8472967950347
 20
-137.1449448984395
 30
0.0
 10
102.8472967950347
 20
-136.996978047348
 30
0.0
 10
102.8472967950347
 20
-136.996978047348
 30
0.0
 10
103.2021416300154
 20
-136.9821641367614
 30
0.0
 10
103.251751005003
 20
-136.8192111203091
 30
0.0
 10
103.2834458834673
 20
-136.7050062049731
 30
0.0
 10
103.2834458834673
 20
-136.7050062049731
 30
0.0
 10
103.4395087089491
 20
-136.7050062049731
 30
0.0
 10
103.4395087089491
 20
-136.7050062049731
 30
0.0
 10
103.4395087089491
 20
-136.7050062049731
 30
0.0
 10
103.4395087089491
 20
-138.2492702562363
 30
0.0
 10
103.4395087089491
 20
-138.2492702562363
 30
0.0
 10
103.4395087089491
 20
-138.2492702562363
 30
0.0
 10
103.1997300631758
 20
-138.2492702562363
 30
0.0
 10
103.1997300631758
 20
-138.2492702562363
 30
0.0
  0
HATCH
  5
E1
330
DA
100
AcDbEntity
  8
_U+30EC_U+30A4_U+30E4_U+30FC 1
 62
   179
420
  2234388
100
AcDbHatch
 10
0.0
 20
0.0
 30
0.0
210
0.0
220
0.0
230
1.0
  2
SOLID
 70
     1
 71
     0
 91
        1
 92
        1
 93
        1
 72
     4
 94
        3
 73
     0
 74
     1
 95
       26
 96
       22
 40
0.0
 40
0.0
 40
0.0
 40
0.0
 40
1.0
 40
1.0
 40
1.0
 40
2.0
 40
2.0
 40
2.0
 40
3.0
 40
3.0
 40
3.0
 40
4.0
 40
4.0
 40
4.0
 40
5.0
 40
5.0
 40
5.0
 40
6.0
 40
6.0
 40
6.0
 40
7.0
 40
7.0
 40
7.0
 40
7.0
 10
103.1997300631758
 20
-138.2492702562363
 10
103.1997300631758
 20
-138.2492702562363
 10
103.1997300631758
 20
-137.1449448984395
 10
103.1997300631758
 20
-137.1449448984395
 10
103.1997300631758
 20
-137.1449448984395
 10
102.8472967950347
 20
-137.1449448984395
 10
102.8472967950347
 20
-137.1449448984395
 10
102.8472967950347
 20
-137.1449448984395
 10
102.8472967950347
 20
-136.996978047348
 10
102.8472967950347
 20
-136.996978047348
 10
103.2021416300154
 20
-136.9821641367614
 10
103.251751005003
 20
-136.8192111203091
 10
103.2834458834673
 20
-136.7050062049731
 10
103.2834458834673
 20
-136.7050062049731
 10
103.4395087089491
 20
-136.7050062049731
 10
103.4395087089491
 20
-136.7050062049731
 10
103.4395087089491
 20
-136.7050062049731
 10
103.4395087089491
 20
-138.2492702562363
 10
103.4395087089491
 20
-138.2492702562363
 10
103.4395087089491
 20
-138.2492702562363
 10
103.1997300631758
 20
-138.2492702562363
 10
103.1997300631758
 20
-138.2492702562363
 97
        0
 97
        0
 75
     2
 76
     1
 98
        0
  0
ENDBLK
  5
DD
330
DA
100
AcDbEntity
  8
0
100
AcDbBlockEnd
  0
BLOCK
  5
F4
330
F2
100
AcDbEntity
  8
0
100
AcDbBlockBegin
  2
block 7
 70
     0
 10
0.0
 20
0.0
 30
0.0
  3
block 7
  1

  0
SPLINE
  5
F6
330
F2
100
AcDbEntity
  8
_U+30EC_U+30A4_U+30E4_U+30FC 1
370
     0
100
AcDbSpline
210
0.0
220
0.0
230
1.0
 70
    11
 71
     3
 72
    29
 73
    25
 74
     0
 42
0.0000000001
 43
0.0000000001
 12
1.0
 22
0.0
 32
0.0
 13
1.0
 23
0.0
 33
0.0
 40
0.0
 40
0.0
 40
0.0
 40
0.0
 40
1.0
 40
1.0
 40
1.0
 40
2.0
 40
2.0
 40
2.0
 40
3.0
 40
3.0
 40
3.0
 40
4.0
 40
4.0
 40
4.0
 40
5.0
 40
5.0
 40
5.0
 40
6.0
 40
6.0
 40
6.0
 40
7.0
 40
7.0
 40
7.0
 40
8.0
 40
8.0
 40
8.0
 40
8.0
 10
105.6383409024099
 20
-151.9008056260873
 30
0.0
 10
105.8478027079131
 20
-152.0162163248432
 30
0.0
 10
105.8667507330819
 20
-152.2015624619496
 30
0.0
 10
105.8667507330819
 20
-152.3259304089671
 30
0.0
 10
105.8667507330819
 20
-152.4974961641326
 30
0.0
 10
105.8202419440311
 20
-152.6490803654836
 30
0.0
 10
105.6383409024099
 20
-152.7507106822984
 30
0.0
 10
105.443520752719
 20
-152.8616427569235
 30
0.0
 10
105.2068426928823
 20
-152.8819688202865
 30
0.0
 10
105.04388967643
 20
-152.8819688202865
 30
0.0
 10
104.8998846851466
 20
-152.8819688202865
 30
0.0
 10
104.6480482051748
 20
-152.8640543237632
 30
0.0
 10
104.4492661956759
 20
-152.7507106822984
 30
0.0
 10
104.2463500715947
 20
-152.6356444930911
 30
0.0
 10
104.222923422295
 20
-152.4637342283771
 30
0.0
 10
104.222923422295
 20
-152.3259304089671
 30
0.0
 10
104.222923422295
 20
-152.1560872015443
 30
0.0
 10
104.2673651540547
 20
-152.0024359429022
 30
0.0
 10
104.4492661956759
 20
-151.9008056260873
 30
0.0
 10
104.6418470333013
 20
-151.7943521755931
 30
0.0
 10
104.8702568639734
 20
-151.7695474880993
 30
0.0
 10
105.04388967643
 20
-151.7695474880993
 30
0.0
 10
105.2151109220469
 20
-151.7695474880993
 30
0.0
 10
105.4455878100101
 20
-151.7922851183019
 30
0.0
 10
105.6383409024099
 20
-151.9008056260873
 30
0.0
  0
SPLINE
  5
F7
330
F2
100
AcDbEntity
  8
_U+30EC_U+30A4_U+30E4_U+30FC 1
370
     0
100
AcDbSpline
210
0.0
220
0.0
230
1.0
 70
    11
 71
     3
 72
    17
 73
    13
 74
     0
 42
0.0000000001
 43
0.0000000001
 12
1.0
 22
0.0
 32
0.0
 13
1.0
 23
0.0
 33
0.0
 40
0.0
 40
0.0
 40
0.0
 40
0.0
 40
1.0
 40
1.0
 40
1.0
 40
2.0
 40
2.0
 40
2.0
 40
3.0
 40
3.0
 40
3.0
 40
4.0
 40
4.0
 40
4.0
 40
4.0
 10
104.4155042599204
 20
-152.3259304089671
 30
0.0
 10
104.4155042599204
 20
-152.5925807995255
 30
0.0
 10
104.6990356183565
 20
-152.6421901745131
 30
0.0
 10
105.04388967643
 20
-152.6421901745131
 30
0.0
 10
105.3632500279127
 20
-152.6421901745131
 30
0.0
 10
105.6721028381653
 20
-152.6039496146268
 30
0.0
 10
105.6721028381653
 20
-152.3259304089671
 30
0.0
 10
105.6721028381653
 20
-152.0613470757
 30
0.0
 10
105.3908107917947
 20
-152.0093261338727
 30
0.0
 10
105.04388967643
 20
-152.0093261338727
 30
0.0
 10
104.7241848153988
 20
-152.0093261338727
 30
0.0
 10
104.4155042599204
 20
-152.0499782605986
 30
0.0
 10
104.4155042599204
 20
-152.3259304089671
 30
0.0
  0
HATCH
  5
F8
330
F2
100
AcDbEntity
  8
_U+30EC_U+30A4_U+30E4_U+30FC 1
 62
   179
420
  2234388
100
AcDbHatch
 10
0.0
 20
0.0
 30
0.0
210
0.0
220
0.0
230
1.0
  2
SOLID
 70
     1
 71
     0
 91
        2
 92
        1
 93
        1
 72
     4
 94
        3
 73
     0
 74
     1
 95
       29
 96
       25
 40
0.0
 40
0.0
 40
0.0
 40
0.0
 40
1.0
 40
1.0
 40
1.0
 40
2.0
 40
2.0
 40
2.0
 40
3.0
 40
3.0
 40
3.0
 40
4.0
 40
4.0
 40
4.0
 40
5.0
 40
5.0
 40
5.0
 40
6.0
 40
6.0
 40
6.0
 40
7.0
 40
7.0
 40
7.0
 40
8.0
 40
8.0
 40
8.0
 40
8.0
 10
105.6383409024099
 20
-151.9008056260873
 10
105.8478027079131
 20
-152.0162163248432
 10
105.8667507330819
 20
-152.2015624619496
 10
105.8667507330819
 20
-152.3259304089671
 10
105.8667507330819
 20
-152.4974961641326
 10
105.8202419440311
 20
-152.6490803654836
 10
105.6383409024099
 20
-152.7507106822984
 10
105.443520752719
 20
-152.8616427569235
 10
105.2068426928823
 20
-152.8819688202865
 10
105.04388967643
 20
-152.8819688202865
 10
104.8998846851466
 20
-152.8819688202865
 10
104.6480482051748
 20
-152.8640543237632
 10
104.4492661956759
 20
-152.7507106822984
 10
104.2463500715947
 20
-152.6356444930911
 10
104.222923422295
 20
-152.4637342283771
 10
104.222923422295
 20
-152.3259304089671
 10
104.222923422295
 20
-152.1560872015443
 10
104.2673651540547
 20
-152.0024359429022
 10
104.4492661956759
 20
-151.9008056260873
 10
104.6418470333013
 20
-151.7943521755931
 10
104.8702568639734
 20
-151.7695474880993
 10
105.04388967643
 20
-151.7695474880993
 10
105.2151109220469
 20
-151.7695474880993
 10
105.4455878100101
 20
-151.7922851183019
 10
105.6383409024099
 20
-151.9008056260873
 97
        0
 97
        0
 92
        1
 93
        1
 72
     4
 94
        3
 73
     0
 74
     1
 95
       17
 96
       13
 40
0.0
 40
0.0
 40
0.0
 40
0.0
 40
1.0
 40
1.0
 40
1.0
 40
2.0
 40
2.0
 40
2.0
 40
3.0
 40
3.0
 40
3.0
 40
4.0
 40
4.0
 40
4.0
 40
4.0
 10
104.4155042599204
 20
-152.3259304089671
 10
104.4155042599204
 20
-152.5925807995255
 10
104.6990356183565
 20
-152.6421901745131
 10
105.04388967643
 20
-152.6421901745131
 10
105.3632500279127
 20
-152.6421901745131
 10
105.6721028381653
 20
-152.6039496146268
 10
105.6721028381653
 20
-152.3259304089671
 10
105.6721028381653
 20
-152.0613470757
 10
105.3908107917947
 20
-152.0093261338727
 10
105.04388967643
 20
-152.0093261338727
 10
104.7241848153988
 20
-152.0093261338727
 10
104.4155042599204
 20
-152.0499782605986
 10
104.4155042599204
 20
-152.3259304089671
 97
        0
 97
        0
 75
     2
 76
     1
 98
        0
  0
POLYLINE
  5
F9
330
F2
100
AcDbEntity
  8
_U+30EC_U+30A4_U+30E4_U+30FC 1
370
     0
100
AcDb2dPolyline
 66
     1
 10
0.0
 20
0.0
 30
0.0
  0
VERTEX
  5
FA
330
F9
100
AcDbEntity
  8
_U+30EC_U+30A4_U+30E4_U+30FC 1
370
     0
100
AcDbVertex
100
AcDb2dVertex
 10
105.8161078294488
 20
-151.538381581039
 30
0.0
  0
VERTEX
  5
FB
330
F9
100
AcDbEntity
  8
_U+30EC_U+30A4_U+30E4_U+30FC 1
370
     0
100
AcDbVertex
100
AcDb2dVertex
 10
105.564271349477
 20
-151.538381581039
 30
0.0
  0
VERTEX
  5
FC
330
F9
100
AcDbEntity
  8
_U+30EC_U+30A4_U+30E4_U+30FC 1
370
     0
100
AcDbVertex
100
AcDb2dVertex
 10
105.564271349477
 20
-151.269319623641
 30
0.0
  0
VERTEX
  5
FD
330
F9
100
AcDbEntity
  8
_U+30EC_U+30A4_U+30E4_U+30FC 1
370
     0
100
AcDbVertex
100
AcDb2dVertex
 10
105.8161078294488
 20
-151.269319623641
 30
0.0
  0
VERTEX
  5
FE
330
F9
100
AcDbEntity
  8
_U+30EC_U+30A4_U+30E4_U+30FC 1
370
     0
100
AcDbVertex
100
AcDb2dVertex
 10
105.8161078294488
 20
-151.538381581039
 30
0.0
  0
SEQEND
  5
FF
330
F9
100
AcDbEntity
  8
_U+30EC_U+30A4_U+30E4_U+30FC 1
370
     0
  0
HATCH
  5
100
330
F2
100
AcDbEntity
  8
_U+30EC_U+30A4_U+30E4_U+30FC 1
 62
   179
420
  2234388
100
AcDbHatch
 10
0.0
 20
0.0
 30
0.0
210
0.0
220
0.0
230
1.0
  2
SOLID
 70
     1
 71
     0
 91
        1
 92
        1
 93
        4
 72
     1
 10
105.8161078294488
 20
-151.538381581039
 11
105.564271349477
 21
-151.538381581039
 72
     1
 10
105.564271349477
 20
-151.538381581039
 11
105.564271349477
 21
-151.269319623641
 72
     1
 10
105.564271349477
 20
-151.269319623641
 11
105.8161078294488
 21
-151.269319623641
 72
     1
 10
105.8161078294488
 20
-151.269319623641
 11
105.8161078294488
 21
-151.538381581039
 97
        0
 75
     2
 76
     1
 98
        0
  0
SPLINE
  5
101
330
F2
100
AcDbEntity
  8
_U+30EC_U+30A4_U+30E4_U+30FC 1
370
     0
100
AcDbSpline
210
0.0
220
0.0
230
1.0
 70
    11
 71
     3
 72
    53
 73
    49
 74
     0
 42
0.0000000001
 43
0.0000000001
 12
1.0
 22
0.0
 32
0.0
 13
1.0
 23
0.0
 33
0.0
 40
0.0
 40
0.0
 40
0.0
 40
0.0
 40
1.0
 40
1.0
 40
1.0
 40
2.0
 40
2.0
 40
2.0
 40
3.0
 40
3.0
 40
3.0
 40
4.0
 40
4.0
 40
4.0
 40
5.0
 40
5.0
 40
5.0
 40
6.0
 40
6.0
 40
6.0
 40
7.0
 40
7.0
 40
7.0
 40
8.0
 40
8.0
 40
8.0
 40
9.0
 40
9.0
 40
9.0
 40
10.0
 40
10.0
 40
10.0
 40
11.0
 40
11.0
 40
11.0
 40
12.0
 40
12.0
 40
12.0
 40
13.0
 40
13.0
 40
13.0
 40
14.0
 40
14.0
 40
14.0
 40
15.0
 40
15.0
 40
15.0
 40
16.0
 40
16.0
 40
16.0
 40
16.0
 10
105.8667507330819
 20
-150.5024413686244
 30
0.0
 10
105.8667507330819
 20
-150.586157188916
 30
0.0
 10
105.8498697652042
 20
-150.6943331871528
 30
0.0
 10
105.7864800082756
 20
-150.8031982044867
 30
0.0
 10
105.6765814622961
 20
-150.9885443415932
 30
0.0
 10
105.5453233243081
 20
-151.0109374622473
 30
0.0
 10
105.4373195808455
 20
-151.0312635256103
 30
0.0
 10
105.4373195808455
 20
-151.0312635256103
 30
0.0
 10
105.4373195808455
 20
-150.7938964466765
 30
0.0
 10
105.4373195808455
 20
-150.7938964466765
 30
0.0
 10
105.6362738451187
 20
-150.7353298234273
 30
0.0
 10
105.6659016662919
 20
-150.5995930613084
 30
0.0
 10
105.6659016662919
 20
-150.5000298017847
 30
0.0
 10
105.6659016662919
 20
-150.3508571672734
 30
0.0
 10
105.5663384067681
 20
-150.1879041508211
 30
0.0
 10
105.3336222067395
 20
-150.1879041508211
 30
0.0
 10
105.0776516121854
 20
-150.1879041508211
 30
0.0
 10
105.0077161738349
 20
-150.380140478898
 30
0.0
 10
105.0077161738349
 20
-150.5089870500464
 30
0.0
 10
105.0077161738349
 20
-150.5430934953503
 30
0.0
 10
105.0077161738349
 20
-150.6943331871528
 30
0.0
 10
105.1369072545317
 20
-150.7894178225457
 30
0.0
 10
105.1369072545317
 20
-150.7894178225457
 30
0.0
 10
105.1179592293629
 20
-150.9771755264918
 30
0.0
 10
105.1179592293629
 20
-150.9771755264918
 30
0.0
 10
105.1179592293629
 20
-150.9771755264918
 30
0.0
 10
104.271499268637
 20
-150.8483289553435
 30
0.0
 10
104.271499268637
 20
-150.8483289553435
 30
0.0
 10
104.271499268637
 20
-150.8483289553435
 30
0.0
 10
104.271499268637
 20
-150.0163383956557
 30
0.0
 10
104.271499268637
 20
-150.0163383956557
 30
0.0
 10
104.271499268637
 20
-150.0163383956557
 30
0.0
 10
104.4661471635536
 20
-150.0163383956557
 30
0.0
 10
104.4661471635536
 20
-150.0163383956557
 30
0.0
 10
104.4661471635536
 20
-150.0163383956557
 30
0.0
 10
104.4661471635536
 20
-150.6740071237898
 30
0.0
 10
104.4661471635536
 20
-150.6740071237898
 30
0.0
 10
104.4661471635536
 20
-150.6740071237898
 30
0.0
 10
104.8892048891423
 20
-150.7442870716889
 30
0.0
 10
104.8892048891423
 20
-150.7442870716889
 30
0.0
 10
104.8554429533868
 20
-150.6788302574692
 30
0.0
 10
104.8151353362094
 20
-150.5906358130468
 30
0.0
 10
104.8151353362094
 20
-150.4638562991896
 30
0.0
 10
104.8151353362094
 20
-150.1927272845004
 30
0.0
 10
105.0015150019614
 20
-149.9395127663346
 30
0.0
 10
105.3146741815706
 20
-149.9395127663346
 30
0.0
 10
105.6321397305364
 20
-149.9395127663346
 30
0.0
 10
105.8667507330819
 20
-150.1789469025594
 30
0.0
 10
105.8667507330819
 20
-150.5024413686244
 30
0.0
  0
HATCH
  5
102
330
F2
100
AcDbEntity
  8
_U+30EC_U+30A4_U+30E4_U+30FC 1
 62
   179
420
  2234388
100
AcDbHatch
 10
0.0
 20
0.0
 30
0.0
210
0.0
220
0.0
230
1.0
  2
SOLID
 70
     1
 71
     0
 91
        1
 92
        1
 93
        1
 72
     4
 94
        3
 73
     0
 74
     1
 95
       53
 96
       49
 40
0.0
 40
0.0
 40
0.0
 40
0.0
 40
1.0
 40
1.0
 40
1.0
 40
2.0
 40
2.0
 40
2.0
 40
3.0
 40
3.0
 40
3.0
 40
4.0
 40
4.0
 40
4.0
 40
5.0
 40
5.0
 40
5.0
 40
6.0
 40
6.0
 40
6.0
 40
7.0
 40
7.0
 40
7.0
 40
8.0
 40
8.0
 40
8.0
 40
9.0
 40
9.0
 40
9.0
 40
10.0
 40
10.0
 40
10.0
 40
11.0
 40
11.0
 40
11.0
 40
12.0
 40
12.0
 40
12.0
 40
13.0
 40
13.0
 40
13.0
 40
14.0
 40
14.0
 40
14.0
 40
15.0
 40
15.0
 40
15.0
 40
16.0
 40
16.0
 40
16.0
 40
16.0
 10
105.8667507330819
 20
-150.5024413686244
 10
105.8667507330819
 20
-150.586157188916
 10
105.8498697652042
 20
-150.6943331871528
 10
105.7864800082756
 20
-150.8031982044867
 10
105.6765814622961
 20
-150.9885443415932
 10
105.5453233243081
 20
-151.0109374622473
 10
105.4373195808455
 20
-151.0312635256103
 10
105.4373195808455
 20
-151.0312635256103
 10
105.4373195808455
 20
-150.7938964466765
 10
105.4373195808455
 20
-150.7938964466765
 10
105.6362738451187
 20
-150.7353298234273
 10
105.6659016662919
 20
-150.5995930613084
 10
105.6659016662919
 20
-150.5000298017847
 10
105.6659016662919
 20
-150.3508571672734
 10
105.5663384067681
 20
-150.1879041508211
 10
105.3336222067395
 20
-150.1879041508211
 10
105.0776516121854
 20
-150.1879041508211
 10
105.0077161738349
 20
-150.380140478898
 10
105.0077161738349
 20
-150.5089870500464
 10
105.0077161738349
 20
-150.5430934953503
 10
105.0077161738349
 20
-150.6943331871528
 10
105.1369072545317
 20
-150.7894178225457
 10
105.1369072545317
 20
-150.7894178225457
 10
105.1179592293629
 20
-150.9771755264918
 10
105.1179592293629
 20
-150.9771755264918
 10
105.1179592293629
 20
-150.9771755264918
 10
104.271499268637
 20
-150.8483289553435
 10
104.271499268637
 20
-150.8483289553435
 10
104.271499268637
 20
-150.8483289553435
 10
104.271499268637
 20
-150.0163383956557
 10
104.271499268637
 20
-150.0163383956557
 10
104.271499268637
 20
-150.0163383956557
 10
104.4661471635536
 20
-150.0163383956557
 10
104.4661471635536
 20
-150.0163383956557
 10
104.4661471635536
 20
-150.0163383956557
 10
104.4661471635536
 20
-150.6740071237898
 10
104.4661471635536
 20
-150.6740071237898
 10
104.4661471635536
 20
-150.6740071237898
 10
104.8892048891423
 20
-150.7442870716889
 10
104.8892048891423
 20
-150.7442870716889
 10
104.8554429533868
 20
-150.6788302574692
 10
104.8151353362094
 20
-150.5906358130468
 10
104.8151353362094
 20
-150.4638562991896
 10
104.8151353362094
 20
-150.1927272845004
 10
105.0015150019614
 20
-149.9395127663346
 10
105.3146741815706
 20
-149.9395127663346
 10
105.6321397305364
 20
-149.9395127663346
 10
105.8667507330819
 20
-150.1789469025594
 10
105.8667507330819
 20
-150.5024413686244
 97
        0
 97
        0
 75
     2
 76
     1
 98
        0
  0
ENDBLK
  5
F5
330
F2
100
AcDbEntity
  8
0
100
AcDbBlockEnd
  0
ENDSEC
  0
SECTION
  2
ENTITIES
  0
POLYLINE
  5
41
330
1F
100
AcDbEntity
  8
_U+30EC_U+30A4_U+30E4_U+30FC 1
 62
   179
420
  2234388
370
    25
100
AcDb2dPolyline
 66
     1
 10
0.0
 20
0.0
 30
0.0
  0
VERTEX
  5
42
330
41
100
AcDbEntity
  8
_U+30EC_U+30A4_U+30E4_U+30FC 1
 62
   179
420
  2234388
370
    25
100
AcDbVertex
100
AcDb2dVertex
 10
87.11854055519865
 20
-143.5512749641123
 30
0.0
  0
VERTEX
  5
43
330
41
100
AcDbEntity
  8
_U+30EC_U+30A4_U+30E4_U+30FC 1
 62
   179
420
  2234388
370
    25
100
AcDbVertex
100
AcDb2dVertex
 10
94.11828886535945
 20
-143.5512749641123
 30
0.0
  0
SEQEND
  5
44
330
41
100
AcDbEntity
  8
_U+30EC_U+30A4_U+30E4_U+30FC 1
 62
   179
420
  2234388
370
    25
  0
POLYLINE
  5
45
330
1F
100
AcDbEntity
  8
_U+30EC_U+30A4_U+30E4_U+30FC 1
 62
   179
420
  2234388
370
    25
100
AcDb2dPolyline
 66
     1
 10
0.0
 20
0.0
 30
0.0
  0
VERTEX
  5
46
330
45
100
AcDbEntity
  8
_U+30EC_U+30A4_U+30E4_U+30FC 1
 62
   179
420
  2234388
370
    25
100
AcDbVertex
100
AcDb2dVertex
 10
118.1181814309986
 20
-143.5512749641123
 30
0.0
  0
VERTEX
  5
47
330
45
100
AcDbEntity
  8
_U+30EC_U+30A4_U+30E4_U+30FC 1
 62
   179
420
  2234388
370
    25
100
AcDbVertex
100
AcDb2dVertex
 10
118.1181814309986
 20
-144.5510471860845
 30
0.0
  0
SEQEND
  5
48
330
45
100
AcDbEntity
  8
_U+30EC_U+30A4_U+30E4_U+30FC 1
 62
   179
420
  2234388
370
    25
  0
POLYLINE
  5
49
330
1F
100
AcDbEntity
  8
_U+30EC_U+30A4_U+30E4_U+30FC 1
 62
   179
420
  2234388
370
    25
100
AcDb2dPolyline
 66
     1
 10
0.0
 20
0.0
 30
0.0
  0
VERTEX
  5
4A
330
49
100
AcDbEntity
  8
_U+30EC_U+30A4_U+30E4_U+30FC 1
 62
   179
420
  2234388
370
    25
100
AcDbVertex
100
AcDb2dVertex
 10
96.11850115892385
 20
-144.5510471860845
 30
0.0
  0
VERTEX
  5
4B
330
49
100
AcDbEntity
  8
_U+30EC_U+30A4_U+30E4_U+30FC 1
 62
   179
420
  2234388
370
    25
100
AcDbVertex
100
AcDb2dVertex
 10
118.1181814309986
 20
-144.5510471860845
 30
0.0
  0
SEQEND
  5
4C
330
49
100
AcDbEntity
  8
_U+30EC_U+30A4_U+30E4_U+30FC 1
 62
   179
420
  2234388
370
    25
  0
POLYLINE
  5
4D
330
1F
100
AcDbEntity
  8
_U+30EC_U+30A4_U+30E4_U+30FC 1
 62
   179
420
  2234388
370
    25
100
AcDb2dPolyline
 66
     1
 10
0.0
 20
0.0
 30
0.0
  0
VERTEX
  5
4E
330
4D
100
AcDbEntity
  8
_U+30EC_U+30A4_U+30E4_U+30FC 1
 62
   179
420
  2234388
370
    25
100
AcDbVertex
100
AcDb2dVertex
 10
93.11851664338691
 20
-144.5510471860845
 30
0.0
  0
VERTEX
  5
4F
330
4D
100
AcDbEntity
  8
_U+30EC_U+30A4_U+30E4_U+30FC 1
 62
   179
420
  2234388
370
    25
100
AcDbVertex
100
AcDb2dVertex
 10
93.11851664338691
 20
-155.55122273889
 30
0.0
  0
SEQEND
  5
50
330
4D
100
AcDbEntity
  8
_U+30EC_U+30A4_U+30E4_U+30FC 1
 62
   179
420
  2234388
370
    25
  0
POLYLINE
  5
51
330
1F
100
AcDbEntity
  8
_U+30EC_U+30A4_U+30E4_U+30FC 1
 62
   179
420
  2234388
370
    25
100
AcDb2dPolyline
 66
     1
 10
0.0
 20
0.0
 30
0.0
  0
VERTEX
  5
52
330
51
100
AcDbEntity
  8
_U+30EC_U+30A4_U+30E4_U+30FC 1
 62
   179
420
  2234388
370
    25
100
AcDbVertex
100
AcDb2dVertex
 10
103.1182470914566
 20
-154.5514505169175
 30
0.0
  0
VERTEX
  5
53
330
51
100
AcDbEntity
  8
_U+30EC_U+30A4_U+30E4_U+30FC 1
 62
   179
420
  2234388
370
    25
100
AcDbVertex
100
AcDb2dVertex
 10
103.1182470914566
 20
-155.0509838501263
 30
0.0
  0
SEQEND
  5
54
330
51
100
AcDbEntity
  8
_U+30EC_U+30A4_U+30E4_U+30FC 1
 62
   179
420
  2234388
370
    25
  0
POLYLINE
  5
55
330
1F
100
AcDbEntity
  8
_U+30EC_U+30A4_U+30E4_U+30FC 1
 62
   179
420
  2234388
370
    25
100
AcDb2dPolyline
 66
     1
 10
0.0
 20
0.0
 30
0.0
  0
VERTEX
  5
56
330
55
100
AcDbEntity
  8
_U+30EC_U+30A4_U+30E4_U+30FC 1
 62
   179
420
  2234388
370
    25
100
AcDbVertex
100
AcDb2dVertex
 10
96.11850115892385
 20
-154.5514505169175
 30
0.0
  0
VERTEX
  5
57
330
55
100
AcDbEntity
  8
_U+30EC_U+30A4_U+30E4_U+30FC 1
 62
   179
420
  2234388
370
    25
100
AcDbVertex
100
AcDb2dVertex
 10
103.1182470914566
 20
-154.5514505169175
 30
0.0
  0
SEQEND
  5
58
330
55
100
AcDbEntity
  8
_U+30EC_U+30A4_U+30E4_U+30FC 1
 62
   179
420
  2234388
370
    25
  0
POLYLINE
  5
59
330
1F
100
AcDbEntity
  8
_U+30EC_U+30A4_U+30E4_U+30FC 1
 62
   179
420
  2234388
370
    25
100
AcDb2dPolyline
 66
     1
 10
0.0
 20
0.0
 30
0.0
  0
VERTEX
  5
5A
330
59
100
AcDbEntity
  8
_U+30EC_U+30A4_U+30E4_U+30FC 1
 62
   179
420
  2234388
370
    25
100
AcDbVertex
100
AcDb2dVertex
 10
95.11806108733167
 20
-143.5512749641123
 30
0.0
  0
VERTEX
  5
5B
330
59
100
AcDbEntity
  8
_U+30EC_U+30A4_U+30E4_U+30FC 1
 62
   179
420
  2234388
370
    25
100
AcDbVertex
100
AcDb2dVertex
 10
118.1181814309986
 20
-143.5512749641123
 30
0.0
  0
SEQEND
  5
5C
330
59
100
AcDbEntity
  8
_U+30EC_U+30A4_U+30E4_U+30FC 1
 62
   179
420
  2234388
370
    25
  0
POLYLINE
  5
5D
330
1F
100
AcDbEntity
  8
_U+30EC_U+30A4_U+30E4_U+30FC 1
 62
   179
420
  2234388
370
    25
100
AcDb2dPolyline
 66
     1
 10
0.0
 20
0.0
 30
0.0
  0
VERTEX
  5
5E
330
5D
100
AcDbEntity
  8
_U+30EC_U+30A4_U+30E4_U+30FC 1
 62
   179
420
  2234388
370
    25
100
AcDbVertex
100
AcDb2dVertex
 10
94.11828886535945
 20
-143.5512749641123
 30
0.0
  0
VERTEX
  5
5F
330
5D
100
AcDbEntity
  8
_U+30EC_U+30A4_U+30E4_U+30FC 1
 62
   179
420
  2234388
370
    25
100
AcDbVertex
100
AcDb2dVertex
 10
94.11828886535945
 20
-154.5514505169175
 30
0.0
  0
SEQEND
  5
60
330
5D
100
AcDbEntity
  8
_U+30EC_U+30A4_U+30E4_U+30FC 1
 62
   179
420
  2234388
370
    25
  0
POLYLINE
  5
61
330
1F
100
AcDbEntity
  8
_U+30EC_U+30A4_U+30E4_U+30FC 1
 62
   179
420
  2234388
370
    25
100
AcDb2dPolyline
 66
     1
 10
0.0
 20
0.0
 30
0.0
  0
VERTEX
  5
62
330
61
100
AcDbEntity
  8
_U+30EC_U+30A4_U+30E4_U+30FC 1
 62
   179
420
  2234388
370
    25
100
AcDbVertex
100
AcDb2dVertex
 10
95.11806108733167
 20
-143.5512749641123
 30
0.0
  0
VERTEX
  5
63
330
61
100
AcDbEntity
  8
_U+30EC_U+30A4_U+30E4_U+30FC 1
 62
   179
420
  2234388
370
    25
100
AcDbVertex
100
AcDb2dVertex
 10
95.11806108733167
 20
-154.5514505169175
 30
0.0
  0
SEQEND
  5
64
330
61
100
AcDbEntity
  8
_U+30EC_U+30A4_U+30E4_U+30FC 1
 62
   179
420
  2234388
370
    25
  0
POLYLINE
  5
65
330
1F
100
AcDbEntity
  8
_U+30EC_U+30A4_U+30E4_U+30FC 1
 62
   179
420
  2234388
370
    25
100
AcDb2dPolyline
 66
     1
 10
0.0
 20
0.0
 30
0.0
  0
VERTEX
  5
66
330
65
100
AcDbEntity
  8
_U+30EC_U+30A4_U+30E4_U+30FC 1
 62
   179
420
  2234388
370
    25
100
AcDbVertex
100
AcDb2dVertex
 10
96.11850115892385
 20
-144.5510471860845
 30
0.0
  0
VERTEX
  5
67
330
65
100
AcDbEntity
  8
_U+30EC_U+30A4_U+30E4_U+30FC 1
 62
   179
420
  2234388
370
    25
100
AcDbVertex
100
AcDb2dVertex
 10
96.11850115892385
 20
-154.5514505169175
 30
0.0
  0
SEQEND
  5
68
330
65
100
AcDbEntity
  8
_U+30EC_U+30A4_U+30E4_U+30FC 1
 62
   179
420
  2234388
370
    25
  0
POLYLINE
  5
69
330
1F
100
AcDbEntity
  8
_U+30EC_U+30A4_U+30E4_U+30FC 1
 62
   179
420
  2234388
370
    25
100
AcDb2dPolyline
 66
     1
 10
0.0
 20
0.0
 30
0.0
  0
VERTEX
  5
6A
330
69
100
AcDbEntity
  8
_U+30EC_U+30A4_U+30E4_U+30FC 1
 62
   179
420
  2234388
370
    25
100
AcDbVertex
100
AcDb2dVertex
 10
94.11828886535945
 20
-154.5514505169175
 30
0.0
  0
VERTEX
  5
6B
330
69
100
AcDbEntity
  8
_U+30EC_U+30A4_U+30E4_U+30FC 1
 62
   179
420
  2234388
370
    25
100
AcDbVertex
100
AcDb2dVertex
 10
95.11806108733167
 20
-154.5514505169175
 30
0.0
  0
SEQEND
  5
6C
330
69
100
AcDbEntity
  8
_U+30EC_U+30A4_U+30E4_U+30FC 1
 62
   179
420
  2234388
370
    25
  0
POLYLINE
  5
6D
330
1F
100
AcDbEntity
  8
_U+30EC_U+30A4_U+30E4_U+30FC 1
 62
   179
420
  2234388
370
    25
100
AcDb2dPolyline
 66
     1
 10
0.0
 20
0.0
 30
0.0
  0
VERTEX
  5
6E
330
6D
100
AcDbEntity
  8
_U+30EC_U+30A4_U+30E4_U+30FC 1
 62
   179
420
  2234388
370
    25
100
AcDbVertex
100
AcDb2dVertex
 10
87.11854055519865
 20
-143.5512749641123
 30
0.0
  0
VERTEX
  5
6F
330
6D
100
AcDbEntity
  8
_U+30EC_U+30A4_U+30E4_U+30FC 1
 62
   179
420
  2234388
370
    25
100
AcDbVertex
100
AcDb2dVertex
 10
87.11854055519865
 20
-144.5510471860845
 30
0.0
  0
SEQEND
  5
70
330
6D
100
AcDbEntity
  8
_U+30EC_U+30A4_U+30E4_U+30FC 1
 62
   179
420
  2234388
370
    25
  0
POLYLINE
  5
71
330
1F
100
AcDbEntity
  8
_U+30EC_U+30A4_U+30E4_U+30FC 1
 62
   179
420
  2234388
370
    25
100
AcDb2dPolyline
 66
     1
 10
0.0
 20
0.0
 30
0.0
  0
VERTEX
  5
72
330
71
100
AcDbEntity
  8
_U+30EC_U+30A4_U+30E4_U+30FC 1
 62
   179
420
  2234388
370
    25
100
AcDbVertex
100
AcDb2dVertex
 10
87.11854055519865
 20
-144.5510471860845
 30
0.0
  0
VERTEX
  5
73
330
71
100
AcDbEntity
  8
_U+30EC_U+30A4_U+30E4_U+30FC 1
 62
   179
420
  2234388
370
    25
100
AcDbVertex
100
AcDb2dVertex
 10
93.11851664338691
 20
-144.5510471860845
 30
0.0
  0
SEQEND
  5
74
330
71
100
AcDbEntity
  8
_U+30EC_U+30A4_U+30E4_U+30FC 1
 62
   179
420
  2234388
370
    25
  0
POLYLINE
  5
75
330
1F
100
AcDbEntity
  8
_U+30EC_U+30A4_U+30E4_U+30FC 1
 62
   179
420
  2234388
370
    25
100
AcDb2dPolyline
 66
     1
 10
0.0
 20
0.0
 30
0.0
  0
VERTEX
  5
76
330
75
100
AcDbEntity
  8
_U+30EC_U+30A4_U+30E4_U+30FC 1
 62
   179
420
  2234388
370
    25
100
AcDbVertex
100
AcDb2dVertex
 10
93.11851664338691
 20
-155.55122273889
 30
0.0
  0
VERTEX
  5
77
330
75
100
AcDbEntity
  8
_U+30EC_U+30A4_U+30E4_U+30FC 1
 62
   179
420
  2234388
370
    25
100
AcDbVertex
100
AcDb2dVertex
 10
103.1182470914566
 20
-155.0509838501263
 30
0.0
  0
SEQEND
  5
78
330
75
100
AcDbEntity
  8
_U+30EC_U+30A4_U+30E4_U+30FC 1
 62
   179
420
  2234388
370
    25
  0
SPLINE
  5
79
330
1F
100
AcDbEntity
  8
_U+30EC_U+30A4_U+30E4_U+30FC 1
 62
   179
420
  2234388
370
     9
100
AcDbSpline
210
0.0
220
0.0
230
1.0
 70
    11
 71
     3
 72
    17
 73
    13
 74
     0
 42
0.0000000001
 43
0.0000000001
 12
1.0
 22
0.0
 32
0.0
 13
1.0
 23
0.0
 33
0.0
 40
0.0
 40
0.0
 40
0.0
 40
0.0
 40
1.0
 40
1.0
 40
1.0
 40
2.0
 40
2.0
 40
2.0
 40
3.0
 40
3.0
 40
3.0
 40
4.0
 40
4.0
 40
4.0
 40
4.0
 10
118.2180880951164
 20
-139.5515157984454
 30
0.0
 10
118.2180880951164
 20
-139.495706354015
 30
0.0
 10
118.1733205962585
 20
-139.4509035762483
 30
0.0
 10
118.1181814309986
 20
-139.4509035762483
 30
0.0
 10
118.0630805260396
 20
-139.4509035762483
 30
0.0
 10
118.0182777482735
 20
-139.495706354015
 30
0.0
 10
118.0182777482735
 20
-139.5515157984454
 30
0.0
 10
118.0182777482735
 20
-139.6066549650982
 30
0.0
 10
118.0630805260396
 20
-139.6514224650871
 30
0.0
 10
118.1181814309986
 20
-139.6514224650871
 30
0.0
 10
118.1733205962585
 20
-139.6514224650871
 30
0.0
 10
118.2180880951164
 20
-139.6066549650982
 30
0.0
 10
118.2180880951164
 20
-139.5515157984454
 30
0.0
  0
SPLINE
  5
7A
330
1F
100
AcDbEntity
  8
_U+30EC_U+30A4_U+30E4_U+30FC 1
 62
   179
420
  2234388
370
     9
100
AcDbSpline
210
0.0
220
0.0
230
1.0
 70
    11
 71
     3
 72
    17
 73
    13
 74
     0
 42
0.0000000001
 43
0.0000000001
 12
1.0
 22
0.0
 32
0.0
 13
1.0
 23
0.0
 33
0.0
 40
0.0
 40
0.0
 40
0.0
 40
0.0
 40
1.0
 40
1.0
 40
1.0
 40
2.0
 40
2.0
 40
2.0
 40
3.0
 40
3.0
 40
3.0
 40
4.0
 40
4.0
 40
4.0
 40
4.0
 10
122.2185527152783
 20
-143.5512749641123
 30
0.0
 10
122.2185527152783
 20
-143.4961357974592
 30
0.0
 10
122.1737499386435
 20
-143.4513682974704
 30
0.0
 10
122.1186460511605
 20
-143.4513682974704
 30
0.0
 10
122.0628366081398
 20
-143.4513682974704
 30
0.0
 10
122.0180338315051
 20
-143.4961357974592
 30
0.0
 10
122.0180338315051
 20
-143.5512749641123
 30
0.0
 10
122.0180338315051
 20
-143.6063788529872
 30
0.0
 10
122.0628366081398
 20
-143.651181630754
 30
0.0
 10
122.1186460511605
 20
-143.651181630754
 30
0.0
 10
122.1737499386435
 20
-143.651181630754
 30
0.0
 10
122.2185527152783
 20
-143.6063788529872
 30
0.0
 10
122.2185527152783
 20
-143.5512749641123
 30
0.0
  0
SPLINE
  5
7B
330
1F
100
AcDbEntity
  8
_U+30EC_U+30A4_U+30E4_U+30FC 1
 62
   179
420
  2234388
370
     9
100
AcDbSpline
210
0.0
220
0.0
230
1.0
 70
    11
 71
     3
 72
    17
 73
    13
 74
     0
 42
0.0000000001
 43
0.0000000001
 12
1.0
 22
0.0
 32
0.0
 13
1.0
 23
0.0
 33
0.0
 40
0.0
 40
0.0
 40
0.0
 40
0.0
 40
1.0
 40
1.0
 40
1.0
 40
2.0
 40
2.0
 40
2.0
 40
3.0
 40
3.0
 40
3.0
 40
4.0
 40
4.0
 40
4.0
 40
4.0
 10
122.2185527152783
 20
-144.5510471860845
 30
0.0
 10
122.2185527152783
 20
-144.4959080194315
 30
0.0
 10
122.1737499386435
 20
-144.4511405194429
 30
0.0
 10
122.1186460511605
 20
-144.4511405194429
 30
0.0
 10
122.0628366081398
 20
-144.4511405194429
 30
0.0
 10
122.0180338315051
 20
-144.4959080194315
 30
0.0
 10
122.0180338315051
 20
-144.5510471860845
 30
0.0
 10
122.0180338315051
 20
-144.6061510749595
 30
0.0
 10
122.0628366081398
 20
-144.6509538527262
 30
0.0
 10
122.1186460511605
 20
-144.6509538527262
 30
0.0
 10
122.1737499386435
 20
-144.6509538527262
 30
0.0
 10
122.2185527152783
 20
-144.6061510749595
 30
0.0
 10
122.2185527152783
 20
-144.5510471860845
 30
0.0
  0
SPLINE
  5
7C
330
1F
100
AcDbEntity
  8
_U+30EC_U+30A4_U+30E4_U+30FC 1
 62
   179
420
  2234388
370
     9
100
AcDbSpline
210
0.0
220
0.0
230
1.0
 70
    11
 71
     3
 72
    17
 73
    13
 74
     0
 42
0.0000000001
 43
0.0000000001
 12
1.0
 22
0.0
 32
0.0
 13
1.0
 23
0.0
 33
0.0
 40
0.0
 40
0.0
 40
0.0
 40
0.0
 40
1.0
 40
1.0
 40
1.0
 40
2.0
 40
2.0
 40
2.0
 40
3.0
 40
3.0
 40
3.0
 40
4.0
 40
4.0
 40
4.0
 40
4.0
 10
103.2181537555744
 20
-159.5509819045569
 30
0.0
 10
103.2181537555744
 20
-159.4958780156813
 30
0.0
 10
103.1733888630956
 20
-159.4510752379153
 30
0.0
 10
103.1182470914566
 20
-159.4510752379153
 30
0.0
 10
103.0631432039735
 20
-159.4510752379153
 30
0.0
 10
103.0183404273387
 20
-159.4958780156813
 30
0.0
 10
103.0183404273387
 20
-159.5509819045569
 30
0.0
 10
103.0183404273387
 20
-159.6061210712093
 30
0.0
 10
103.0631432039735
 20
-159.6508885711985
 30
0.0
 10
103.1182470914566
 20
-159.6508885711985
 30
0.0
 10
103.1733888630956
 20
-159.6508885711985
 30
0.0
 10
103.2181537555744
 20
-159.6061210712093
 30
0.0
 10
103.2181537555744
 20
-159.5509819045569
 30
0.0
  0
SPLINE
  5
7D
330
1F
100
AcDbEntity
  8
_U+30EC_U+30A4_U+30E4_U+30FC 1
 62
   179
420
  2234388
370
     9
100
AcDbSpline
210
0.0
220
0.0
230
1.0
 70
    11
 71
     3
 72
    17
 73
    13
 74
     0
 42
0.0000000001
 43
0.0000000001
 12
1.0
 22
0.0
 32
0.0
 13
1.0
 23
0.0
 33
0.0
 40
0.0
 40
0.0
 40
0.0
 40
0.0
 40
1.0
 40
1.0
 40
1.0
 40
2.0
 40
2.0
 40
2.0
 40
3.0
 40
3.0
 40
3.0
 40
4.0
 40
4.0
 40
4.0
 40
4.0
 10
93.21842095513328
 20
-159.5509819045569
 30
0.0
 10
93.21842095513328
 20
-159.4958780156813
 30
0.0
 10
93.1736534562754
 20
-159.4510752379153
 30
0.0
 10
93.11851664338691
 20
-159.4510752379153
 30
0.0
 10
93.06270484799482
 20
-159.4510752379153
 30
0.0
 10
93.01793734913694
 20
-159.4958780156813
 30
0.0
 10
93.01793734913694
 20
-159.5509819045569
 30
0.0
 10
93.01793734913694
 20
-159.6061210712093
 30
0.0
 10
93.06270484799482
 20
-159.6508885711985
 30
0.0
 10
93.11851664338691
 20
-159.6508885711985
 30
0.0
 10
93.1736534562754
 20
-159.6508885711985
 30
0.0
 10
93.21842095513328
 20
-159.6061210712093
 30
0.0
 10
93.21842095513328
 20
-159.5509819045569
 30
0.0
  0
SPLINE
  5
7E
330
1F
100
AcDbEntity
  8
_U+30EC_U+30A4_U+30E4_U+30FC 1
 62
   179
420
  2234388
370
     9
100
AcDbSpline
210
0.0
220
0.0
230
1.0
 70
    11
 71
     3
 72
    17
 73
    13
 74
     0
 42
0.0000000001
 43
0.0000000001
 12
1.0
 22
0.0
 32
0.0
 13
1.0
 23
0.0
 33
0.0
 40
0.0
 40
0.0
 40
0.0
 40
0.0
 40
1.0
 40
1.0
 40
1.0
 40
2.0
 40
2.0
 40
2.0
 40
3.0
 40
3.0
 40
3.0
 40
4.0
 40
4.0
 40
4.0
 40
4.0
 10
107.2179128201987
 20
-154.5514505169175
 30
0.0
 10
107.2179128201987
 20
-154.495641072487
 30
0.0
 10
107.1731453213408
 20
-154.4508735724985
 30
0.0
 10
107.1180061560809
 20
-154.4508735724985
 30
0.0
 10
107.0629022685978
 20
-154.4508735724985
 30
0.0
 10
107.018099491963
 20
-154.495641072487
 30
0.0
 10
107.018099491963
 20
-154.5514505169175
 30
0.0
 10
107.018099491963
 20
-154.6065896835705
 30
0.0
 10
107.0629022685978
 20
-154.6513571835591
 30
0.0
 10
107.1180061560809
 20
-154.6513571835591
 30
0.0
 10
107.1731453213408
 20
-154.6513571835591
 30
0.0
 10
107.2179128201987
 20
-154.6065896835705
 30
0.0
 10
107.2179128201987
 20
-154.5514505169175
 30
0.0
  0
SPLINE
  5
7F
330
1F
100
AcDbEntity
  8
_U+30EC_U+30A4_U+30E4_U+30FC 1
 62
   179
420
  2234388
370
     9
100
AcDbSpline
210
0.0
220
0.0
230
1.0
 70
    11
 71
     3
 72
    17
 73
    13
 74
     0
 42
0.0000000001
 43
0.0000000001
 12
1.0
 22
0.0
 32
0.0
 13
1.0
 23
0.0
 33
0.0
 40
0.0
 40
0.0
 40
0.0
 40
0.0
 40
1.0
 40
1.0
 40
1.0
 40
2.0
 40
2.0
 40
2.0
 40
3.0
 40
3.0
 40
3.0
 40
4.0
 40
4.0
 40
4.0
 40
4.0
 10
122.2185527152783
 20
-154.5514505169175
 30
0.0
 10
122.2185527152783
 20
-154.495641072487
 30
0.0
 10
122.1737499386435
 20
-154.4508735724985
 30
0.0
 10
122.1186460511605
 20
-154.4508735724985
 30
0.0
 10
122.0628366081398
 20
-154.4508735724985
 30
0.0
 10
122.0180338315051
 20
-154.495641072487
 30
0.0
 10
122.0180338315051
 20
-154.5514505169175
 30
0.0
 10
122.0180338315051
 20
-154.6065896835705
 30
0.0
 10
122.0628366081398
 20
-154.6513571835591
 30
0.0
 10
122.1186460511605
 20
-154.6513571835591
 30
0.0
 10
122.1737499386435
 20
-154.6513571835591
 30
0.0
 10
122.2185527152783
 20
-154.6065896835705
 30
0.0
 10
122.2185527152783
 20
-154.5514505169175
 30
0.0
  0
SPLINE
  5
80
330
1F
100
AcDbEntity
  8
_U+30EC_U+30A4_U+30E4_U+30FC 1
 62
   179
420
  2234388
370
     9
100
AcDbSpline
210
0.0
220
0.0
230
1.0
 70
    11
 71
     3
 72
    17
 73
    13
 74
     0
 42
0.0000000001
 43
0.0000000001
 12
1.0
 22
0.0
 32
0.0
 13
1.0
 23
0.0
 33
0.0
 40
0.0
 40
0.0
 40
0.0
 40
0.0
 40
1.0
 40
1.0
 40
1.0
 40
2.0
 40
2.0
 40
2.0
 40
3.0
 40
3.0
 40
3.0
 40
4.0
 40
4.0
 40
4.0
 40
4.0
 10
107.2179128201987
 20
-155.0509838501263
 30
0.0
 10
107.2179128201987
 20
-154.9958799612508
 30
0.0
 10
107.1731453213408
 20
-154.9510771834847
 30
0.0
 10
107.1180061560809
 20
-154.9510771834847
 30
0.0
 10
107.0629022685978
 20
-154.9510771834847
 30
0.0
 10
107.018099491963
 20
-154.9958799612508
 30
0.0
 10
107.018099491963
 20
-155.0509838501263
 30
0.0
 10
107.018099491963
 20
-155.1061230167787
 30
0.0
 10
107.0629022685978
 20
-155.1509257945455
 30
0.0
 10
107.1180061560809
 20
-155.1509257945455
 30
0.0
 10
107.1731453213408
 20
-155.1509257945455
 30
0.0
 10
107.2179128201987
 20
-155.1061230167787
 30
0.0
 10
107.2179128201987
 20
-155.0509838501263
 30
0.0
  0
SPLINE
  5
81
330
1F
100
AcDbEntity
  8
_U+30EC_U+30A4_U+30E4_U+30FC 1
 62
   179
420
  2234388
370
     9
100
AcDbSpline
210
0.0
220
0.0
230
1.0
 70
    11
 71
     3
 72
    17
 73
    13
 74
     0
 42
0.0000000001
 43
0.0000000001
 12
1.0
 22
0.0
 32
0.0
 13
1.0
 23
0.0
 33
0.0
 40
0.0
 40
0.0
 40
0.0
 40
0.0
 40
1.0
 40
1.0
 40
1.0
 40
2.0
 40
2.0
 40
2.0
 40
3.0
 40
3.0
 40
3.0
 40
4.0
 40
4.0
 40
4.0
 40
4.0
 10
87.21844721931647
 20
-139.5515157984454
 30
0.0
 10
87.21844721931647
 20
-139.495706354015
 30
0.0
 10
87.17364444268172
 20
-139.4509035762483
 30
0.0
 10
87.11854055519865
 20
-139.4509035762483
 30
0.0
 10
87.06273331156778
 20
-139.4509035762483
 30
0.0
 10
87.01793053380106
 20
-139.495706354015
 30
0.0
 10
87.01793053380106
 20
-139.5515157984454
 30
0.0
 10
87.01793053380106
 20
-139.6066549650982
 30
0.0
 10
87.06273331156778
 20
-139.6514224650871
 30
0.0
 10
87.11854055519865
 20
-139.6514224650871
 30
0.0
 10
87.17364444268172
 20
-139.6514224650871
 30
0.0
 10
87.21844721931647
 20
-139.6066549650982
 30
0.0
 10
87.21844721931647
 20
-139.5515157984454
 30
0.0
  0
SPLINE
  5
82
330
1F
100
AcDbEntity
  8
_U+30EC_U+30A4_U+30E4_U+30FC 1
 62
   179
420
  2234388
370
     9
100
AcDbSpline
210
0.0
220
0.0
230
1.0
 70
    11
 71
     3
 72
    17
 73
    13
 74
     0
 42
0.0000000001
 43
0.0000000001
 12
1.0
 22
0.0
 32
0.0
 13
1.0
 23
0.0
 33
0.0
 40
0.0
 40
0.0
 40
0.0
 40
0.0
 40
1.0
 40
1.0
 40
1.0
 40
2.0
 40
2.0
 40
2.0
 40
3.0
 40
3.0
 40
3.0
 40
4.0
 40
4.0
 40
4.0
 40
4.0
 10
87.21844721931647
 20
-159.5509819045569
 30
0.0
 10
87.21844721931647
 20
-159.4958780156813
 30
0.0
 10
87.17364444268172
 20
-159.4510752379153
 30
0.0
 10
87.11854055519865
 20
-159.4510752379153
 30
0.0
 10
87.06273331156778
 20
-159.4510752379153
 30
0.0
 10
87.01793053380106
 20
-159.4958780156813
 30
0.0
 10
87.01793053380106
 20
-159.5509819045569
 30
0.0
 10
87.01793053380106
 20
-159.6061210712093
 30
0.0
 10
87.06273331156778
 20
-159.6508885711985
 30
0.0
 10
87.11854055519865
 20
-159.6508885711985
 30
0.0
 10
87.17364444268172
 20
-159.6508885711985
 30
0.0
 10
87.21844721931647
 20
-159.6061210712093
 30
0.0
 10
87.21844721931647
 20
-159.5509819045569
 30
0.0
  0
POLYLINE
  5
83
330
1F
100
AcDbEntity
  8
_U+30EC_U+30A4_U+30E4_U+30FC 1
 62
   179
420
  2234388
370
     9
100
AcDb2dPolyline
 66
     1
 10
0.0
 20
0.0
 30
0.0
  0
VERTEX
  5
84
330
83
100
AcDbEntity
  8
_U+30EC_U+30A4_U+30E4_U+30FC 1
 62
   179
420
  2234388
370
     9
100
AcDbVertex
100
AcDb2dVertex
 10
122.1186460511605
 20
-143.5512749641123
 30
0.0
  0
VERTEX
  5
85
330
83
100
AcDbEntity
  8
_U+30EC_U+30A4_U+30E4_U+30FC 1
 62
   179
420
  2234388
370
     9
100
AcDbVertex
100
AcDb2dVertex
 10
122.1186460511605
 20
-139.7809624650549
 30
0.0
  0
SEQEND
  5
86
330
83
100
AcDbEntity
  8
_U+30EC_U+30A4_U+30E4_U+30FC 1
 62
   179
420
  2234388
370
     9
  0
POLYLINE
  5
87
330
1F
100
AcDbEntity
  8
_U+30EC_U+30A4_U+30E4_U+30FC 1
 62
   179
420
  2234388
370
     9
100
AcDb2dPolyline
 66
     1
 10
0.0
 20
0.0
 30
0.0
  0
VERTEX
  5
88
330
87
100
AcDbEntity
  8
_U+30EC_U+30A4_U+30E4_U+30FC 1
 62
   179
420
  2234388
370
     9
100
AcDbVertex
100
AcDb2dVertex
 10
122.1186460511605
 20
-143.5512749641123
 30
0.0
  0
VERTEX
  5
89
330
87
100
AcDbEntity
  8
_U+30EC_U+30A4_U+30E4_U+30FC 1
 62
   179
420
  2234388
370
     9
100
AcDbVertex
100
AcDb2dVertex
 10
122.1186460511605
 20
-144.5510471860845
 30
0.0
  0
SEQEND
  5
8A
330
87
100
AcDbEntity
  8
_U+30EC_U+30A4_U+30E4_U+30FC 1
 62
   179
420
  2234388
370
     9
  0
POLYLINE
  5
8B
330
1F
100
AcDbEntity
  8
_U+30EC_U+30A4_U+30E4_U+30FC 1
 62
   179
420
  2234388
370
     9
100
AcDb2dPolyline
 66
     1
 10
0.0
 20
0.0
 30
0.0
  0
VERTEX
  5
8C
330
8B
100
AcDbEntity
  8
_U+30EC_U+30A4_U+30E4_U+30FC 1
 62
   179
420
  2234388
370
     9
100
AcDbVertex
100
AcDb2dVertex
 10
120.6586046995203
 20
-143.5512749641123
 30
0.0
  0
VERTEX
  5
8D
330
8B
100
AcDbEntity
  8
_U+30EC_U+30A4_U+30E4_U+30FC 1
 62
   179
420
  2234388
370
     9
100
AcDbVertex
100
AcDb2dVertex
 10
123.1184182478764
 20
-143.5512749641123
 30
0.0
  0
SEQEND
  5
8E
330
8B
100
AcDbEntity
  8
_U+30EC_U+30A4_U+30E4_U+30FC 1
 62
   179
420
  2234388
370
     9
  0
POLYLINE
  5
8F
330
1F
100
AcDbEntity
  8
_U+30EC_U+30A4_U+30E4_U+30FC 1
 62
   179
420
  2234388
370
     9
100
AcDb2dPolyline
 66
     1
 10
0.0
 20
0.0
 30
0.0
  0
VERTEX
  5
90
330
8F
100
AcDbEntity
  8
_U+30EC_U+30A4_U+30E4_U+30FC 1
 62
   179
420
  2234388
370
     9
100
AcDbVertex
100
AcDb2dVertex
 10
120.6586046995203
 20
-144.5510471860845
 30
0.0
  0
VERTEX
  5
91
330
8F
100
AcDbEntity
  8
_U+30EC_U+30A4_U+30E4_U+30FC 1
 62
   179
420
  2234388
370
     9
100
AcDbVertex
100
AcDb2dVertex
 10
123.1184182478764
 20
-144.5510471860845
 30
0.0
  0
SEQEND
  5
92
330
8F
100
AcDbEntity
  8
_U+30EC_U+30A4_U+30E4_U+30FC 1
 62
   179
420
  2234388
370
     9
  0
INSERT
  5
94
330
1F
100
AcDbEntity
  8
_U+30EC_U+30A4_U+30E4_U+30FC 1
100
AcDbBlockReference
  2
block 2
 10
0.0
 20
0.0
 30
0.0
  0
POLYLINE
  5
99
330
1F
100
AcDbEntity
  8
_U+30EC_U+30A4_U+30E4_U+30FC 1
 62
   179
420
  2234388
370
     9
100
AcDb2dPolyline
 66
     1
 10
0.0
 20
0.0
 30
0.0
  0
VERTEX
  5
9A
330
99
100
AcDbEntity
  8
_U+30EC_U+30A4_U+30E4_U+30FC 1
 62
   179
420
  2234388
370
     9
100
AcDbVertex
100
AcDb2dVertex
 10
122.1186460511605
 20
-144.5510471860845
 30
0.0
  0
VERTEX
  5
9B
330
99
100
AcDbEntity
  8
_U+30EC_U+30A4_U+30E4_U+30FC 1
 62
   179
420
  2234388
370
     9
100
AcDbVertex
100
AcDb2dVertex
 10
122.1186460511605
 20
-154.5514505169175
 30
0.0
  0
SEQEND
  5
9C
330
99
100
AcDbEntity
  8
_U+30EC_U+30A4_U+30E4_U+30FC 1
 62
   179
420
  2234388
370
     9
  0
POLYLINE
  5
9D
330
1F
100
AcDbEntity
  8
_U+30EC_U+30A4_U+30E4_U+30FC 1
 62
   179
420
  2234388
370
     9
100
AcDb2dPolyline
 66
     1
 10
0.0
 20
0.0
 30
0.0
  0
VERTEX
  5
9E
330
9D
100
AcDbEntity
  8
_U+30EC_U+30A4_U+30E4_U+30FC 1
 62
   179
420
  2234388
370
     9
100
AcDbVertex
100
AcDb2dVertex
 10
105.6579648044408
 20
-154.5514505169175
 30
0.0
  0
VERTEX
  5
9F
330
9D
100
AcDbEntity
  8
_U+30EC_U+30A4_U+30E4_U+30FC 1
 62
   179
420
  2234388
370
     9
100
AcDbVertex
100
AcDb2dVertex
 10
123.1184182478764
 20
-154.5514505169175
 30
0.0
  0
SEQEND
  5
A0
330
9D
100
AcDbEntity
  8
_U+30EC_U+30A4_U+30E4_U+30FC 1
 62
   179
420
  2234388
370
     9
  0
INSERT
  5
A2
330
1F
100
AcDbEntity
  8
_U+30EC_U+30A4_U+30E4_U+30FC 1
100
AcDbBlockReference
  2
block 3
 10
0.0
 20
0.0
 30
0.0
  0
POLYLINE
  5
AA
330
1F
100
AcDbEntity
  8
_U+30EC_U+30A4_U+30E4_U+30FC 1
 62
   179
420
  2234388
370
     9
100
AcDb2dPolyline
 66
     1
 10
0.0
 20
0.0
 30
0.0
  0
VERTEX
  5
AB
330
AA
100
AcDbEntity
  8
_U+30EC_U+30A4_U+30E4_U+30FC 1
 62
   179
420
  2234388
370
     9
100
AcDbVertex
100
AcDb2dVertex
 10
93.11851664338691
 20
-159.5509819045569
 30
0.0
  0
VERTEX
  5
AC
330
AA
100
AcDbEntity
  8
_U+30EC_U+30A4_U+30E4_U+30FC 1
 62
   179
420
  2234388
370
     9
100
AcDbVertex
100
AcDb2dVertex
 10
103.1182470914566
 20
-159.5509819045569
 30
0.0
  0
SEQEND
  5
AD
330
AA
100
AcDbEntity
  8
_U+30EC_U+30A4_U+30E4_U+30FC 1
 62
   179
420
  2234388
370
     9
  0
POLYLINE
  5
AE
330
1F
100
AcDbEntity
  8
_U+30EC_U+30A4_U+30E4_U+30FC 1
 62
   179
420
  2234388
370
     9
100
AcDb2dPolyline
 66
     1
 10
0.0
 20
0.0
 30
0.0
  0
VERTEX
  5
AF
330
AE
100
AcDbEntity
  8
_U+30EC_U+30A4_U+30E4_U+30FC 1
 62
   179
420
  2234388
370
     9
100
AcDbVertex
100
AcDb2dVertex
 10
93.11851664338691
 20
-158.0909405160326
 30
0.0
  0
VERTEX
  5
B0
330
AE
100
AcDbEntity
  8
_U+30EC_U+30A4_U+30E4_U+30FC 1
 62
   179
420
  2234388
370
     9
100
AcDbVertex
100
AcDb2dVertex
 10
93.11851664338691
 20
-160.5514244043068
 30
0.0
  0
SEQEND
  5
B1
330
AE
100
AcDbEntity
  8
_U+30EC_U+30A4_U+30E4_U+30FC 1
 62
   179
420
  2234388
370
     9
  0
POLYLINE
  5
B2
330
1F
100
AcDbEntity
  8
_U+30EC_U+30A4_U+30E4_U+30FC 1
 62
   179
420
  2234388
370
     9
100
AcDb2dPolyline
 66
     1
 10
0.0
 20
0.0
 30
0.0
  0
VERTEX
  5
B3
330
B2
100
AcDbEntity
  8
_U+30EC_U+30A4_U+30E4_U+30FC 1
 62
   179
420
  2234388
370
     9
100
AcDbVertex
100
AcDb2dVertex
 10
103.1182470914566
 20
-157.3909235717631
 30
0.0
  0
VERTEX
  5
B4
330
B2
100
AcDbEntity
  8
_U+30EC_U+30A4_U+30E4_U+30FC 1
 62
   179
420
  2234388
370
     9
100
AcDbVertex
100
AcDb2dVertex
 10
103.1182470914566
 20
-160.5514244043068
 30
0.0
  0
SEQEND
  5
B5
330
B2
100
AcDbEntity
  8
_U+30EC_U+30A4_U+30E4_U+30FC 1
 62
   179
420
  2234388
370
     9
  0
INSERT
  5
B7
330
1F
100
AcDbEntity
  8
_U+30EC_U+30A4_U+30E4_U+30FC 1
100
AcDbBlockReference
  2
block 4
 10
0.0
 20
0.0
 30
0.0
  0
POLYLINE
  5
BF
330
1F
100
AcDbEntity
  8
_U+30EC_U+30A4_U+30E4_U+30FC 1
 62
   179
420
  2234388
370
     9
100
AcDb2dPolyline
 66
     1
 10
0.0
 20
0.0
 30
0.0
  0
VERTEX
  5
C0
330
BF
100
AcDbEntity
  8
_U+30EC_U+30A4_U+30E4_U+30FC 1
 62
   179
420
  2234388
370
     9
100
AcDbVertex
100
AcDb2dVertex
 10
87.11854055519865
 20
-159.5509819045569
 30
0.0
  0
VERTEX
  5
C1
330
BF
100
AcDbEntity
  8
_U+30EC_U+30A4_U+30E4_U+30FC 1
 62
   179
420
  2234388
370
     9
100
AcDbVertex
100
AcDb2dVertex
 10
93.11851664338691
 20
-159.5509819045569
 30
0.0
  0
SEQEND
  5
C2
330
BF
100
AcDbEntity
  8
_U+30EC_U+30A4_U+30E4_U+30FC 1
 62
   179
420
  2234388
370
     9
  0
POLYLINE
  5
C3
330
1F
100
AcDbEntity
  8
_U+30EC_U+30A4_U+30E4_U+30FC 1
 62
   179
420
  2234388
370
     9
100
AcDb2dPolyline
 66
     1
 10
0.0
 20
0.0
 30
0.0
  0
VERTEX
  5
C4
330
C3
100
AcDbEntity
  8
_U+30EC_U+30A4_U+30E4_U+30FC 1
 62
   179
420
  2234388
370
     9
100
AcDbVertex
100
AcDb2dVertex
 10
87.11854055519865
 20
-147.0914352410051
 30
0.0
  0
VERTEX
  5
C5
330
C3
100
AcDbEntity
  8
_U+30EC_U+30A4_U+30E4_U+30FC 1
 62
   179
420
  2234388
370
     9
100
AcDbVertex
100
AcDb2dVertex
 10
87.11854055519865
 20
-160.5514244043068
 30
0.0
  0
SEQEND
  5
C6
330
C3
100
AcDbEntity
  8
_U+30EC_U+30A4_U+30E4_U+30FC 1
 62
   179
420
  2234388
370
     9
  0
INSERT
  5
C8
330
1F
100
AcDbEntity
  8
_U+30EC_U+30A4_U+30E4_U+30FC 1
100
AcDbBlockReference
  2
block 5
 10
0.0
 20
0.0
 30
0.0
  0
POLYLINE
  5
CE
330
1F
100
AcDbEntity
  8
_U+30EC_U+30A4_U+30E4_U+30FC 1
 62
   179
420
  2234388
370
     9
100
AcDb2dPolyline
 66
     1
 10
0.0
 20
0.0
 30
0.0
  0
VERTEX
  5
CF
330
CE
100
AcDbEntity
  8
_U+30EC_U+30A4_U+30E4_U+30FC 1
 62
   179
420
  2234388
370
     9
100
AcDbVertex
100
AcDb2dVertex
 10
118.1181814309986
 20
-139.5515157984454
 30
0.0
  0
VERTEX
  5
D0
330
CE
100
AcDbEntity
  8
_U+30EC_U+30A4_U+30E4_U+30FC 1
 62
   179
420
  2234388
370
     9
100
AcDbVertex
100
AcDb2dVertex
 10
87.11854055519865
 20
-139.5515157984454
 30
0.0
  0
SEQEND
  5
D1
330
CE
100
AcDbEntity
  8
_U+30EC_U+30A4_U+30E4_U+30FC 1
 62
   179
420
  2234388
370
     9
  0
POLYLINE
  5
D2
330
1F
100
AcDbEntity
  8
_U+30EC_U+30A4_U+30E4_U+30FC 1
 62
   179
420
  2234388
370
     9
100
AcDb2dPolyline
 66
     1
 10
0.0
 20
0.0
 30
0.0
  0
VERTEX
  5
D3
330
D2
100
AcDbEntity
  8
_U+30EC_U+30A4_U+30E4_U+30FC 1
 62
   179
420
  2234388
370
     9
100
AcDbVertex
100
AcDb2dVertex
 10
118.1181814309986
 20
-141.0108516314139
 30
0.0
  0
VERTEX
  5
D4
330
D2
100
AcDbEntity
  8
_U+30EC_U+30A4_U+30E4_U+30FC 1
 62
   179
420
  2234388
370
     9
100
AcDbVertex
100
AcDb2dVertex
 10
118.1181814309986
 20
-138.5510732986955
 30
0.0
  0
SEQEND
  5
D5
330
D2
100
AcDbEntity
  8
_U+30EC_U+30A4_U+30E4_U+30FC 1
 62
   179
420
  2234388
370
     9
  0
POLYLINE
  5
D6
330
1F
100
AcDbEntity
  8
_U+30EC_U+30A4_U+30E4_U+30FC 1
 62
   179
420
  2234388
370
     9
100
AcDb2dPolyline
 66
     1
 10
0.0
 20
0.0
 30
0.0
  0
VERTEX
  5
D7
330
D6
100
AcDbEntity
  8
_U+30EC_U+30A4_U+30E4_U+30FC 1
 62
   179
420
  2234388
370
     9
100
AcDbVertex
100
AcDb2dVertex
 10
87.11854055519865
 20
-141.0108516314139
 30
0.0
  0
VERTEX
  5
D8
330
D6
100
AcDbEntity
  8
_U+30EC_U+30A4_U+30E4_U+30FC 1
 62
   179
420
  2234388
370
     9
100
AcDbVertex
100
AcDb2dVertex
 10
87.11854055519865
 20
-138.5510732986955
 30
0.0
  0
SEQEND
  5
D9
330
D6
100
AcDbEntity
  8
_U+30EC_U+30A4_U+30E4_U+30FC 1
 62
   179
420
  2234388
370
     9
  0
INSERT
  5
DB
330
1F
100
AcDbEntity
  8
_U+30EC_U+30A4_U+30E4_U+30FC 1
100
AcDbBlockReference
  2
block 6
 10
0.0
 20
0.0
 30
0.0
  0
POLYLINE
  5
E2
330
1F
100
AcDbEntity
  8
_U+30EC_U+30A4_U+30E4_U+30FC 1
 62
   179
420
  2234388
370
     9
100
AcDb2dPolyline
 66
     1
 10
0.0
 20
0.0
 30
0.0
  0
VERTEX
  5
E3
330
E2
100
AcDbEntity
  8
_U+30EC_U+30A4_U+30E4_U+30FC 1
 62
   179
420
  2234388
370
     9
100
AcDbVertex
100
AcDb2dVertex
 10
107.1180061560809
 20
-154.5514505169175
 30
0.0
  0
VERTEX
  5
E4
330
E2
100
AcDbEntity
  8
_U+30EC_U+30A4_U+30E4_U+30FC 1
 62
   179
420
  2234388
370
     9
100
AcDbVertex
100
AcDb2dVertex
 10
107.1180061560809
 20
-149.2935446848986
 30
0.0
  0
SEQEND
  5
E5
330
E2
100
AcDbEntity
  8
_U+30EC_U+30A4_U+30E4_U+30FC 1
 62
   179
420
  2234388
370
     9
  0
POLYLINE
  5
E6
330
1F
100
AcDbEntity
  8
_U+30EC_U+30A4_U+30E4_U+30FC 1
 62
   179
420
  2234388
370
     9
100
AcDb2dPolyline
 66
     1
 10
0.0
 20
0.0
 30
0.0
  0
VERTEX
  5
E7
330
E6
100
AcDbEntity
  8
_U+30EC_U+30A4_U+30E4_U+30FC 1
 62
   179
420
  2234388
370
     9
100
AcDbVertex
100
AcDb2dVertex
 10
107.1180061560809
 20
-154.5514505169175
 30
0.0
  0
VERTEX
  5
E8
330
E6
100
AcDbEntity
  8
_U+30EC_U+30A4_U+30E4_U+30FC 1
 62
   179
420
  2234388
370
     9
100
AcDbVertex
100
AcDb2dVertex
 10
107.1180061560809
 20
-156.0514616276537
 30
0.0
  0
SEQEND
  5
E9
330
E6
100
AcDbEntity
  8
_U+30EC_U+30A4_U+30E4_U+30FC 1
 62
   179
420
  2234388
370
     9
  0
POLYLINE
  5
EA
330
1F
100
AcDbEntity
  8
_U+30EC_U+30A4_U+30E4_U+30FC 1
 62
   179
420
  2234388
370
     9
100
AcDb2dPolyline
 66
     1
 10
0.0
 20
0.0
 30
0.0
  0
VERTEX
  5
EB
330
EA
100
AcDbEntity
  8
_U+30EC_U+30A4_U+30E4_U+30FC 1
 62
   179
420
  2234388
370
     9
100
AcDbVertex
100
AcDb2dVertex
 10
105.6579648044408
 20
-154.5514505169175
 30
0.0
  0
VERTEX
  5
EC
330
EA
100
AcDbEntity
  8
_U+30EC_U+30A4_U+30E4_U+30FC 1
 62
   179
420
  2234388
370
     9
100
AcDbVertex
100
AcDb2dVertex
 10
108.1184486305575
 20
-154.5514505169175
 30
0.0
  0
SEQEND
  5
ED
330
EA
100
AcDbEntity
  8
_U+30EC_U+30A4_U+30E4_U+30FC 1
 62
   179
420
  2234388
370
     9
  0
POLYLINE
  5
EE
330
1F
100
AcDbEntity
  8
_U+30EC_U+30A4_U+30E4_U+30FC 1
 62
   179
420
  2234388
370
     9
100
AcDb2dPolyline
 66
     1
 10
0.0
 20
0.0
 30
0.0
  0
VERTEX
  5
EF
330
EE
100
AcDbEntity
  8
_U+30EC_U+30A4_U+30E4_U+30FC 1
 62
   179
420
  2234388
370
     9
100
AcDbVertex
100
AcDb2dVertex
 10
105.6579648044408
 20
-155.0509838501263
 30
0.0
  0
VERTEX
  5
F0
330
EE
100
AcDbEntity
  8
_U+30EC_U+30A4_U+30E4_U+30FC 1
 62
   179
420
  2234388
370
     9
100
AcDbVertex
100
AcDb2dVertex
 10
108.1184486305575
 20
-155.0509838501263
 30
0.0
  0
SEQEND
  5
F1
330
EE
100
AcDbEntity
  8
_U+30EC_U+30A4_U+30E4_U+30FC 1
 62
   179
420
  2234388
370
     9
  0
INSERT
  5
F3
330
1F
100
AcDbEntity
  8
_U+30EC_U+30A4_U+30E4_U+30FC 1
100
AcDbBlockReference
  2
block 7
 10
0.0
 20
0.0
 30
0.0
  0
ENDSEC
  0
SECTION
  2
OBJECTS
  0
DICTIONARY
  5
C
330
0
100
AcDbDictionary
281
     1
  3
ACAD_GROUP
350
D
  3
ACAD_LAYOUT
350
1A
  3
ACAD_MATERIAL
350
3B
  3
ACAD_MLEADERSTYLE
350
104
  3
ACAD_MLINESTYLE
350
17
  3
ACAD_PLOTSETTINGS
350
19
  3
ACAD_PLOTSTYLENAME
350
E
  3
ACAD_TABLESTYLE
350
103
  3
ACAD_VISUALSTYLE
350
2A
  0
SUN
  5
3F
330
29
100
AcDbSun
 90
        1
290
     0
 63
     7
421
 16777215
 40
1.0
291
     1
 91
  2455826
 92
 54000000
292
     0
 70
     2
 71
   256
280
     1
  0
DICTIONARY
  5
D
102
{ACAD_REACTORS
330
C
102
}
330
C
100
AcDbDictionary
281
     1
  0
DICTIONARY
  5
1A
102
{ACAD_REACTORS
330
C
102
}
330
C
100
AcDbDictionary
281
     1
  3
Layout1
350
1E
  3
Layout2
350
26
  3
Model
350
22
  0
DICTIONARY
  5
3B
102
{ACAD_REACTORS
330
C
102
}
330
C
100
AcDbDictionary
281
     1
  3
ByBlock
350
3D
  3
ByLayer
350
3C
  3
Global
350
3E
  0
DICTIONARY
  5
104
102
{ACAD_REACTORS
330
C
102
}
330
C
100
AcDbDictionary
281
     1
  0
DICTIONARY
  5
17
102
{ACAD_REACTORS
330
C
102
}
330
C
100
AcDbDictionary
281
     1
  3
Standard
350
18
  0
DICTIONARY
  5
19
102
{ACAD_REACTORS
330
C
102
}
330
C
100
AcDbDictionary
281
     1
  0
ACDBDICTIONARYWDFLT
  5
E
102
{ACAD_REACTORS
330
C
102
}
330
C
100
AcDbDictionary
281
     1
  3
Normal
350
F
100
AcDbDictionaryWithDefault
340
F
  0
DICTIONARY
  5
103
102
{ACAD_REACTORS
330
C
102
}
330
C
100
AcDbDictionary
281
     1
  0
DICTIONARY
  5
2A
102
{ACAD_REACTORS
330
C
102
}
330
C
100
AcDbDictionary
281
     1
  3
2dWireframe
350
2F
  3
3D Hidden
350
31
  3
3dWireframe
350
30
  3
Basic
350
32
  3
Brighten
350
36
  3
ColorChange
350
3A
  3
Conceptual
350
34
  3
Dim
350
35
  3
Facepattern
350
39
  3
Flat
350
2B
  3
FlatWithEdges
350
2C
  3
Gouraud
350
2D
  3
GouraudWithEdges
350
2E
  3
Linepattern
350
38
  3
Realistic
350
33
  3
Thicken
350
37
  0
LAYOUT
  5
1E
102
{ACAD_REACTORS
330
1A
102
}
330
1A
100
AcDbPlotSettings
  1

  2
none_device
  4

  6

 40
0.0
 41
0.0
 42
0.0
 43
0.0
 44
0.0
 45
0.0
 46
0.0
 47
0.0
 48
0.0
 49
0.0
140
0.0
141
0.0
142
1.0
143
1.0
 70
   688
 72
     0
 73
     0
 74
     5
  7

 75
    16
 76
     0
 77
     2
 78
   300
147
1.0
148
0.0
149
0.0
100
AcDbLayout
  1
Layout1
 70
     1
 71
     1
 10
0.0
 20
0.0
 11
12.0
 21
9.0
 12
0.0
 22
0.0
 32
0.0
 14
1.000000000000000E+20
 24
1.000000000000000E+20
 34
1.000000000000000E+20
 15
-1.000000000000000E+20
 25
-1.000000000000000E+20
 35
-1.000000000000000E+20
146
0.0
 13
0.0
 23
0.0
 33
0.0
 16
1.0
 26
0.0
 36
0.0
 17
0.0
 27
1.0
 37
0.0
 76
     0
330
1B
  0
LAYOUT
  5
26
102
{ACAD_REACTORS
330
1A
102
}
330
1A
100
AcDbPlotSettings
  1

  2
none_device
  4

  6

 40
0.0
 41
0.0
 42
0.0
 43
0.0
 44
0.0
 45
0.0
 46
0.0
 47
0.0
 48
0.0
 49
0.0
140
0.0
141
0.0
142
1.0
143
1.0
 70
   688
 72
     0
 73
     0
 74
     5
  7

 75
    16
 76
     0
 77
     2
 78
   300
147
1.0
148
0.0
149
0.0
100
AcDbLayout
  1
Layout2
 70
     1
 71
     2
 10
0.0
 20
0.0
 11
0.0
 21
0.0
 12
0.0
 22
0.0
 32
0.0
 14
0.0
 24
0.0
 34
0.0
 15
0.0
 25
0.0
 35
0.0
146
0.0
 13
0.0
 23
0.0
 33
0.0
 16
1.0
 26
0.0
 36
0.0
 17
0.0
 27
1.0
 37
0.0
 76
     0
330
23
  0
LAYOUT
  5
22
102
{ACAD_REACTORS
330
1A
102
}
330
1A
100
AcDbPlotSettings
  1

  2
none_device
  4

  6

 40
0.0
 41
0.0
 42
0.0
 43
0.0
 44
0.0
 45
0.0
 46
0.0
 47
0.0
 48
0.0
 49
0.0
140
0.0
141
0.0
142
1.0
143
1.0
 70
  1712
 72
     0
 73
     0
 74
     0
  7

 75
     0
 76
     0
 77
     2
 78
   300
147
1.0
148
0.0
149
0.0
100
AcDbLayout
  1
Model
 70
     1
 71
     0
 10
0.0
 20
0.0
 11
12.0
 21
9.0
 12
0.0
 22
0.0
 32
0.0
 14
1.000000000000000E+20
 24
1.000000000000000E+20
 34
1.000000000000000E+20
 15
-1.000000000000000E+20
 25
-1.000000000000000E+20
 35
-1.000000000000000E+20
146
0.0
 13
0.0
 23
0.0
 33
0.0
 16
1.0
 26
0.0
 36
0.0
 17
0.0
 27
1.0
 37
0.0
 76
     0
330
1F
331
29
  0
MATERIAL
  5
3D
102
{ACAD_REACTORS
330
3B
102
}
330
3B
100
AcDbMaterial
  1
ByBlock
 72
     1
 94
      127
  0
MATERIAL
  5
3C
102
{ACAD_REACTORS
330
3B
102
}
330
3B
100
AcDbMaterial
  1
ByLayer
 72
     1
 94
      127
  0
MATERIAL
  5
3E
102
{ACAD_REACTORS
330
3B
102
}
330
3B
100
AcDbMaterial
  1
Global
 72
     1
 94
      127
  0
MLINESTYLE
  5
18
102
{ACAD_REACTORS
330
17
102
}
330
17
100
AcDbMlineStyle
  2
Standard
 70
     0
  3

 62
   256
 51
90.0
 52
90.0
 71
     2
 49
0.5
 62
   256
  6
BYLAYER
 49
-0.5
 62
   256
  6
BYLAYER
  0
ACDBPLACEHOLDER
  5
F
102
{ACAD_REACTORS
330
E
102
}
330
E
  0
VISUALSTYLE
  5
2F
102
{ACAD_REACTORS
330
2A
102
}
330
2A
100
AcDbVisualStyle
  2
2dWireframe
 70
     4
177
     2
291
     0
 71
     0
176
     1
 72
     2
176
     1
 73
     0
176
     1
 90
        0
176
     1
 40
-0.6
176
     1
 41
-30.0
176
     1
 62
     5
 63
     7
421
 16777215
176
     1
 74
     1
176
     1
 91
        4
176
     1
 64
     7
176
     1
 65
   257
176
     1
 75
     1
176
     1
175
     1
176
     1
 42
1.0
176
     1
 92
        0
176
     1
 66
   257
176
     1
 43
1.0
176
     1
 76
     1
176
     1
 77
     6
176
     1
 78
     2
176
     1
 67
     7
176
     1
 79
     5
176
     1
170
     0
176
     1
171
     0
176
     1
290
     0
176
     1
 93
        1
176
     1
 44
0.0
176
     1
173
     0
176
     1
  0
VISUALSTYLE
  5
31
102
{ACAD_REACTORS
330
2A
102
}
330
2A
100
AcDbVisualStyle
  2
3D Hidden
 70
     6
177
     2
291
     0
 71
     1
176
     1
 72
     2
176
     1
 73
     2
176
     1
 90
        0
176
     1
 40
-0.6
176
     1
 41
-30.0
176
     1
 62
     5
 63
     7
421
 16777215
176
     1
 74
     2
176
     1
 91
        2
176
     1
 64
     7
176
     1
 65
   257
176
     1
 75
     2
176
     1
175
     1
176
     1
 42
40.0
176
     1
 92
        0
176
     1
 66
   257
176
     1
 43
1.0
176
     1
 76
     1
176
     1
 77
     6
176
     1
 78
     2
176
     1
 67
     7
176
     1
 79
     3
176
     1
170
     0
176
     1
171
     0
176
     1
290
     0
176
     1
 93
        1
176
     1
 44
0.0
176
     1
173
     0
176
     1
  0
VISUALSTYLE
  5
30
102
{ACAD_REACTORS
330
2A
102
}
330
2A
100
AcDbVisualStyle
  2
3dWireframe
 70
     5
177
     2
291
     0
 71
     0
176
     1
 72
     2
176
     1
 73
     0
176
     1
 90
        0
176
     1
 40
-0.6
176
     1
 41
-30.0
176
     1
 62
     5
 63
     7
421
 16777215
176
     1
 74
     1
176
     1
 91
        4
176
     1
 64
     7
176
     1
 65
   257
176
     1
 75
     1
176
     1
175
     1
176
     1
 42
1.0
176
     1
 92
        0
176
     1
 66
   257
176
     1
 43
1.0
176
     1
 76
     1
176
     1
 77
     6
176
     1
 78
     2
176
     1
 67
     7
176
     1
 79
     5
176
     1
170
     0
176
     1
171
     0
176
     1
290
     0
176
     1
 93
        1
176
     1
 44
0.0
176
     1
173
     0
176
     1
  0
VISUALSTYLE
  5
32
102
{ACAD_REACTORS
330
2A
102
}
330
2A
100
AcDbVisualStyle
  2
Basic
 70
     7
177
     2
291
     1
 71
     1
176
     1
 72
     0
176
     1
 73
     1
176
     1
 90
        0
176
     1
 40
-0.6
176
     1
 41
-30.0
176
     1
 62
     5
 63
     7
421
 16777215
176
     1
 74
     0
176
     1
 91
        4
176
     1
 64
     7
176
     1
 65
   257
176
     1
 75
     1
176
     1
175
     1
176
     1
 42
1.0
176
     1
 92
        8
176
     1
 66
     7
176
     1
 43
1.0
176
     1
 76
     1
176
     1
 77
     6
176
     1
 78
     2
176
     1
 67
     7
176
     1
 79
     5
176
     1
170
     0
176
     1
171
     0
176
     1
290
     0
176
     1
 93
        1
176
     1
 44
0.0
176
     1
173
     0
176
     1
  0
VISUALSTYLE
  5
36
102
{ACAD_REACTORS
330
2A
102
}
330
2A
100
AcDbVisualStyle
  2
Brighten
 70
    12
177
     2
291
     1
 71
     2
176
     1
 72
     2
176
     1
 73
     0
176
     1
 90
        0
176
     1
 40
-0.6
176
     1
 41
-30.0
176
     1
 62
     5
 63
     7
421
 16777215
176
     1
 74
     1
176
     1
 91
        4
176
     1
 64
     7
176
     1
 65
   257
176
     1
 75
     1
176
     1
175
     1
176
     1
 42
1.0
176
     1
 92
        8
176
     1
 66
     7
176
     1
 43
1.0
176
     1
 76
     1
176
     1
 77
     6
176
     1
 78
     2
176
     1
 67
     7
176
     1
 79
     5
176
     1
170
     0
176
     1
171
     0
176
     1
290
     0
176
     1
 93
        1
176
     1
 44
50.0
176
     1
173
     0
176
     1
  0
VISUALSTYLE
  5
3A
102
{ACAD_REACTORS
330
2A
102
}
330
2A
100
AcDbVisualStyle
  2
ColorChange
 70
    16
177
     2
291
     1
 71
     2
176
     1
 72
     2
176
     1
 73
     3
176
     1
 90
        0
176
     1
 40
-0.6
176
     1
 41
-30.0
176
     1
 62
     5
 63
     8
421
  8421504
176
     1
 74
     1
176
     1
 91
        4
176
     1
 64
     7
176
     1
 65
   257
176
     1
 75
     1
176
     1
175
     1
176
     1
 42
1.0
176
     1
 92
        8
176
     1
 66
     8
424
  8421504
176
     1
 43
1.0
176
     1
 76
     1
176
     1
 77
     6
176
     1
 78
     2
176
     1
 67
     7
176
     1
 79
     5
176
     1
170
     0
176
     1
171
     0
176
     1
290
     0
176
     1
 93
        1
176
     1
 44
0.0
176
     1
173
     0
176
     1
  0
VISUALSTYLE
  5
34
102
{ACAD_REACTORS
330
2A
102
}
330
2A
100
AcDbVisualStyle
  2
Conceptual
 70
     9
177
     2
291
     0
 71
     3
176
     1
 72
     2
176
     1
 73
     0
176
     1
 90
        0
176
     1
 40
-0.6
176
     1
 41
-30.0
176
     1
 62
     5
 63
     7
421
 16777215
176
     1
 74
     2
176
     1
 91
        2
176
     1
 64
     7
176
     1
 65
   257
176
     1
 75
     1
176
     1
175
     1
176
     1
 42
40.0
176
     1
 92
        8
176
     1
 66
     7
176
     1
 43
1.0
176
     1
 76
     1
176
     1
 77
     6
176
     1
 78
     2
176
     1
 67
     7
176
     1
 79
     3
176
     1
170
     0
176
     1
171
     0
176
     1
290
     0
176
     1
 93
        1
176
     1
 44
0.0
176
     1
173
     0
176
     1
  0
VISUALSTYLE
  5
35
102
{ACAD_REACTORS
330
2A
102
}
330
2A
100
AcDbVisualStyle
  2
Dim
 70
    11
177
     2
291
     1
 71
     2
176
     1
 72
     2
176
     1
 73
     0
176
     1
 90
        0
176
     1
 40
-0.6
176
     1
 41
-30.0
176
     1
 62
     5
 63
     7
421
 16777215
176
     1
 74
     1
176
     1
 91
        4
176
     1
 64
     7
176
     1
 65
   257
176
     1
 75
     1
176
     1
175
     1
176
     1
 42
1.0
176
     1
 92
        8
176
     1
 66
     7
176
     1
 43
1.0
176
     1
 76
     1
176
     1
 77
     6
176
     1
 78
     2
176
     1
 67
     7
176
     1
 79
     5
176
     1
170
     0
176
     1
171
     0
176
     1
290
     0
176
     1
 93
        1
176
     1
 44
-50.0
176
     1
173
     0
176
     1
  0
VISUALSTYLE
  5
39
102
{ACAD_REACTORS
330
2A
102
}
330
2A
100
AcDbVisualStyle
  2
Facepattern
 70
    15
177
     2
291
     1
 71
     2
176
     1
 72
     2
176
     1
 73
     0
176
     1
 90
        0
176
     1
 40
-0.6
176
     1
 41
-30.0
176
     1
 62
     5
 63
     7
421
 16777215
176
     1
 74
     1
176
     1
 91
        4
176
     1
 64
     7
176
     1
 65
   257
176
     1
 75
     1
176
     1
175
     1
176
     1
 42
1.0
176
     1
 92
        8
176
     1
 66
     7
176
     1
 43
1.0
176
     1
 76
     1
176
     1
 77
     6
176
     1
 78
     2
176
     1
 67
     7
176
     1
 79
     5
176
     1
170
     0
176
     1
171
     0
176
     1
290
     0
176
     1
 93
        1
176
     1
 44
0.0
176
     1
173
     0
176
     1
  0
VISUALSTYLE
  5
2B
102
{ACAD_REACTORS
330
2A
102
}
330
2A
100
AcDbVisualStyle
  2
Flat
 70
     0
177
     2
291
     1
 71
     2
176
     1
 72
     1
176
     1
 73
     1
176
     1
 90
        2
176
     1
 40
-0.6
176
     1
 41
30.0
176
     1
 62
     5
 63
     7
421
 16777215
176
     1
 74
     0
176
     1
 91
        4
176
     1
 64
     7
176
     1
 65
   257
176
     1
 75
     1
176
     1
175
     1
176
     1
 42
1.0
176
     1
 92
        8
176
     1
 66
     7
176
     1
 43
1.0
176
     1
 76
     1
176
     1
 77
     6
176
     1
 78
     2
176
     1
 67
     7
176
     1
 79
     5
176
     1
170
     0
176
     1
171
     0
176
     1
290
     0
176
     1
 93
       13
176
     1
 44
0.0
176
     1
173
     0
176
     1
  0
VISUALSTYLE
  5
2C
102
{ACAD_REACTORS
330
2A
102
}
330
2A
100
AcDbVisualStyle
  2
FlatWithEdges
 70
     1
177
     2
291
     1
 71
     2
176
     1
 72
     1
176
     1
 73
     1
176
     1
 90
        2
176
     1
 40
-0.6
176
     1
 41
30.0
176
     1
 62
     5
 63
     7
421
 16777215
176
     1
 74
     1
176
     1
 91
        4
176
     1
 64
     7
176
     1
 65
   257
176
     1
 75
     1
176
     1
175
     1
176
     1
 42
1.0
176
     1
 92
        0
176
     1
 66
   257
176
     1
 43
1.0
176
     1
 76
     1
176
     1
 77
     6
176
     1
 78
     2
176
     1
 67
     7
176
     1
 79
     5
176
     1
170
     0
176
     1
171
     0
176
     1
290
     0
176
     1
 93
       13
176
     1
 44
0.0
176
     1
173
     0
176
     1
  0
VISUALSTYLE
  5
2D
102
{ACAD_REACTORS
330
2A
102
}
330
2A
100
AcDbVisualStyle
  2
Gouraud
 70
     2
177
     2
291
     1
 71
     2
176
     1
 72
     2
176
     1
 73
     1
176
     1
 90
        2
176
     1
 40
-0.6
176
     1
 41
30.0
176
     1
 62
     5
 63
     7
421
 16777215
176
     1
 74
     0
176
     1
 91
        4
176
     1
 64
     7
176
     1
 65
   257
176
     1
 75
     1
176
     1
175
     1
176
     1
 42
1.0
176
     1
 92
        0
176
     1
 66
     7
176
     1
 43
1.0
176
     1
 76
     1
176
     1
 77
     6
176
     1
 78
     2
176
     1
 67
     7
176
     1
 79
     5
176
     1
170
     0
176
     1
171
     0
176
     1
290
     0
176
     1
 93
       13
176
     1
 44
0.0
176
     1
173
     0
176
     1
  0
VISUALSTYLE
  5
2E
102
{ACAD_REACTORS
330
2A
102
}
330
2A
100
AcDbVisualStyle
  2
GouraudWithEdges
 70
     3
177
     2
291
     1
 71
     2
176
     1
 72
     2
176
     1
 73
     1
176
     1
 90
        2
176
     1
 40
-0.6
176
     1
 41
30.0
176
     1
 62
     5
 63
     7
421
 16777215
176
     1
 74
     1
176
     1
 91
        4
176
     1
 64
     7
176
     1
 65
   257
176
     1
 75
     1
176
     1
175
     1
176
     1
 42
1.0
176
     1
 92
        0
176
     1
 66
   257
176
     1
 43
1.0
176
     1
 76
     1
176
     1
 77
     6
176
     1
 78
     2
176
     1
 67
     7
176
     1
 79
     5
176
     1
170
     0
176
     1
171
     0
176
     1
290
     0
176
     1
 93
       13
176
     1
 44
0.0
176
     1
173
     0
176
     1
  0
VISUALSTYLE
  5
38
102
{ACAD_REACTORS
330
2A
102
}
330
2A
100
AcDbVisualStyle
  2
Linepattern
 70
    14
177
     2
291
     1
 71
     2
176
     1
 72
     2
176
     1
 73
     0
176
     1
 90
        0
176
     1
 40
-0.6
176
     1
 41
-30.0
176
     1
 62
     5
 63
     7
421
 16777215
176
     1
 74
     1
176
     1
 91
        4
176
     1
 64
     7
176
     1
 65
   257
176
     1
 75
     7
176
     1
175
     7
176
     1
 42
1.0
176
     1
 92
        8
176
     1
 66
     7
176
     1
 43
1.0
176
     1
 76
     1
176
     1
 77
     6
176
     1
 78
     2
176
     1
 67
     7
176
     1
 79
     5
176
     1
170
     0
176
     1
171
     0
176
     1
290
     0
176
     1
 93
        1
176
     1
 44
0.0
176
     1
173
     0
176
     1
  0
VISUALSTYLE
  5
33
102
{ACAD_REACTORS
330
2A
102
}
330
2A
100
AcDbVisualStyle
  2
Realistic
 70
     8
177
     2
291
     0
 71
     2
176
     1
 72
     2
176
     1
 73
     0
176
     1
 90
        0
176
     1
 40
-0.6
176
     1
 41
-30.0
176
     1
 62
     5
 63
     7
421
 16777215
176
     1
 74
     1
176
     1
 91
        0
176
     1
 64
     7
176
     1
 65
   257
176
     1
 75
     1
176
     1
175
     1
176
     1
 42
1.0
176
     1
 92
        8
176
     1
 66
     8
424
  7895160
176
     1
 43
1.0
176
     1
 76
     1
176
     1
 77
     6
176
     1
 78
     2
176
     1
 67
     7
176
     1
 79
     5
176
     1
170
     0
176
     1
171
     0
176
     1
290
     0
176
     1
 93
       13
176
     1
 44
0.0
176
     1
173
     0
176
     1
  0
VISUALSTYLE
  5
37
102
{ACAD_REACTORS
330
2A
102
}
330
2A
100
AcDbVisualStyle
  2
Thicken
 70
    13
177
     2
291
     1
 71
     2
176
     1
 72
     2
176
     1
 73
     0
176
     1
 90
        0
176
     1
 40
-0.6
176
     1
 41
-30.0
176
     1
 62
     5
 63
     7
421
 16777215
176
     1
 74
     1
176
     1
 91
        4
176
     1
 64
     7
176
     1
 65
   257
176
     1
 75
     1
176
     1
175
     1
176
     1
 42
1.0
176
     1
 92
       12
176
     1
 66
     7
176
     1
 43
1.0
176
     1
 76
     1
176
     1
 77
     6
176
     1
 78
     2
176
     1
 67
     7
176
     1
 79
     5
176
     1
170
     0
176
     1
171
     0
176
     1
290
     0
176
     1
 93
        1
176
     1
 44
0.0
176
     1
173
     0
176
     1
  0
ENDSEC
  0
EOF
