  0
SECTION
  2
HEADER
  9
$ACADVER
  1
AC1024
  9
$ACADMAINTVER
 70
     6
  9
$DWGCODEPAGE
  3
UNDEFINED
  9
$INSBASE
 10
0.0
 20
0.0
 30
0.0
  9
$EXTMIN
 10
1.000000000000000E+20
 20
1.000000000000000E+20
 30
1.000000000000000E+20
  9
$EXTMAX
 10
-1.000000000000000E+20
 20
-1.000000000000000E+20
 30
-1.000000000000000E+20
  9
$LIMMIN
 10
0.0
 20
0.0
  9
$LIMMAX
 10
12.0
 20
9.0
  9
$ORTHOMODE
 70
     0
  9
$REGENMODE
 70
     1
  9
$FILLMODE
 70
     1
  9
$QTEXTMODE
 70
     0
  9
$MIRRTEXT
 70
     1
  9
$LTSCALE
 40
1.0
  9
$ATTMODE
 70
     1
  9
$TEXTSIZE
 40
0.2
  9
$TRACEWID
 40
0.05
  9
$TEXTSTYLE
  7
Standard
  9
$CLAYER
  8
0
  9
$CELTYPE
  6
ByLayer
  9
$CECOLOR
 62
   256
  9
$CELTSCALE
 40
1.0
  9
$DISPSILH
 70
     0
  9
$DIMSCALE
 40
1.0
  9
$DIMASZ
 40
0.18
  9
$DIMEXO
 40
0.0625
  9
$DIMDLI
 40
0.38
  9
$DIMRND
 40
0.0
  9
$DIMDLE
 40
0.0
  9
$DIMEXE
 40
0.18
  9
$DIMTP
 40
0.0
  9
$DIMTM
 40
0.0
  9
$DIMTXT
 40
0.18
  9
$DIMCEN
 40
0.09
  9
$DIMTSZ
 40
0.0
  9
$DIMTOL
 70
     0
  9
$DIMLIM
 70
     0
  9
$DIMTIH
 70
     1
  9
$DIMTOH
 70
     1
  9
$DIMSE1
 70
     0
  9
$DIMSE2
 70
     0
  9
$DIMTAD
 70
     0
  9
$DIMZIN
 70
     0
  9
$DIMBLK
  1

  9
$DIMASO
 70
     1
  9
$DIMSHO
 70
     1
  9
$DIMPOST
  1

  9
$DIMAPOST
  1

  9
$DIMALT
 70
     0
  9
$DIMALTD
 70
     2
  9
$DIMALTF
 40
25.4
  9
$DIMLFAC
 40
1.0
  9
$DIMTOFL
 70
     0
  9
$DIMTVP
 40
0.0
  9
$DIMTIX
 70
     0
  9
$DIMSOXD
 70
     0
  9
$DIMSAH
 70
     0
  9
$DIMBLK1
  1

  9
$DIMBLK2
  1

  9
$DIMSTYLE
  2
Standard
  9
$DIMCLRD
 70
     0
  9
$DIMCLRE
 70
     0
  9
$DIMCLRT
 70
     0
  9
$DIMTFAC
 40
1.0
  9
$DIMGAP
 40
0.09
  9
$DIMJUST
 70
     0
  9
$DIMSD1
 70
     0
  9
$DIMSD2
 70
     0
  9
$DIMTOLJ
 70
     1
  9
$DIMTZIN
 70
     0
  9
$DIMALTZ
 70
     0
  9
$DIMALTTZ
 70
     0
  9
$DIMUPT
 70
     0
  9
$DIMDEC
 70
     4
  9
$DIMTDEC
 70
     4
  9
$DIMALTU
 70
     2
  9
$DIMALTTD
 70
     2
  9
$DIMTXSTY
  7
Standard
  9
$DIMAUNIT
 70
     0
  9
$DIMADEC
 70
     0
  9
$DIMALTRND
 40
0.0
  9
$DIMAZIN
 70
     0
  9
$DIMDSEP
 70
    46
  9
$DIMATFIT
 70
     3
  9
$DIMFRAC
 70
     0
  9
$DIMLDRBLK
  1

  9
$DIMLUNIT
 70
     2
  9
$DIMLWD
 70
    -2
  9
$DIMLWE
 70
    -2
  9
$DIMTMOVE
 70
     0
  9
$DIMFXL
 40
1.0
  9
$DIMFXLON
 70
     0
  9
$DIMJOGANG
 40
0.7853981633974483
  9
$DIMTFILL
 70
     0
  9
$DIMTFILLCLR
 70
     0
  9
$DIMARCSYM
 70
     0
  9
$DIMLTYPE
  6

  9
$DIMLTEX1
  6

  9
$DIMLTEX2
  6

  9
$DIMTXTDIRECTION
 70
     0
  9
$LUNITS
 70
     2
  9
$LUPREC
 70
     4
  9
$SKETCHINC
 40
0.1
  9
$FILLETRAD
 40
0.5
  9
$AUNITS
 70
     0
  9
$AUPREC
 70
     0
  9
$MENU
  1
.
  9
$ELEVATION
 40
0.0
  9
$PELEVATION
 40
0.0
  9
$THICKNESS
 40
0.0
  9
$LIMCHECK
 70
     0
  9
$CHAMFERA
 40
0.5
  9
$CHAMFERB
 40
0.5
  9
$CHAMFERC
 40
1.0
  9
$CHAMFERD
 40
0.0
  9
$SKPOLY
 70
     0
  9
$TDCREATE
 40
2457917.586388877
  9
$TDUCREATE
 40
2457917.211388889
  9
$TDUPDATE
 40
2457917.586388877
  9
$TDUUPDATE
 40
2457917.211388889
  9
$TDINDWG
 40
0.0000000116
  9
$TDUSRTIMER
 40
0.0000000116
  9
$USRTIMER
 70
     1
  9
$ANGBASE
 50
0.0
  9
$ANGDIR
 70
     0
  9
$PDMODE
 70
     0
  9
$PDSIZE
 40
0.0
  9
$PLINEWID
 40
0.0
  9
$SPLFRAME
 70
     0
  9
$SPLINETYPE
 70
     6
  9
$SPLINESEGS
 70
     8
  9
$HANDSEED
  5
132
  9
$SURFTAB1
 70
     6
  9
$SURFTAB2
 70
     6
  9
$SURFTYPE
 70
     6
  9
$SURFU
 70
     6
  9
$SURFV
 70
     6
  9
$UCSBASE
  2

  9
$UCSNAME
  2

  9
$UCSORG
 10
0.0
 20
0.0
 30
0.0
  9
$UCSXDIR
 10
1.0
 20
0.0
 30
0.0
  9
$UCSYDIR
 10
0.0
 20
1.0
 30
0.0
  9
$UCSORTHOREF
  2

  9
$UCSORTHOVIEW
 70
     0
  9
$UCSORGTOP
 10
0.0
 20
0.0
 30
0.0
  9
$UCSORGBOTTOM
 10
0.0
 20
0.0
 30
0.0
  9
$UCSORGLEFT
 10
0.0
 20
0.0
 30
0.0
  9
$UCSORGRIGHT
 10
0.0
 20
0.0
 30
0.0
  9
$UCSORGFRONT
 10
0.0
 20
0.0
 30
0.0
  9
$UCSORGBACK
 10
0.0
 20
0.0
 30
0.0
  9
$PUCSBASE
  2

  9
$PUCSNAME
  2

  9
$PUCSORG
 10
0.0
 20
0.0
 30
0.0
  9
$PUCSXDIR
 10
1.0
 20
0.0
 30
0.0
  9
$PUCSYDIR
 10
0.0
 20
1.0
 30
0.0
  9
$PUCSORTHOREF
  2

  9
$PUCSORTHOVIEW
 70
     0
  9
$PUCSORGTOP
 10
0.0
 20
0.0
 30
0.0
  9
$PUCSORGBOTTOM
 10
0.0
 20
0.0
 30
0.0
  9
$PUCSORGLEFT
 10
0.0
 20
0.0
 30
0.0
  9
$PUCSORGRIGHT
 10
0.0
 20
0.0
 30
0.0
  9
$PUCSORGFRONT
 10
0.0
 20
0.0
 30
0.0
  9
$PUCSORGBACK
 10
0.0
 20
0.0
 30
0.0
  9
$USERI1
 70
     0
  9
$USERI2
 70
     0
  9
$USERI3
 70
     0
  9
$USERI4
 70
     0
  9
$USERI5
 70
     0
  9
$USERR1
 40
0.0
  9
$USERR2
 40
0.0
  9
$USERR3
 40
0.0
  9
$USERR4
 40
0.0
  9
$USERR5
 40
0.0
  9
$WORLDVIEW
 70
     1
  9
$SHADEDGE
 70
     3
  9
$SHADEDIF
 70
    70
  9
$TILEMODE
 70
     1
  9
$MAXACTVP
 70
    64
  9
$PINSBASE
 10
0.0
 20
0.0
 30
0.0
  9
$PLIMCHECK
 70
     0
  9
$PEXTMIN
 10
1.000000000000000E+20
 20
1.000000000000000E+20
 30
1.000000000000000E+20
  9
$PEXTMAX
 10
-1.000000000000000E+20
 20
-1.000000000000000E+20
 30
-1.000000000000000E+20
  9
$PLIMMIN
 10
0.0
 20
0.0
  9
$PLIMMAX
 10
12.0
 20
9.0
  9
$UNITMODE
 70
     0
  9
$VISRETAIN
 70
     1
  9
$PLINEGEN
 70
     0
  9
$PSLTSCALE
 70
     1
  9
$TREEDEPTH
 70
  3020
  9
$CMLSTYLE
  2
Standard
  9
$CMLJUST
 70
     0
  9
$CMLSCALE
 40
1.0
  9
$PROXYGRAPHICS
 70
     1
  9
$MEASUREMENT
 70
     0
  9
$CELWEIGHT
370
    -1
  9
$ENDCAPS
280
     0
  9
$JOINSTYLE
280
     0
  9
$LWDISPLAY
290
     1
  9
$INSUNITS
 70
     1
  9
$HYPERLINKBASE
  1

  9
$STYLESHEET
  1

  9
$XEDIT
290
     1
  9
$CEPSNTYPE
380
     0
  9
$PSTYLEMODE
290
     1
  9
$FINGERPRINTGUID
  2
{7AD1B6B1-A12C-5944-CFD2-EB33FD9E7156}
  9
$VERSIONGUID
  2
{FAEB1C32-E019-11D5-929B-00C0DF256EC4}
  9
$EXTNAMES
290
     1
  9
$PSVPSCALE
 40
0.0
  9
$OLESTARTUP
290
     0
  9
$SORTENTS
280
   127
  9
$INDEXCTL
280
     0
  9
$HIDETEXT
280
     1
  9
$XCLIPFRAME
280
     2
  9
$HALOGAP
280
     0
  9
$OBSCOLOR
 70
   257
  9
$OBSLTYPE
280
     0
  9
$INTERSECTIONDISPLAY
280
     0
  9
$INTERSECTIONCOLOR
 70
   257
  9
$DIMASSOC
280
     2
  9
$PROJECTNAME
  1

  9
$CAMERADISPLAY
290
     0
  9
$LENSLENGTH
 40
50.0
  9
$CAMERAHEIGHT
 40
0.0
  9
$STEPSPERSEC
 40
2.0
  9
$STEPSIZE
 40
6.0
  9
$3DDWFPREC
 40
2.0
  9
$PSOLWIDTH
 40
0.25
  9
$PSOLHEIGHT
 40
4.0
  9
$LOFTANG1
 40
1.570796326794897
  9
$LOFTANG2
 40
1.570796326794897
  9
$LOFTMAG1
 40
0.0
  9
$LOFTMAG2
 40
0.0
  9
$LOFTPARAM
 70
     7
  9
$LOFTNORMALS
280
     1
  9
$LATITUDE
 40
37.795
  9
$LONGITUDE
 40
-122.394
  9
$NORTHDIRECTION
 40
0.0
  9
$TIMEZONE
 70
 -8000
  9
$LIGHTGLYPHDISPLAY
280
     1
  9
$TILEMODELIGHTSYNCH
280
     1
  9
$CMATERIAL
347
3C
  9
$SOLIDHIST
280
     1
  9
$SHOWHIST
280
     1
  9
$DWFFRAME
280
     2
  9
$DGNFRAME
280
     2
  9
$REALWORLDSCALE
290
     1
  9
$INTERFERECOLOR
 62
   256
  9
$CSHADOW
280
     0
  9
$SHADOWPLANELOCATION
 40
0.0
  0
ENDSEC
  0
SECTION
  2
CLASSES
  0
CLASS
  1
ACDBDICTIONARYWDFLT
  2
AcDbDictionaryWithDefault
  3
ObjectDBX Classes
 90
        0
 91
        4
280
     0
281
     0
  0
CLASS
  1
VISUALSTYLE
  2
AcDbVisualStyle
  3
ObjectDBX Classes
 90
     4095
 91
        4
280
     0
281
     0
  0
CLASS
  1
MATERIAL
  2
AcDbMaterial
  3
ObjectDBX Classes
 90
     1153
 91
        4
280
     0
281
     0
  0
CLASS
  1
SUN
  2
AcDbSun
  3
SCENEOE
 90
     1024
 91
        4
280
     0
281
     0
  0
ENDSEC
  0
SECTION
  2
TABLES
  0
TABLE
  2
VPORT
  5
8
330
0
100
AcDbSymbolTable
 70
     1
  0
VPORT
  5
29
330
8
100
AcDbSymbolTableRecord
100
AcDbViewportTableRecord
  2
*Active
 70
     0
 10
0.0
 20
0.0
 11
1.0
 21
1.0
 12
0.0
 22
0.0
 13
0.0
 23
0.0
 14
0.5
 24
0.5
 15
0.5
 25
0.5
 16
0.0
 26
0.0
 36
1.0
 17
105.0008280156501
 27
-148.4999710739862
 37
0.0
 40
296.9999421479724
 41
0.7070764206636528
 42
50.0
 43
0.0
 44
0.0
 50
0.0
 51
0.0
 71
     0
 72
   100
 73
     1
 74
     3
 75
     0
 76
     0
 77
     0
 78
     0
281
     0
 65
     1
110
0.0
120
0.0
130
0.0
111
1.0
121
0.0
131
0.0
112
0.0
122
1.0
132
0.0
 79
     0
146
0.0
 60
     3
 61
     5
292
     1
282
     1
141
0.0
142
0.0
 63
   250
361
3F
  0
ENDTAB
  0
TABLE
  2
LTYPE
  5
5
330
0
100
AcDbSymbolTable
 70
     1
  0
LTYPE
  5
14
330
5
100
AcDbSymbolTableRecord
100
AcDbLinetypeTableRecord
  2
ByBlock
 70
     0
  3

 72
    65
 73
     0
 40
0.0
  0
LTYPE
  5
15
330
5
100
AcDbSymbolTableRecord
100
AcDbLinetypeTableRecord
  2
ByLayer
 70
     0
  3

 72
    65
 73
     0
 40
0.0
  0
LTYPE
  5
16
330
5
100
AcDbSymbolTableRecord
100
AcDbLinetypeTableRecord
  2
Continuous
 70
     0
  3
Solid line
 72
    65
 73
     0
 40
0.0
  0
ENDTAB
  0
TABLE
  2
LAYER
  5
2
330
0
100
AcDbSymbolTable
 70
     2
  0
LAYER
  5
10
330
2
100
AcDbSymbolTableRecord
100
AcDbLayerTableRecord
  2
0
 70
     0
 62
     7
  6
Continuous
370
    -3
390
F
347
3E
  0
LAYER
  5
40
330
2
100
AcDbSymbolTableRecord
100
AcDbLayerTableRecord
  2
_U+30EC_U+30A4_U+30E4_U+30FC 1
 70
     0
 62
     7
  6
Continuous
370
    -3
390
F
347
3E
  0
ENDTAB
  0
TABLE
  2
STYLE
  5
3
330
0
100
AcDbSymbolTable
 70
     1
  0
STYLE
  5
11
330
3
100
AcDbSymbolTableRecord
100
AcDbTextStyleTableRecord
  2
Standard
 70
     0
 40
0.0
 41
1.0
 50
0.0
 71
     0
 42
0.2
  3
txt
  4

  0
ENDTAB
  0
TABLE
  2
VIEW
  5
6
330
0
100
AcDbSymbolTable
 70
     0
  0
ENDTAB
  0
TABLE
  2
UCS
  5
7
330
0
100
AcDbSymbolTable
 70
     0
  0
ENDTAB
  0
TABLE
  2
APPID
  5
9
330
0
100
AcDbSymbolTable
 70
     1
  0
APPID
  5
12
330
9
100
AcDbSymbolTableRecord
100
AcDbRegAppTableRecord
  2
ACAD
 70
     0
  0
ENDTAB
  0
TABLE
  2
DIMSTYLE
  5
A
330
0
100
AcDbSymbolTable
 70
     1
100
AcDbDimStyleTable
  0
DIMSTYLE
105
27
330
A
100
AcDbSymbolTableRecord
100
AcDbDimStyleTableRecord
  2
Standard
 70
     0
178
     0
340
11
  0
ENDTAB
  0
TABLE
  2
BLOCK_RECORD
  5
1
330
0
100
AcDbSymbolTable
 70
     8
  0
BLOCK_RECORD
  5
1F
330
1
100
AcDbSymbolTableRecord
100
AcDbBlockTableRecord
  2
*Model_Space
340
22
 70
     0
280
     1
281
     0
  0
BLOCK_RECORD
  5
1B
330
1
100
AcDbSymbolTableRecord
100
AcDbBlockTableRecord
  2
*Paper_Space
340
1E
 70
     0
280
     1
281
     0
  0
BLOCK_RECORD
  5
23
330
1
100
AcDbSymbolTableRecord
100
AcDbBlockTableRecord
  2
*Paper_Space0
340
26
 70
     0
280
     1
281
     0
  0
BLOCK_RECORD
  5
41
330
1
100
AcDbSymbolTableRecord
100
AcDbBlockTableRecord
  2
block 2
340
0
102
{BLKREFS
331
42
102
}
 70
     0
280
     1
281
     0
  0
BLOCK_RECORD
  5
7C
330
1
100
AcDbSymbolTableRecord
100
AcDbBlockTableRecord
  2
block 3
340
0
102
{BLKREFS
331
7D
102
}
 70
     0
280
     1
281
     0
  0
BLOCK_RECORD
  5
91
330
1
100
AcDbSymbolTableRecord
100
AcDbBlockTableRecord
  2
block 4
340
0
102
{BLKREFS
331
92
102
}
 70
     0
280
     1
281
     0
  0
BLOCK_RECORD
  5
BA
330
1
100
AcDbSymbolTableRecord
100
AcDbBlockTableRecord
  2
block 5
340
0
102
{BLKREFS
331
BB
102
}
 70
     0
280
     1
281
     0
  0
BLOCK_RECORD
  5
DB
330
1
100
AcDbSymbolTableRecord
100
AcDbBlockTableRecord
  2
block 6
340
0
102
{BLKREFS
331
DC
102
}
 70
     0
280
     1
281
     0
  0
BLOCK_RECORD
  5
ED
330
1
100
AcDbSymbolTableRecord
100
AcDbBlockTableRecord
  2
block 7
340
0
102
{BLKREFS
331
EE
102
}
 70
     0
280
     1
281
     0
  0
BLOCK_RECORD
  5
11E
330
1
100
AcDbSymbolTableRecord
100
AcDbBlockTableRecord
  2
block 8
340
0
102
{BLKREFS
331
11F
102
}
 70
     0
280
     1
281
     0
  0
ENDTAB
  0
ENDSEC
  0
SECTION
  2
BLOCKS
  0
BLOCK
  5
20
330
1F
100
AcDbEntity
  8
0
100
AcDbBlockBegin
  2
*Model_Space
 70
     0
 10
0.0
 20
0.0
 30
0.0
  3
*Model_Space
  1

  0
ENDBLK
  5
21
330
1F
100
AcDbEntity
  8
0
100
AcDbBlockEnd
  0
BLOCK
  5
1C
330
1B
100
AcDbEntity
 67
     1
  8
0
100
AcDbBlockBegin
  2
*Paper_Space
 70
     0
 10
0.0
 20
0.0
 30
0.0
  3
*Paper_Space
  1

  0
ENDBLK
  5
1D
330
1B
100
AcDbEntity
 67
     1
  8
0
100
AcDbBlockEnd
  0
BLOCK
  5
24
330
23
100
AcDbEntity
  8
0
100
AcDbBlockBegin
  2
*Paper_Space0
 70
     0
 10
0.0
 20
0.0
 30
0.0
  3
*Paper_Space0
  1

  0
ENDBLK
  5
25
330
23
100
AcDbEntity
  8
0
100
AcDbBlockEnd
  0
BLOCK
  5
43
330
41
100
AcDbEntity
  8
0
100
AcDbBlockBegin
  2
block 2
 70
     0
 10
0.0
 20
0.0
 30
0.0
  3
block 2
  1

  0
POLYLINE
  5
45
330
41
100
AcDbEntity
  8
_U+30EC_U+30A4_U+30E4_U+30FC 1
 62
   179
420
  2234388
370
    25
100
AcDb2dPolyline
 66
     1
 10
0.0
 20
0.0
 30
0.0
  0
VERTEX
  5
46
330
45
100
AcDbEntity
  8
_U+30EC_U+30A4_U+30E4_U+30FC 1
 62
   179
420
  2234388
370
    25
100
AcDbVertex
100
AcDb2dVertex
 10
96.09405365954755
 20
-142.0252641311604
 30
0.0
  0
VERTEX
  5
47
330
45
100
AcDbEntity
  8
_U+30EC_U+30A4_U+30E4_U+30FC 1
 62
   179
420
  2234388
370
    25
100
AcDbVertex
100
AcDb2dVertex
 10
116.0941895381905
 20
-142.0252641311604
 30
0.0
  0
SEQEND
  5
48
330
45
100
AcDbEntity
  8
_U+30EC_U+30A4_U+30E4_U+30FC 1
 62
   179
420
  2234388
370
    25
  0
POLYLINE
  5
49
330
41
100
AcDbEntity
  8
_U+30EC_U+30A4_U+30E4_U+30FC 1
 62
   179
420
  2234388
370
    25
100
AcDb2dPolyline
 66
     1
 10
0.0
 20
0.0
 30
0.0
  0
VERTEX
  5
4A
330
49
100
AcDbEntity
  8
_U+30EC_U+30A4_U+30E4_U+30FC 1
 62
   179
420
  2234388
370
    25
100
AcDbVertex
100
AcDb2dVertex
 10
96.09405365954755
 20
-142.0252641311604
 30
0.0
  0
VERTEX
  5
4B
330
49
100
AcDbEntity
  8
_U+30EC_U+30A4_U+30E4_U+30FC 1
 62
   179
420
  2234388
370
    25
100
AcDbVertex
100
AcDb2dVertex
 10
96.09405365954755
 20
-156.7249849608187
 30
0.0
  0
SEQEND
  5
4C
330
49
100
AcDbEntity
  8
_U+30EC_U+30A4_U+30E4_U+30FC 1
 62
   179
420
  2234388
370
    25
  0
POLYLINE
  5
4D
330
41
100
AcDbEntity
  8
_U+30EC_U+30A4_U+30E4_U+30FC 1
 62
   179
420
  2234388
370
    25
100
AcDb2dPolyline
 66
     1
 10
0.0
 20
0.0
 30
0.0
  0
VERTEX
  5
4E
330
4D
100
AcDbEntity
  8
_U+30EC_U+30A4_U+30E4_U+30FC 1
 62
   179
420
  2234388
370
    25
100
AcDbVertex
100
AcDb2dVertex
 10
116.0941895381905
 20
-142.0252641311604
 30
0.0
  0
VERTEX
  5
4F
330
4D
100
AcDbEntity
  8
_U+30EC_U+30A4_U+30E4_U+30FC 1
 62
   179
420
  2234388
370
    25
100
AcDbVertex
100
AcDb2dVertex
 10
116.0941895381905
 20
-143.0250363531326
 30
0.0
  0
SEQEND
  5
50
330
4D
100
AcDbEntity
  8
_U+30EC_U+30A4_U+30E4_U+30FC 1
 62
   179
420
  2234388
370
    25
  0
POLYLINE
  5
51
330
41
100
AcDbEntity
  8
_U+30EC_U+30A4_U+30E4_U+30FC 1
 62
   179
420
  2234388
370
    25
100
AcDb2dPolyline
 66
     1
 10
0.0
 20
0.0
 30
0.0
  0
VERTEX
  5
52
330
51
100
AcDbEntity
  8
_U+30EC_U+30A4_U+30E4_U+30FC 1
 62
   179
420
  2234388
370
    25
100
AcDbVertex
100
AcDb2dVertex
 10
97.09449613402414
 20
-143.0250363531326
 30
0.0
  0
VERTEX
  5
53
330
51
100
AcDbEntity
  8
_U+30EC_U+30A4_U+30E4_U+30FC 1
 62
   179
420
  2234388
370
    25
100
AcDbVertex
100
AcDb2dVertex
 10
116.0941895381905
 20
-143.0250363531326
 30
0.0
  0
SEQEND
  5
54
330
51
100
AcDbEntity
  8
_U+30EC_U+30A4_U+30E4_U+30FC 1
 62
   179
420
  2234388
370
    25
  0
POLYLINE
  5
55
330
41
100
AcDbEntity
  8
_U+30EC_U+30A4_U+30E4_U+30FC 1
 62
   179
420
  2234388
370
    25
100
AcDb2dPolyline
 66
     1
 10
0.0
 20
0.0
 30
0.0
  0
VERTEX
  5
56
330
55
100
AcDbEntity
  8
_U+30EC_U+30A4_U+30E4_U+30FC 1
 62
   179
420
  2234388
370
    25
100
AcDbVertex
100
AcDb2dVertex
 10
100.0944830019325
 20
-155.7252127388468
 30
0.0
  0
VERTEX
  5
57
330
55
100
AcDbEntity
  8
_U+30EC_U+30A4_U+30E4_U+30FC 1
 62
   179
420
  2234388
370
    25
100
AcDbVertex
100
AcDb2dVertex
 10
100.0944830019325
 20
-156.2254516276105
 30
0.0
  0
SEQEND
  5
58
330
55
100
AcDbEntity
  8
_U+30EC_U+30A4_U+30E4_U+30FC 1
 62
   179
420
  2234388
370
    25
  0
POLYLINE
  5
59
330
41
100
AcDbEntity
  8
_U+30EC_U+30A4_U+30E4_U+30FC 1
 62
   179
420
  2234388
370
    25
100
AcDb2dPolyline
 66
     1
 10
0.0
 20
0.0
 30
0.0
  0
VERTEX
  5
5A
330
59
100
AcDbEntity
  8
_U+30EC_U+30A4_U+30E4_U+30FC 1
 62
   179
420
  2234388
370
    25
100
AcDbVertex
100
AcDb2dVertex
 10
97.09449613402414
 20
-155.7252127388468
 30
0.0
  0
VERTEX
  5
5B
330
59
100
AcDbEntity
  8
_U+30EC_U+30A4_U+30E4_U+30FC 1
 62
   179
420
  2234388
370
    25
100
AcDbVertex
100
AcDb2dVertex
 10
100.0944830019325
 20
-155.7252127388468
 30
0.0
  0
SEQEND
  5
5C
330
59
100
AcDbEntity
  8
_U+30EC_U+30A4_U+30E4_U+30FC 1
 62
   179
420
  2234388
370
    25
  0
POLYLINE
  5
5D
330
41
100
AcDbEntity
  8
_U+30EC_U+30A4_U+30E4_U+30FC 1
 62
   179
420
  2234388
370
    25
100
AcDb2dPolyline
 66
     1
 10
0.0
 20
0.0
 30
0.0
  0
VERTEX
  5
5E
330
5D
100
AcDbEntity
  8
_U+30EC_U+30A4_U+30E4_U+30FC 1
 62
   179
420
  2234388
370
    25
100
AcDbVertex
100
AcDb2dVertex
 10
96.09405365954755
 20
-156.7249849608187
 30
0.0
  0
VERTEX
  5
5F
330
5D
100
AcDbEntity
  8
_U+30EC_U+30A4_U+30E4_U+30FC 1
 62
   179
420
  2234388
370
    25
100
AcDbVertex
100
AcDb2dVertex
 10
100.0944830019325
 20
-156.2254516276105
 30
0.0
  0
SEQEND
  5
60
330
5D
100
AcDbEntity
  8
_U+30EC_U+30A4_U+30E4_U+30FC 1
 62
   179
420
  2234388
370
    25
  0
POLYLINE
  5
61
330
41
100
AcDbEntity
  8
_U+30EC_U+30A4_U+30E4_U+30FC 1
 62
   179
420
  2234388
370
    25
100
AcDb2dPolyline
 66
     1
 10
0.0
 20
0.0
 30
0.0
  0
VERTEX
  5
62
330
61
100
AcDbEntity
  8
_U+30EC_U+30A4_U+30E4_U+30FC 1
 62
   179
420
  2234388
370
    25
100
AcDbVertex
100
AcDb2dVertex
 10
97.09449613402414
 20
-143.0250363531326
 30
0.0
  0
VERTEX
  5
63
330
61
100
AcDbEntity
  8
_U+30EC_U+30A4_U+30E4_U+30FC 1
 62
   179
420
  2234388
370
    25
100
AcDbVertex
100
AcDb2dVertex
 10
97.09449613402414
 20
-155.7252127388468
 30
0.0
  0
SEQEND
  5
64
330
61
100
AcDbEntity
  8
_U+30EC_U+30A4_U+30E4_U+30FC 1
 62
   179
420
  2234388
370
    25
  0
SPLINE
  5
65
330
41
100
AcDbEntity
  8
_U+30EC_U+30A4_U+30E4_U+30FC 1
 62
   179
420
  2234388
370
     9
100
AcDbSpline
210
0.0
220
0.0
230
1.0
 70
    11
 71
     3
 72
    17
 73
    13
 74
     0
 42
0.0000000001
 43
0.0000000001
 12
1.0
 22
0.0
 32
0.0
 13
1.0
 23
0.0
 33
0.0
 40
0.0
 40
0.0
 40
0.0
 40
0.0
 40
1.0
 40
1.0
 40
1.0
 40
2.0
 40
2.0
 40
2.0
 40
3.0
 40
3.0
 40
3.0
 40
4.0
 40
4.0
 40
4.0
 40
4.0
 10
96.1939603236654
 20
-138.0255049654935
 30
0.0
 10
96.1939603236654
 20
-137.9700482988408
 30
0.0
 10
96.14915754703063
 20
-137.9252455210741
 30
0.0
 10
96.09405365954755
 20
-137.9252455210741
 30
0.0
 10
96.03891449428761
 20
-137.9252455210741
 30
0.0
 10
95.99414699542973
 20
-137.9700482988408
 30
0.0
 10
95.99414699542973
 20
-138.0255049654935
 30
0.0
 10
95.99414699542973
 20
-138.0806441321466
 30
0.0
 10
96.03891449428761
 20
-138.1254116321354
 30
0.0
 10
96.09405365954755
 20
-138.1254116321354
 30
0.0
 10
96.14915754703063
 20
-138.1254116321354
 30
0.0
 10
96.1939603236654
 20
-138.0806441321466
 30
0.0
 10
96.1939603236654
 20
-138.0255049654935
 30
0.0
  0
SPLINE
  5
66
330
41
100
AcDbEntity
  8
_U+30EC_U+30A4_U+30E4_U+30FC 1
 62
   179
420
  2234388
370
     9
100
AcDbSpline
210
0.0
220
0.0
230
1.0
 70
    11
 71
     3
 72
    17
 73
    13
 74
     0
 42
0.0000000001
 43
0.0000000001
 12
1.0
 22
0.0
 32
0.0
 13
1.0
 23
0.0
 33
0.0
 40
0.0
 40
0.0
 40
0.0
 40
0.0
 40
1.0
 40
1.0
 40
1.0
 40
2.0
 40
2.0
 40
2.0
 40
3.0
 40
3.0
 40
3.0
 40
4.0
 40
4.0
 40
4.0
 40
4.0
 10
116.1940962023083
 20
-138.0255049654935
 30
0.0
 10
116.1940962023083
 20
-137.9700482988408
 30
0.0
 10
116.1493287034504
 20
-137.9252455210741
 30
0.0
 10
116.0941895381905
 20
-137.9252455210741
 30
0.0
 10
116.0390856507074
 20
-137.9252455210741
 30
0.0
 10
115.9942828740726
 20
-137.9700482988408
 30
0.0
 10
115.9942828740726
 20
-138.0255049654935
 30
0.0
 10
115.9942828740726
 20
-138.0806441321466
 30
0.0
 10
116.0390856507074
 20
-138.1254116321354
 30
0.0
 10
116.0941895381905
 20
-138.1254116321354
 30
0.0
 10
116.1493287034504
 20
-138.1254116321354
 30
0.0
 10
116.1940962023083
 20
-138.0806441321466
 30
0.0
 10
116.1940962023083
 20
-138.0255049654935
 30
0.0
  0
SPLINE
  5
67
330
41
100
AcDbEntity
  8
_U+30EC_U+30A4_U+30E4_U+30FC 1
 62
   179
420
  2234388
370
     9
100
AcDbSpline
210
0.0
220
0.0
230
1.0
 70
    11
 71
     3
 72
    17
 73
    13
 74
     0
 42
0.0000000001
 43
0.0000000001
 12
1.0
 22
0.0
 32
0.0
 13
1.0
 23
0.0
 33
0.0
 40
0.0
 40
0.0
 40
0.0
 40
0.0
 40
1.0
 40
1.0
 40
1.0
 40
2.0
 40
2.0
 40
2.0
 40
3.0
 40
3.0
 40
3.0
 40
4.0
 40
4.0
 40
4.0
 40
4.0
 10
120.1945638588405
 20
-142.0252641311604
 30
0.0
 10
120.1945638588405
 20
-141.9701602422851
 30
0.0
 10
120.1497610810738
 20
-141.9253574645187
 30
0.0
 10
120.0946541583523
 20
-141.9253574645187
 30
0.0
 10
120.0388447153317
 20
-141.9253574645187
 30
0.0
 10
119.994041938697
 20
-141.9701602422851
 30
0.0
 10
119.994041938697
 20
-142.0252641311604
 30
0.0
 10
119.994041938697
 20
-142.0804032978131
 30
0.0
 10
120.0388447153317
 20
-142.125170797802
 30
0.0
 10
120.0946541583523
 20
-142.125170797802
 30
0.0
 10
120.1497610810738
 20
-142.125170797802
 30
0.0
 10
120.1945638588405
 20
-142.0804032978131
 30
0.0
 10
120.1945638588405
 20
-142.0252641311604
 30
0.0
  0
SPLINE
  5
68
330
41
100
AcDbEntity
  8
_U+30EC_U+30A4_U+30E4_U+30FC 1
 62
   179
420
  2234388
370
     9
100
AcDbSpline
210
0.0
220
0.0
230
1.0
 70
    11
 71
     3
 72
    17
 73
    13
 74
     0
 42
0.0000000001
 43
0.0000000001
 12
1.0
 22
0.0
 32
0.0
 13
1.0
 23
0.0
 33
0.0
 40
0.0
 40
0.0
 40
0.0
 40
0.0
 40
1.0
 40
1.0
 40
1.0
 40
2.0
 40
2.0
 40
2.0
 40
3.0
 40
3.0
 40
3.0
 40
4.0
 40
4.0
 40
4.0
 40
4.0
 10
120.1945638588405
 20
-143.0250363531326
 30
0.0
 10
120.1945638588405
 20
-142.9698971864798
 30
0.0
 10
120.1497610810738
 20
-142.9251296864909
 30
0.0
 10
120.0946541583523
 20
-142.9251296864909
 30
0.0
 10
120.0388447153317
 20
-142.9251296864909
 30
0.0
 10
119.994041938697
 20
-142.9698971864798
 30
0.0
 10
119.994041938697
 20
-143.0250363531326
 30
0.0
 10
119.994041938697
 20
-143.0804930197856
 30
0.0
 10
120.0388447153317
 20
-143.125295797552
 30
0.0
 10
120.0946541583523
 20
-143.125295797552
 30
0.0
 10
120.1497610810738
 20
-143.125295797552
 30
0.0
 10
120.1945638588405
 20
-143.0804930197856
 30
0.0
 10
120.1945638588405
 20
-143.0250363531326
 30
0.0
  0
SPLINE
  5
69
330
41
100
AcDbEntity
  8
_U+30EC_U+30A4_U+30E4_U+30FC 1
 62
   179
420
  2234388
370
     9
100
AcDbSpline
210
0.0
220
0.0
230
1.0
 70
    11
 71
     3
 72
    17
 73
    13
 74
     0
 42
0.0000000001
 43
0.0000000001
 12
1.0
 22
0.0
 32
0.0
 13
1.0
 23
0.0
 33
0.0
 40
0.0
 40
0.0
 40
0.0
 40
0.0
 40
1.0
 40
1.0
 40
1.0
 40
2.0
 40
2.0
 40
2.0
 40
3.0
 40
3.0
 40
3.0
 40
4.0
 40
4.0
 40
4.0
 40
4.0
 10
120.1945638588405
 20
-155.7252127388468
 30
0.0
 10
120.1945638588405
 20
-155.6700735721937
 30
0.0
 10
120.1497610810738
 20
-155.6253060722045
 30
0.0
 10
120.0946541583523
 20
-155.6253060722045
 30
0.0
 10
120.0388447153317
 20
-155.6253060722045
 30
0.0
 10
119.994041938697
 20
-155.6700735721937
 30
0.0
 10
119.994041938697
 20
-155.7252127388468
 30
0.0
 10
119.994041938697
 20
-155.7803166277217
 30
0.0
 10
120.0388447153317
 20
-155.8251194054884
 30
0.0
 10
120.0946541583523
 20
-155.8251194054884
 30
0.0
 10
120.1497610810738
 20
-155.8251194054884
 30
0.0
 10
120.1945638588405
 20
-155.7803166277217
 30
0.0
 10
120.1945638588405
 20
-155.7252127388468
 30
0.0
  0
SPLINE
  5
6A
330
41
100
AcDbEntity
  8
_U+30EC_U+30A4_U+30E4_U+30FC 1
 62
   179
420
  2234388
370
     9
100
AcDbSpline
210
0.0
220
0.0
230
1.0
 70
    11
 71
     3
 72
    17
 73
    13
 74
     0
 42
0.0000000001
 43
0.0000000001
 12
1.0
 22
0.0
 32
0.0
 13
1.0
 23
0.0
 33
0.0
 40
0.0
 40
0.0
 40
0.0
 40
0.0
 40
1.0
 40
1.0
 40
1.0
 40
2.0
 40
2.0
 40
2.0
 40
3.0
 40
3.0
 40
3.0
 40
4.0
 40
4.0
 40
4.0
 40
4.0
 10
104.1941487306747
 20
-155.7252127388468
 30
0.0
 10
104.1941487306747
 20
-155.6700735721937
 30
0.0
 10
104.1493812318168
 20
-155.6253060722045
 30
0.0
 10
104.0942420665569
 20
-155.6253060722045
 30
0.0
 10
104.0391381790738
 20
-155.6253060722045
 30
0.0
 10
103.994335402439
 20
-155.6700735721937
 30
0.0
 10
103.994335402439
 20
-155.7252127388468
 30
0.0
 10
103.994335402439
 20
-155.7803166277217
 30
0.0
 10
104.0391381790738
 20
-155.8251194054884
 30
0.0
 10
104.0942420665569
 20
-155.8251194054884
 30
0.0
 10
104.1493812318168
 20
-155.8251194054884
 30
0.0
 10
104.1941487306747
 20
-155.7803166277217
 30
0.0
 10
104.1941487306747
 20
-155.7252127388468
 30
0.0
  0
SPLINE
  5
6B
330
41
100
AcDbEntity
  8
_U+30EC_U+30A4_U+30E4_U+30FC 1
 62
   179
420
  2234388
370
     9
100
AcDbSpline
210
0.0
220
0.0
230
1.0
 70
    11
 71
     3
 72
    17
 73
    13
 74
     0
 42
0.0000000001
 43
0.0000000001
 12
1.0
 22
0.0
 32
0.0
 13
1.0
 23
0.0
 33
0.0
 40
0.0
 40
0.0
 40
0.0
 40
0.0
 40
1.0
 40
1.0
 40
1.0
 40
2.0
 40
2.0
 40
2.0
 40
3.0
 40
3.0
 40
3.0
 40
4.0
 40
4.0
 40
4.0
 40
4.0
 10
104.1941487306747
 20
-156.2254516276105
 30
0.0
 10
104.1941487306747
 20
-156.1703124609574
 30
0.0
 10
104.1493812318168
 20
-156.1255096831907
 30
0.0
 10
104.0942420665569
 20
-156.1255096831907
 30
0.0
 10
104.0391381790738
 20
-156.1255096831907
 30
0.0
 10
103.994335402439
 20
-156.1703124609574
 30
0.0
 10
103.994335402439
 20
-156.2254516276105
 30
0.0
 10
103.994335402439
 20
-156.2805555164854
 30
0.0
 10
104.0391381790738
 20
-156.3253582942521
 30
0.0
 10
104.0942420665569
 20
-156.3253582942521
 30
0.0
 10
104.1493812318168
 20
-156.3253582942521
 30
0.0
 10
104.1941487306747
 20
-156.2805555164854
 30
0.0
 10
104.1941487306747
 20
-156.2254516276105
 30
0.0
  0
SPLINE
  5
6C
330
41
100
AcDbEntity
  8
_U+30EC_U+30A4_U+30E4_U+30FC 1
 62
   179
420
  2234388
370
     9
100
AcDbSpline
210
0.0
220
0.0
230
1.0
 70
    11
 71
     3
 72
    17
 73
    13
 74
     0
 42
0.0000000001
 43
0.0000000001
 12
1.0
 22
0.0
 32
0.0
 13
1.0
 23
0.0
 33
0.0
 40
0.0
 40
0.0
 40
0.0
 40
0.0
 40
1.0
 40
1.0
 40
1.0
 40
2.0
 40
2.0
 40
2.0
 40
3.0
 40
3.0
 40
3.0
 40
4.0
 40
4.0
 40
4.0
 40
4.0
 10
92.19420125904108
 20
-156.7249849608187
 30
0.0
 10
92.19420125904108
 20
-156.6698457941656
 30
0.0
 10
92.14939848240633
 20
-156.6250782941771
 30
0.0
 10
92.09429459492326
 20
-156.6250782941771
 30
0.0
 10
92.0391554296633
 20
-156.6250782941771
 30
0.0
 10
91.99438793080542
 20
-156.6698457941656
 30
0.0
 10
91.99438793080542
 20
-156.7249849608187
 30
0.0
 10
91.99438793080542
 20
-156.7807944052491
 30
0.0
 10
92.0391554296633
 20
-156.8255619052383
 30
0.0
 10
92.09429459492326
 20
-156.8255619052383
 30
0.0
 10
92.14939848240633
 20
-156.8255619052383
 30
0.0
 10
92.19420125904108
 20
-156.7807944052491
 30
0.0
 10
92.19420125904108
 20
-156.7249849608187
 30
0.0
  0
SPLINE
  5
6D
330
41
100
AcDbEntity
  8
_U+30EC_U+30A4_U+30E4_U+30FC 1
 62
   179
420
  2234388
370
     9
100
AcDbSpline
210
0.0
220
0.0
230
1.0
 70
    11
 71
     3
 72
    17
 73
    13
 74
     0
 42
0.0000000001
 43
0.0000000001
 12
1.0
 22
0.0
 32
0.0
 13
1.0
 23
0.0
 33
0.0
 40
0.0
 40
0.0
 40
0.0
 40
0.0
 40
1.0
 40
1.0
 40
1.0
 40
2.0
 40
2.0
 40
2.0
 40
3.0
 40
3.0
 40
3.0
 40
4.0
 40
4.0
 40
4.0
 40
4.0
 10
100.1943896660504
 20
-160.7254144042629
 30
0.0
 10
100.1943896660504
 20
-160.670310515388
 30
0.0
 10
100.1496221671925
 20
-160.6255077376213
 30
0.0
 10
100.0944830019325
 20
-160.6255077376213
 30
0.0
 10
100.0386735589119
 20
-160.6255077376213
 30
0.0
 10
99.99457633781472
 20
-160.670310515388
 30
0.0
 10
99.99457633781472
 20
-160.7254144042629
 30
0.0
 10
99.99457633781472
 20
-160.780553570916
 30
0.0
 10
100.0386735589119
 20
-160.8253210709046
 30
0.0
 10
100.0944830019325
 20
-160.8253210709046
 30
0.0
 10
100.1496221671925
 20
-160.8253210709046
 30
0.0
 10
100.1943896660504
 20
-160.780553570916
 30
0.0
 10
100.1943896660504
 20
-160.7254144042629
 30
0.0
  0
SPLINE
  5
6E
330
41
100
AcDbEntity
  8
_U+30EC_U+30A4_U+30E4_U+30FC 1
 62
   179
420
  2234388
370
     9
100
AcDbSpline
210
0.0
220
0.0
230
1.0
 70
    11
 71
     3
 72
    17
 73
    13
 74
     0
 42
0.0000000001
 43
0.0000000001
 12
1.0
 22
0.0
 32
0.0
 13
1.0
 23
0.0
 33
0.0
 40
0.0
 40
0.0
 40
0.0
 40
0.0
 40
1.0
 40
1.0
 40
1.0
 40
2.0
 40
2.0
 40
2.0
 40
3.0
 40
3.0
 40
3.0
 40
4.0
 40
4.0
 40
4.0
 40
4.0
 10
96.1939603236654
 20
-160.7254144042629
 30
0.0
 10
96.1939603236654
 20
-160.670310515388
 30
0.0
 10
96.14915754703063
 20
-160.6255077376213
 30
0.0
 10
96.09405365954755
 20
-160.6255077376213
 30
0.0
 10
96.03891449428761
 20
-160.6255077376213
 30
0.0
 10
95.99414699542973
 20
-160.670310515388
 30
0.0
 10
95.99414699542973
 20
-160.7254144042629
 30
0.0
 10
95.99414699542973
 20
-160.780553570916
 30
0.0
 10
96.03891449428761
 20
-160.8253210709046
 30
0.0
 10
96.09405365954755
 20
-160.8253210709046
 30
0.0
 10
96.14915754703063
 20
-160.8253210709046
 30
0.0
 10
96.1939603236654
 20
-160.780553570916
 30
0.0
 10
96.1939603236654
 20
-160.7254144042629
 30
0.0
  0
SPLINE
  5
6F
330
41
100
AcDbEntity
  8
_U+30EC_U+30A4_U+30E4_U+30FC 1
 62
   179
420
  2234388
370
     9
100
AcDbSpline
210
0.0
220
0.0
230
1.0
 70
    11
 71
     3
 72
    17
 73
    13
 74
     0
 42
0.0000000001
 43
0.0000000001
 12
1.0
 22
0.0
 32
0.0
 13
1.0
 23
0.0
 33
0.0
 40
0.0
 40
0.0
 40
0.0
 40
0.0
 40
1.0
 40
1.0
 40
1.0
 40
2.0
 40
2.0
 40
2.0
 40
3.0
 40
3.0
 40
3.0
 40
4.0
 40
4.0
 40
4.0
 40
4.0
 10
92.19420125904108
 20
-142.0252641311604
 30
0.0
 10
92.19420125904108
 20
-141.9701602422851
 30
0.0
 10
92.14939848240633
 20
-141.9253574645187
 30
0.0
 10
92.09429459492326
 20
-141.9253574645187
 30
0.0
 10
92.0391554296633
 20
-141.9253574645187
 30
0.0
 10
91.99438793080542
 20
-141.9701602422851
 30
0.0
 10
91.99438793080542
 20
-142.0252641311604
 30
0.0
 10
91.99438793080542
 20
-142.0804032978131
 30
0.0
 10
92.0391554296633
 20
-142.125170797802
 30
0.0
 10
92.09429459492326
 20
-142.125170797802
 30
0.0
 10
92.14939848240633
 20
-142.125170797802
 30
0.0
 10
92.19420125904108
 20
-142.0804032978131
 30
0.0
 10
92.19420125904108
 20
-142.0252641311604
 30
0.0
  0
POLYLINE
  5
70
330
41
100
AcDbEntity
  8
_U+30EC_U+30A4_U+30E4_U+30FC 1
 62
   179
420
  2234388
370
     9
100
AcDb2dPolyline
 66
     1
 10
0.0
 20
0.0
 30
0.0
  0
VERTEX
  5
71
330
70
100
AcDbEntity
  8
_U+30EC_U+30A4_U+30E4_U+30FC 1
 62
   179
420
  2234388
370
     9
100
AcDbVertex
100
AcDb2dVertex
 10
96.09405365954755
 20
-138.0255049654935
 30
0.0
  0
VERTEX
  5
72
330
70
100
AcDbEntity
  8
_U+30EC_U+30A4_U+30E4_U+30FC 1
 62
   179
420
  2234388
370
     9
100
AcDbVertex
100
AcDb2dVertex
 10
116.0941895381905
 20
-138.0255049654935
 30
0.0
  0
SEQEND
  5
73
330
70
100
AcDbEntity
  8
_U+30EC_U+30A4_U+30E4_U+30FC 1
 62
   179
420
  2234388
370
     9
  0
POLYLINE
  5
74
330
41
100
AcDbEntity
  8
_U+30EC_U+30A4_U+30E4_U+30FC 1
 62
   179
420
  2234388
370
     9
100
AcDb2dPolyline
 66
     1
 10
0.0
 20
0.0
 30
0.0
  0
VERTEX
  5
75
330
74
100
AcDbEntity
  8
_U+30EC_U+30A4_U+30E4_U+30FC 1
 62
   179
420
  2234388
370
     9
100
AcDbVertex
100
AcDb2dVertex
 10
96.09405365954755
 20
-139.4851935762398
 30
0.0
  0
VERTEX
  5
76
330
74
100
AcDbEntity
  8
_U+30EC_U+30A4_U+30E4_U+30FC 1
 62
   179
420
  2234388
370
     9
100
AcDbVertex
100
AcDb2dVertex
 10
96.09405365954755
 20
-137.0250624657436
 30
0.0
  0
SEQEND
  5
77
330
74
100
AcDbEntity
  8
_U+30EC_U+30A4_U+30E4_U+30FC 1
 62
   179
420
  2234388
370
     9
  0
POLYLINE
  5
78
330
41
100
AcDbEntity
  8
_U+30EC_U+30A4_U+30E4_U+30FC 1
 62
   179
420
  2234388
370
     9
100
AcDb2dPolyline
 66
     1
 10
0.0
 20
0.0
 30
0.0
  0
VERTEX
  5
79
330
78
100
AcDbEntity
  8
_U+30EC_U+30A4_U+30E4_U+30FC 1
 62
   179
420
  2234388
370
     9
100
AcDbVertex
100
AcDb2dVertex
 10
116.0941895381905
 20
-139.4851935762398
 30
0.0
  0
VERTEX
  5
7A
330
78
100
AcDbEntity
  8
_U+30EC_U+30A4_U+30E4_U+30FC 1
 62
   179
420
  2234388
370
     9
100
AcDbVertex
100
AcDb2dVertex
 10
116.0941895381905
 20
-137.0250624657436
 30
0.0
  0
SEQEND
  5
7B
330
78
100
AcDbEntity
  8
_U+30EC_U+30A4_U+30E4_U+30FC 1
 62
   179
420
  2234388
370
     9
  0
INSERT
  5
7D
330
41
100
AcDbEntity
  8
_U+30EC_U+30A4_U+30E4_U+30FC 1
100
AcDbBlockReference
  2
block 3
 10
0.0
 20
0.0
 30
0.0
  0
POLYLINE
  5
85
330
41
100
AcDbEntity
  8
_U+30EC_U+30A4_U+30E4_U+30FC 1
 62
   179
420
  2234388
370
     9
100
AcDb2dPolyline
 66
     1
 10
0.0
 20
0.0
 30
0.0
  0
VERTEX
  5
86
330
85
100
AcDbEntity
  8
_U+30EC_U+30A4_U+30E4_U+30FC 1
 62
   179
420
  2234388
370
     9
100
AcDbVertex
100
AcDb2dVertex
 10
96.09405365954755
 20
-160.7254144042629
 30
0.0
  0
VERTEX
  5
87
330
85
100
AcDbEntity
  8
_U+30EC_U+30A4_U+30E4_U+30FC 1
 62
   179
420
  2234388
370
     9
100
AcDbVertex
100
AcDb2dVertex
 10
100.0944830019325
 20
-160.7254144042629
 30
0.0
  0
SEQEND
  5
88
330
85
100
AcDbEntity
  8
_U+30EC_U+30A4_U+30E4_U+30FC 1
 62
   179
420
  2234388
370
     9
  0
POLYLINE
  5
89
330
41
100
AcDbEntity
  8
_U+30EC_U+30A4_U+30E4_U+30FC 1
 62
   179
420
  2234388
370
     9
100
AcDb2dPolyline
 66
     1
 10
0.0
 20
0.0
 30
0.0
  0
VERTEX
  5
8A
330
89
100
AcDbEntity
  8
_U+30EC_U+30A4_U+30E4_U+30FC 1
 62
   179
420
  2234388
370
     9
100
AcDbVertex
100
AcDb2dVertex
 10
96.09405365954755
 20
-159.2653730157392
 30
0.0
  0
VERTEX
  5
8B
330
89
100
AcDbEntity
  8
_U+30EC_U+30A4_U+30E4_U+30FC 1
 62
   179
420
  2234388
370
     9
100
AcDbVertex
100
AcDb2dVertex
 10
96.09405365954755
 20
-161.7251866262355
 30
0.0
  0
SEQEND
  5
8C
330
89
100
AcDbEntity
  8
_U+30EC_U+30A4_U+30E4_U+30FC 1
 62
   179
420
  2234388
370
     9
  0
POLYLINE
  5
8D
330
41
100
AcDbEntity
  8
_U+30EC_U+30A4_U+30E4_U+30FC 1
 62
   179
420
  2234388
370
     9
100
AcDb2dPolyline
 66
     1
 10
0.0
 20
0.0
 30
0.0
  0
VERTEX
  5
8E
330
8D
100
AcDbEntity
  8
_U+30EC_U+30A4_U+30E4_U+30FC 1
 62
   179
420
  2234388
370
     9
100
AcDbVertex
100
AcDb2dVertex
 10
100.0944830019325
 20
-158.765169404753
 30
0.0
  0
VERTEX
  5
8F
330
8D
100
AcDbEntity
  8
_U+30EC_U+30A4_U+30E4_U+30FC 1
 62
   179
420
  2234388
370
     9
100
AcDbVertex
100
AcDb2dVertex
 10
100.0944830019325
 20
-161.7251866262355
 30
0.0
  0
SEQEND
  5
90
330
8D
100
AcDbEntity
  8
_U+30EC_U+30A4_U+30E4_U+30FC 1
 62
   179
420
  2234388
370
     9
  0
INSERT
  5
92
330
41
100
AcDbEntity
  8
_U+30EC_U+30A4_U+30E4_U+30FC 1
100
AcDbBlockReference
  2
block 4
 10
0.0
 20
0.0
 30
0.0
  0
POLYLINE
  5
AA
330
41
100
AcDbEntity
  8
_U+30EC_U+30A4_U+30E4_U+30FC 1
 62
   179
420
  2234388
370
     9
100
AcDb2dPolyline
 66
     1
 10
0.0
 20
0.0
 30
0.0
  0
VERTEX
  5
AB
330
AA
100
AcDbEntity
  8
_U+30EC_U+30A4_U+30E4_U+30FC 1
 62
   179
420
  2234388
370
     9
100
AcDbVertex
100
AcDb2dVertex
 10
104.0942420665569
 20
-155.7252127388468
 30
0.0
  0
VERTEX
  5
AC
330
AA
100
AcDbEntity
  8
_U+30EC_U+30A4_U+30E4_U+30FC 1
 62
   179
420
  2234388
370
     9
100
AcDbVertex
100
AcDb2dVertex
 10
104.0942420665569
 20
-150.4673069068279
 30
0.0
  0
SEQEND
  5
AD
330
AA
100
AcDbEntity
  8
_U+30EC_U+30A4_U+30E4_U+30FC 1
 62
   179
420
  2234388
370
     9
  0
POLYLINE
  5
AE
330
41
100
AcDbEntity
  8
_U+30EC_U+30A4_U+30E4_U+30FC 1
 62
   179
420
  2234388
370
     9
100
AcDb2dPolyline
 66
     1
 10
0.0
 20
0.0
 30
0.0
  0
VERTEX
  5
AF
330
AE
100
AcDbEntity
  8
_U+30EC_U+30A4_U+30E4_U+30FC 1
 62
   179
420
  2234388
370
     9
100
AcDbVertex
100
AcDb2dVertex
 10
104.0942420665569
 20
-155.7252127388468
 30
0.0
  0
VERTEX
  5
B0
330
AE
100
AcDbEntity
  8
_U+30EC_U+30A4_U+30E4_U+30FC 1
 62
   179
420
  2234388
370
     9
100
AcDbVertex
100
AcDb2dVertex
 10
104.0942420665569
 20
-157.2251885718049
 30
0.0
  0
SEQEND
  5
B1
330
AE
100
AcDbEntity
  8
_U+30EC_U+30A4_U+30E4_U+30FC 1
 62
   179
420
  2234388
370
     9
  0
POLYLINE
  5
B2
330
41
100
AcDbEntity
  8
_U+30EC_U+30A4_U+30E4_U+30FC 1
 62
   179
420
  2234388
370
     9
100
AcDb2dPolyline
 66
     1
 10
0.0
 20
0.0
 30
0.0
  0
VERTEX
  5
B3
330
B2
100
AcDbEntity
  8
_U+30EC_U+30A4_U+30E4_U+30FC 1
 62
   179
420
  2234388
370
     9
100
AcDbVertex
100
AcDb2dVertex
 10
102.6342007149167
 20
-155.7252127388468
 30
0.0
  0
VERTEX
  5
B4
330
B2
100
AcDbEntity
  8
_U+30EC_U+30A4_U+30E4_U+30FC 1
 62
   179
420
  2234388
370
     9
100
AcDbVertex
100
AcDb2dVertex
 10
105.0940142632728
 20
-155.7252127388468
 30
0.0
  0
SEQEND
  5
B5
330
B2
100
AcDbEntity
  8
_U+30EC_U+30A4_U+30E4_U+30FC 1
 62
   179
420
  2234388
370
     9
  0
POLYLINE
  5
B6
330
41
100
AcDbEntity
  8
_U+30EC_U+30A4_U+30E4_U+30FC 1
 62
   179
420
  2234388
370
     9
100
AcDb2dPolyline
 66
     1
 10
0.0
 20
0.0
 30
0.0
  0
VERTEX
  5
B7
330
B6
100
AcDbEntity
  8
_U+30EC_U+30A4_U+30E4_U+30FC 1
 62
   179
420
  2234388
370
     9
100
AcDbVertex
100
AcDb2dVertex
 10
102.6342007149167
 20
-156.2254516276105
 30
0.0
  0
VERTEX
  5
B8
330
B6
100
AcDbEntity
  8
_U+30EC_U+30A4_U+30E4_U+30FC 1
 62
   179
420
  2234388
370
     9
100
AcDbVertex
100
AcDb2dVertex
 10
105.0940142632728
 20
-156.2254516276105
 30
0.0
  0
SEQEND
  5
B9
330
B6
100
AcDbEntity
  8
_U+30EC_U+30A4_U+30E4_U+30FC 1
 62
   179
420
  2234388
370
     9
  0
INSERT
  5
BB
330
41
100
AcDbEntity
  8
_U+30EC_U+30A4_U+30E4_U+30FC 1
100
AcDbBlockReference
  2
block 5
 10
0.0
 20
0.0
 30
0.0
  0
POLYLINE
  5
CB
330
41
100
AcDbEntity
  8
_U+30EC_U+30A4_U+30E4_U+30FC 1
 62
   179
420
  2234388
370
     9
100
AcDb2dPolyline
 66
     1
 10
0.0
 20
0.0
 30
0.0
  0
VERTEX
  5
CC
330
CB
100
AcDbEntity
  8
_U+30EC_U+30A4_U+30E4_U+30FC 1
 62
   179
420
  2234388
370
     9
100
AcDbVertex
100
AcDb2dVertex
 10
120.0946541583523
 20
-142.0252641311604
 30
0.0
  0
VERTEX
  5
CD
330
CB
100
AcDbEntity
  8
_U+30EC_U+30A4_U+30E4_U+30FC 1
 62
   179
420
  2234388
370
     9
100
AcDbVertex
100
AcDb2dVertex
 10
120.0946541583523
 20
-138.2549516321029
 30
0.0
  0
SEQEND
  5
CE
330
CB
100
AcDbEntity
  8
_U+30EC_U+30A4_U+30E4_U+30FC 1
 62
   179
420
  2234388
370
     9
  0
POLYLINE
  5
CF
330
41
100
AcDbEntity
  8
_U+30EC_U+30A4_U+30E4_U+30FC 1
 62
   179
420
  2234388
370
     9
100
AcDb2dPolyline
 66
     1
 10
0.0
 20
0.0
 30
0.0
  0
VERTEX
  5
D0
330
CF
100
AcDbEntity
  8
_U+30EC_U+30A4_U+30E4_U+30FC 1
 62
   179
420
  2234388
370
     9
100
AcDbVertex
100
AcDb2dVertex
 10
120.0946541583523
 20
-142.0252641311604
 30
0.0
  0
VERTEX
  5
D1
330
CF
100
AcDbEntity
  8
_U+30EC_U+30A4_U+30E4_U+30FC 1
 62
   179
420
  2234388
370
     9
100
AcDbVertex
100
AcDb2dVertex
 10
120.0946541583523
 20
-143.0250363531326
 30
0.0
  0
SEQEND
  5
D2
330
CF
100
AcDbEntity
  8
_U+30EC_U+30A4_U+30E4_U+30FC 1
 62
   179
420
  2234388
370
     9
  0
POLYLINE
  5
D3
330
41
100
AcDbEntity
  8
_U+30EC_U+30A4_U+30E4_U+30FC 1
 62
   179
420
  2234388
370
     9
100
AcDb2dPolyline
 66
     1
 10
0.0
 20
0.0
 30
0.0
  0
VERTEX
  5
D4
330
D3
100
AcDbEntity
  8
_U+30EC_U+30A4_U+30E4_U+30FC 1
 62
   179
420
  2234388
370
     9
100
AcDbVertex
100
AcDb2dVertex
 10
118.6346128067122
 20
-142.0252641311604
 30
0.0
  0
VERTEX
  5
D5
330
D3
100
AcDbEntity
  8
_U+30EC_U+30A4_U+30E4_U+30FC 1
 62
   179
420
  2234388
370
     9
100
AcDbVertex
100
AcDb2dVertex
 10
121.0944263550683
 20
-142.0252641311604
 30
0.0
  0
SEQEND
  5
D6
330
D3
100
AcDbEntity
  8
_U+30EC_U+30A4_U+30E4_U+30FC 1
 62
   179
420
  2234388
370
     9
  0
POLYLINE
  5
D7
330
41
100
AcDbEntity
  8
_U+30EC_U+30A4_U+30E4_U+30FC 1
 62
   179
420
  2234388
370
     9
100
AcDb2dPolyline
 66
     1
 10
0.0
 20
0.0
 30
0.0
  0
VERTEX
  5
D8
330
D7
100
AcDbEntity
  8
_U+30EC_U+30A4_U+30E4_U+30FC 1
 62
   179
420
  2234388
370
     9
100
AcDbVertex
100
AcDb2dVertex
 10
118.6346128067122
 20
-143.0250363531326
 30
0.0
  0
VERTEX
  5
D9
330
D7
100
AcDbEntity
  8
_U+30EC_U+30A4_U+30E4_U+30FC 1
 62
   179
420
  2234388
370
     9
100
AcDbVertex
100
AcDb2dVertex
 10
121.0944263550683
 20
-143.0250363531326
 30
0.0
  0
SEQEND
  5
DA
330
D7
100
AcDbEntity
  8
_U+30EC_U+30A4_U+30E4_U+30FC 1
 62
   179
420
  2234388
370
     9
  0
INSERT
  5
DC
330
41
100
AcDbEntity
  8
_U+30EC_U+30A4_U+30E4_U+30FC 1
100
AcDbBlockReference
  2
block 6
 10
0.0
 20
0.0
 30
0.0
  0
POLYLINE
  5
E1
330
41
100
AcDbEntity
  8
_U+30EC_U+30A4_U+30E4_U+30FC 1
 62
   179
420
  2234388
370
     9
100
AcDb2dPolyline
 66
     1
 10
0.0
 20
0.0
 30
0.0
  0
VERTEX
  5
E2
330
E1
100
AcDbEntity
  8
_U+30EC_U+30A4_U+30E4_U+30FC 1
 62
   179
420
  2234388
370
     9
100
AcDbVertex
100
AcDb2dVertex
 10
92.09429459492326
 20
-142.0252641311604
 30
0.0
  0
VERTEX
  5
E3
330
E1
100
AcDbEntity
  8
_U+30EC_U+30A4_U+30E4_U+30FC 1
 62
   179
420
  2234388
370
     9
100
AcDbVertex
100
AcDb2dVertex
 10
92.09429459492326
 20
-156.7249849608187
 30
0.0
  0
SEQEND
  5
E4
330
E1
100
AcDbEntity
  8
_U+30EC_U+30A4_U+30E4_U+30FC 1
 62
   179
420
  2234388
370
     9
  0
POLYLINE
  5
E5
330
41
100
AcDbEntity
  8
_U+30EC_U+30A4_U+30E4_U+30FC 1
 62
   179
420
  2234388
370
     9
100
AcDb2dPolyline
 66
     1
 10
0.0
 20
0.0
 30
0.0
  0
VERTEX
  5
E6
330
E5
100
AcDbEntity
  8
_U+30EC_U+30A4_U+30E4_U+30FC 1
 62
   179
420
  2234388
370
     9
100
AcDbVertex
100
AcDb2dVertex
 10
93.55433594656338
 20
-142.0252641311604
 30
0.0
  0
VERTEX
  5
E7
330
E5
100
AcDbEntity
  8
_U+30EC_U+30A4_U+30E4_U+30FC 1
 62
   179
420
  2234388
370
     9
100
AcDbVertex
100
AcDb2dVertex
 10
91.09452239820735
 20
-142.0252641311604
 30
0.0
  0
SEQEND
  5
E8
330
E5
100
AcDbEntity
  8
_U+30EC_U+30A4_U+30E4_U+30FC 1
 62
   179
420
  2234388
370
     9
  0
POLYLINE
  5
E9
330
41
100
AcDbEntity
  8
_U+30EC_U+30A4_U+30E4_U+30FC 1
 62
   179
420
  2234388
370
     9
100
AcDb2dPolyline
 66
     1
 10
0.0
 20
0.0
 30
0.0
  0
VERTEX
  5
EA
330
E9
100
AcDbEntity
  8
_U+30EC_U+30A4_U+30E4_U+30FC 1
 62
   179
420
  2234388
370
     9
100
AcDbVertex
100
AcDb2dVertex
 10
93.55433594656338
 20
-156.7249849608187
 30
0.0
  0
VERTEX
  5
EB
330
E9
100
AcDbEntity
  8
_U+30EC_U+30A4_U+30E4_U+30FC 1
 62
   179
420
  2234388
370
     9
100
AcDbVertex
100
AcDb2dVertex
 10
91.09452239820735
 20
-156.7249849608187
 30
0.0
  0
SEQEND
  5
EC
330
E9
100
AcDbEntity
  8
_U+30EC_U+30A4_U+30E4_U+30FC 1
 62
   179
420
  2234388
370
     9
  0
INSERT
  5
EE
330
41
100
AcDbEntity
  8
_U+30EC_U+30A4_U+30E4_U+30FC 1
100
AcDbBlockReference
  2
block 7
 10
0.0
 20
0.0
 30
0.0
  0
POLYLINE
  5
112
330
41
100
AcDbEntity
  8
_U+30EC_U+30A4_U+30E4_U+30FC 1
 62
   179
420
  2234388
370
     9
100
AcDb2dPolyline
 66
     1
 10
0.0
 20
0.0
 30
0.0
  0
VERTEX
  5
113
330
112
100
AcDbEntity
  8
_U+30EC_U+30A4_U+30E4_U+30FC 1
 62
   179
420
  2234388
370
     9
100
AcDbVertex
100
AcDb2dVertex
 10
120.0946541583523
 20
-143.0250363531326
 30
0.0
  0
VERTEX
  5
114
330
112
100
AcDbEntity
  8
_U+30EC_U+30A4_U+30E4_U+30FC 1
 62
   179
420
  2234388
370
     9
100
AcDbVertex
100
AcDb2dVertex
 10
120.0946541583523
 20
-155.7252127388468
 30
0.0
  0
SEQEND
  5
115
330
112
100
AcDbEntity
  8
_U+30EC_U+30A4_U+30E4_U+30FC 1
 62
   179
420
  2234388
370
     9
  0
POLYLINE
  5
116
330
41
100
AcDbEntity
  8
_U+30EC_U+30A4_U+30E4_U+30FC 1
 62
   179
420
  2234388
370
     9
100
AcDb2dPolyline
 66
     1
 10
0.0
 20
0.0
 30
0.0
  0
VERTEX
  5
117
330
116
100
AcDbEntity
  8
_U+30EC_U+30A4_U+30E4_U+30FC 1
 62
   179
420
  2234388
370
     9
100
AcDbVertex
100
AcDb2dVertex
 10
118.6346128067122
 20
-143.0250363531326
 30
0.0
  0
VERTEX
  5
118
330
116
100
AcDbEntity
  8
_U+30EC_U+30A4_U+30E4_U+30FC 1
 62
   179
420
  2234388
370
     9
100
AcDbVertex
100
AcDb2dVertex
 10
121.0944263550683
 20
-143.0250363531326
 30
0.0
  0
SEQEND
  5
119
330
116
100
AcDbEntity
  8
_U+30EC_U+30A4_U+30E4_U+30FC 1
 62
   179
420
  2234388
370
     9
  0
POLYLINE
  5
11A
330
41
100
AcDbEntity
  8
_U+30EC_U+30A4_U+30E4_U+30FC 1
 62
   179
420
  2234388
370
     9
100
AcDb2dPolyline
 66
     1
 10
0.0
 20
0.0
 30
0.0
  0
VERTEX
  5
11B
330
11A
100
AcDbEntity
  8
_U+30EC_U+30A4_U+30E4_U+30FC 1
 62
   179
420
  2234388
370
     9
100
AcDbVertex
100
AcDb2dVertex
 10
102.6342007149167
 20
-155.7252127388468
 30
0.0
  0
VERTEX
  5
11C
330
11A
100
AcDbEntity
  8
_U+30EC_U+30A4_U+30E4_U+30FC 1
 62
   179
420
  2234388
370
     9
100
AcDbVertex
100
AcDb2dVertex
 10
121.0944263550683
 20
-155.7252127388468
 30
0.0
  0
SEQEND
  5
11D
330
11A
100
AcDbEntity
  8
_U+30EC_U+30A4_U+30E4_U+30FC 1
 62
   179
420
  2234388
370
     9
  0
INSERT
  5
11F
330
41
100
AcDbEntity
  8
_U+30EC_U+30A4_U+30E4_U+30FC 1
100
AcDbBlockReference
  2
block 8
 10
0.0
 20
0.0
 30
0.0
  0
ENDBLK
  5
44
330
41
100
AcDbEntity
  8
0
100
AcDbBlockEnd
  0
BLOCK
  5
7E
330
7C
100
AcDbEntity
  8
0
100
AcDbBlockBegin
  2
block 3
 70
     0
 10
0.0
 20
0.0
 30
0.0
  3
block 3
  1

  0
SPLINE
  5
80
330
7C
100
AcDbEntity
  8
_U+30EC_U+30A4_U+30E4_U+30FC 1
370
     0
100
AcDbSpline
210
0.0
220
0.0
230
1.0
 70
    11
 71
     3
 72
    44
 73
    40
 74
     0
 42
0.0000000001
 43
0.0000000001
 12
1.0
 22
0.0
 32
0.0
 13
1.0
 23
0.0
 33
0.0
 40
0.0
 40
0.0
 40
0.0
 40
0.0
 40
1.0
 40
1.0
 40
1.0
 40
2.0
 40
2.0
 40
2.0
 40
3.0
 40
3.0
 40
3.0
 40
4.0
 40
4.0
 40
4.0
 40
5.0
 40
5.0
 40
5.0
 40
6.0
 40
6.0
 40
6.0
 40
7.0
 40
7.0
 40
7.0
 40
8.0
 40
8.0
 40
8.0
 40
9.0
 40
9.0
 40
9.0
 40
10.0
 40
10.0
 40
10.0
 40
11.0
 40
11.0
 40
11.0
 40
12.0
 40
12.0
 40
12.0
 40
13.0
 40
13.0
 40
13.0
 40
13.0
 10
105.5694389927049
 20
-136.8471163937396
 30
0.0
 10
105.336550537902
 20
-137.0059352956096
 30
0.0
 10
105.2369872783783
 20
-137.0800048485425
 30
0.0
 10
105.184966336551
 20
-137.2236653302774
 30
0.0
 10
105.184966336551
 20
-137.2236653302774
 30
0.0
 10
106.0173014057874
 20
-137.2236653302774
 30
0.0
 10
106.0173014057874
 20
-137.2236653302774
 30
0.0
 10
106.0173014057874
 20
-137.2236653302774
 30
0.0
 10
106.0173014057874
 20
-137.4289930211983
 30
0.0
 10
106.0173014057874
 20
-137.4289930211983
 30
0.0
 10
106.0173014057874
 20
-137.4289930211983
 30
0.0
 10
104.9183159459926
 20
-137.4289930211983
 30
0.0
 10
104.9183159459926
 20
-137.4289930211983
 30
0.0
 10
104.9524223912966
 20
-137.0713921098294
 30
0.0
 10
105.0223578296472
 20
-136.9931884423142
 30
0.0
 10
105.433702230586
 20
-136.6948431732916
 30
0.0
 10
105.7072428121149
 20
-136.4960611637927
 30
0.0
 10
105.777522760014
 20
-136.4281927827332
 30
0.0
 10
105.777522760014
 20
-136.2907334728718
 30
0.0
 10
105.777522760014
 20
-136.1722221881792
 30
0.0
 10
105.7006971306929
 20
-136.0413085597397
 30
0.0
 10
105.4902017965441
 20
-136.0413085597397
 30
0.0
 10
105.2121825908845
 20
-136.0413085597397
 30
0.0
 10
105.2032253426228
 20
-136.2717854477029
 30
0.0
 10
105.198746718492
 20
-136.3882296751043
 30
0.0
 10
105.198746718492
 20
-136.3882296751043
 30
0.0
 10
104.9589680727186
 20
-136.3882296751043
 30
0.0
 10
104.9589680727186
 20
-136.3882296751043
 30
0.0
 10
104.9679253209802
 20
-136.2611056516986
 30
0.0
 10
104.9792941360816
 20
-136.149140048428
 30
0.0
 10
105.0654215232128
 20
-136.0306287637354
 30
0.0
 10
105.1828992792598
 20
-135.8697428045742
 30
0.0
 10
105.3816812887588
 20
-135.8359808688188
 30
0.0
 10
105.5060492357763
 20
-135.8359808688188
 30
0.0
 10
105.8023274475077
 20
-135.8359808688188
 30
0.0
 10
106.0238470872093
 20
-136.0199489677311
 30
0.0
 10
106.0238470872093
 20
-136.2928005301629
 30
0.0
 10
106.0238470872093
 20
-136.5215548703835
 30
0.0
 10
105.8994791401918
 20
-136.6207736203587
 30
0.0
 10
105.5694389927049
 20
-136.8471163937396
 30
0.0
  0
HATCH
  5
81
330
7C
100
AcDbEntity
  8
_U+30EC_U+30A4_U+30E4_U+30FC 1
 62
   179
420
  2234388
100
AcDbHatch
 10
0.0
 20
0.0
 30
0.0
210
0.0
220
0.0
230
1.0
  2
SOLID
 70
     1
 71
     0
 91
        1
 92
        1
 93
        1
 72
     4
 94
        3
 73
     0
 74
     1
 95
       44
 96
       40
 40
0.0
 40
0.0
 40
0.0
 40
0.0
 40
1.0
 40
1.0
 40
1.0
 40
2.0
 40
2.0
 40
2.0
 40
3.0
 40
3.0
 40
3.0
 40
4.0
 40
4.0
 40
4.0
 40
5.0
 40
5.0
 40
5.0
 40
6.0
 40
6.0
 40
6.0
 40
7.0
 40
7.0
 40
7.0
 40
8.0
 40
8.0
 40
8.0
 40
9.0
 40
9.0
 40
9.0
 40
10.0
 40
10.0
 40
10.0
 40
11.0
 40
11.0
 40
11.0
 40
12.0
 40
12.0
 40
12.0
 40
13.0
 40
13.0
 40
13.0
 40
13.0
 10
105.5694389927049
 20
-136.8471163937396
 10
105.336550537902
 20
-137.0059352956096
 10
105.2369872783783
 20
-137.0800048485425
 10
105.184966336551
 20
-137.2236653302774
 10
105.184966336551
 20
-137.2236653302774
 10
106.0173014057874
 20
-137.2236653302774
 10
106.0173014057874
 20
-137.2236653302774
 10
106.0173014057874
 20
-137.2236653302774
 10
106.0173014057874
 20
-137.4289930211983
 10
106.0173014057874
 20
-137.4289930211983
 10
106.0173014057874
 20
-137.4289930211983
 10
104.9183159459926
 20
-137.4289930211983
 10
104.9183159459926
 20
-137.4289930211983
 10
104.9524223912966
 20
-137.0713921098294
 10
105.0223578296472
 20
-136.9931884423142
 10
105.433702230586
 20
-136.6948431732916
 10
105.7072428121149
 20
-136.4960611637927
 10
105.777522760014
 20
-136.4281927827332
 10
105.777522760014
 20
-136.2907334728718
 10
105.777522760014
 20
-136.1722221881792
 10
105.7006971306929
 20
-136.0413085597397
 10
105.4902017965441
 20
-136.0413085597397
 10
105.2121825908845
 20
-136.0413085597397
 10
105.2032253426228
 20
-136.2717854477029
 10
105.198746718492
 20
-136.3882296751043
 10
105.198746718492
 20
-136.3882296751043
 10
104.9589680727186
 20
-136.3882296751043
 10
104.9589680727186
 20
-136.3882296751043
 10
104.9679253209802
 20
-136.2611056516986
 10
104.9792941360816
 20
-136.149140048428
 10
105.0654215232128
 20
-136.0306287637354
 10
105.1828992792598
 20
-135.8697428045742
 10
105.3816812887588
 20
-135.8359808688188
 10
105.5060492357763
 20
-135.8359808688188
 10
105.8023274475077
 20
-135.8359808688188
 10
106.0238470872093
 20
-136.0199489677311
 10
106.0238470872093
 20
-136.2928005301629
 10
106.0238470872093
 20
-136.5215548703835
 10
105.8994791401918
 20
-136.6207736203587
 10
105.5694389927049
 20
-136.8471163937396
 97
        0
 97
        0
 75
     2
 76
     1
 98
        0
  0
SPLINE
  5
82
330
7C
100
AcDbEntity
  8
_U+30EC_U+30A4_U+30E4_U+30FC 1
370
     0
100
AcDbSpline
210
0.0
220
0.0
230
1.0
 70
    11
 71
     3
 72
    29
 73
    25
 74
     0
 42
0.0000000001
 43
0.0000000001
 12
1.0
 22
0.0
 32
0.0
 13
1.0
 23
0.0
 33
0.0
 40
0.0
 40
0.0
 40
0.0
 40
0.0
 40
1.0
 40
1.0
 40
1.0
 40
2.0
 40
2.0
 40
2.0
 40
3.0
 40
3.0
 40
3.0
 40
4.0
 40
4.0
 40
4.0
 40
5.0
 40
5.0
 40
5.0
 40
6.0
 40
6.0
 40
6.0
 40
7.0
 40
7.0
 40
7.0
 40
8.0
 40
8.0
 40
8.0
 40
8.0
 10
107.1528048777257
 20
-137.2512260941594
 30
0.0
 10
107.0373941789698
 20
-137.4606878996626
 30
0.0
 10
106.8520480418634
 20
-137.4796359248315
 30
0.0
 10
106.7276800948459
 20
-137.4796359248315
 30
0.0
 10
106.5561143396804
 20
-137.4796359248315
 30
0.0
 10
106.4045301383294
 20
-137.4331271357806
 30
0.0
 10
106.3028998215146
 20
-137.2512260941594
 30
0.0
 10
106.1919677468895
 20
-137.0565781992428
 30
0.0
 10
106.1716416835265
 20
-136.8199001394061
 30
0.0
 10
106.1716416835265
 20
-136.6569471229538
 30
0.0
 10
106.1716416835265
 20
-136.5129421316704
 30
0.0
 10
106.1895561800498
 20
-136.2611056516986
 30
0.0
 10
106.3028998215146
 20
-136.0623236421997
 30
0.0
 10
106.4179660107219
 20
-135.8594075181185
 30
0.0
 10
106.5898762754359
 20
-135.8359808688188
 30
0.0
 10
106.7276800948459
 20
-135.8359808688188
 30
0.0
 10
106.8975233022687
 20
-135.8359808688188
 30
0.0
 10
107.0511745609108
 20
-135.8804226005785
 30
0.0
 10
107.1528048777257
 20
-136.0623236421997
 30
0.0
 10
107.2592583282199
 20
-136.2549044798252
 30
0.0
 10
107.2840630157137
 20
-136.4833143104972
 30
0.0
 10
107.2840630157137
 20
-136.6569471229538
 30
0.0
 10
107.2840630157137
 20
-136.8281683685707
 30
0.0
 10
107.2613253855111
 20
-137.058645256534
 30
0.0
 10
107.1528048777257
 20
-137.2512260941594
 30
0.0
  0
SPLINE
  5
83
330
7C
100
AcDbEntity
  8
_U+30EC_U+30A4_U+30E4_U+30FC 1
370
     0
100
AcDbSpline
210
0.0
220
0.0
230
1.0
 70
    11
 71
     3
 72
    17
 73
    13
 74
     0
 42
0.0000000001
 43
0.0000000001
 12
1.0
 22
0.0
 32
0.0
 13
1.0
 23
0.0
 33
0.0
 40
0.0
 40
0.0
 40
0.0
 40
0.0
 40
1.0
 40
1.0
 40
1.0
 40
2.0
 40
2.0
 40
2.0
 40
3.0
 40
3.0
 40
3.0
 40
4.0
 40
4.0
 40
4.0
 40
4.0
 10
106.7276800948459
 20
-136.0285617064443
 30
0.0
 10
106.4610297042875
 20
-136.0285617064443
 30
0.0
 10
106.4114203292999
 20
-136.3120930648803
 30
0.0
 10
106.4114203292999
 20
-136.6569471229538
 30
0.0
 10
106.4114203292999
 20
-136.9763074744365
 30
0.0
 10
106.4496608891862
 20
-137.2849880299149
 30
0.0
 10
106.7276800948459
 20
-137.2849880299149
 30
0.0
 10
106.992263428113
 20
-137.2849880299149
 30
0.0
 10
107.0442843699403
 20
-137.0038682383185
 30
0.0
 10
107.0442843699403
 20
-136.6569471229538
 30
0.0
 10
107.0442843699403
 20
-136.3372422619227
 30
0.0
 10
107.0036322432144
 20
-136.0285617064443
 30
0.0
 10
106.7276800948459
 20
-136.0285617064443
 30
0.0
  0
HATCH
  5
84
330
7C
100
AcDbEntity
  8
_U+30EC_U+30A4_U+30E4_U+30FC 1
 62
   179
420
  2234388
100
AcDbHatch
 10
0.0
 20
0.0
 30
0.0
210
0.0
220
0.0
230
1.0
  2
SOLID
 70
     1
 71
     0
 91
        2
 92
        1
 93
        1
 72
     4
 94
        3
 73
     0
 74
     1
 95
       29
 96
       25
 40
0.0
 40
0.0
 40
0.0
 40
0.0
 40
1.0
 40
1.0
 40
1.0
 40
2.0
 40
2.0
 40
2.0
 40
3.0
 40
3.0
 40
3.0
 40
4.0
 40
4.0
 40
4.0
 40
5.0
 40
5.0
 40
5.0
 40
6.0
 40
6.0
 40
6.0
 40
7.0
 40
7.0
 40
7.0
 40
8.0
 40
8.0
 40
8.0
 40
8.0
 10
107.1528048777257
 20
-137.2512260941594
 10
107.0373941789698
 20
-137.4606878996626
 10
106.8520480418634
 20
-137.4796359248315
 10
106.7276800948459
 20
-137.4796359248315
 10
106.5561143396804
 20
-137.4796359248315
 10
106.4045301383294
 20
-137.4331271357806
 10
106.3028998215146
 20
-137.2512260941594
 10
106.1919677468895
 20
-137.0565781992428
 10
106.1716416835265
 20
-136.8199001394061
 10
106.1716416835265
 20
-136.6569471229538
 10
106.1716416835265
 20
-136.5129421316704
 10
106.1895561800498
 20
-136.2611056516986
 10
106.3028998215146
 20
-136.0623236421997
 10
106.4179660107219
 20
-135.8594075181185
 10
106.5898762754359
 20
-135.8359808688188
 10
106.7276800948459
 20
-135.8359808688188
 10
106.8975233022687
 20
-135.8359808688188
 10
107.0511745609108
 20
-135.8804226005785
 10
107.1528048777257
 20
-136.0623236421997
 10
107.2592583282199
 20
-136.2549044798252
 10
107.2840630157137
 20
-136.4833143104972
 10
107.2840630157137
 20
-136.6569471229538
 10
107.2840630157137
 20
-136.8281683685707
 10
107.2613253855111
 20
-137.058645256534
 10
107.1528048777257
 20
-137.2512260941594
 97
        0
 97
        0
 92
        1
 93
        1
 72
     4
 94
        3
 73
     0
 74
     1
 95
       17
 96
       13
 40
0.0
 40
0.0
 40
0.0
 40
0.0
 40
1.0
 40
1.0
 40
1.0
 40
2.0
 40
2.0
 40
2.0
 40
3.0
 40
3.0
 40
3.0
 40
4.0
 40
4.0
 40
4.0
 40
4.0
 10
106.7276800948459
 20
-136.0285617064443
 10
106.4610297042875
 20
-136.0285617064443
 10
106.4114203292999
 20
-136.3120930648803
 10
106.4114203292999
 20
-136.6569471229538
 10
106.4114203292999
 20
-136.9763074744365
 10
106.4496608891862
 20
-137.2849880299149
 10
106.7276800948459
 20
-137.2849880299149
 10
106.992263428113
 20
-137.2849880299149
 10
107.0442843699403
 20
-137.0038682383185
 10
107.0442843699403
 20
-136.6569471229538
 10
107.0442843699403
 20
-136.3372422619227
 10
107.0036322432144
 20
-136.0285617064443
 10
106.7276800948459
 20
-136.0285617064443
 97
        0
 97
        0
 75
     2
 76
     1
 98
        0
  0
ENDBLK
  5
7F
330
7C
100
AcDbEntity
  8
0
100
AcDbBlockEnd
  0
BLOCK
  5
93
330
91
100
AcDbEntity
  8
0
100
AcDbBlockBegin
  2
block 4
 70
     0
 10
0.0
 20
0.0
 30
0.0
  3
block 4
  1

  0
POLYLINE
  5
95
330
91
100
AcDbEntity
  8
_U+30EC_U+30A4_U+30E4_U+30FC 1
370
     0
100
AcDb2dPolyline
 66
     1
 10
0.0
 20
0.0
 30
0.0
  0
VERTEX
  5
96
330
95
100
AcDbEntity
  8
_U+30EC_U+30A4_U+30E4_U+30FC 1
370
     0
100
AcDbVertex
100
AcDb2dVertex
 10
98.49131806348481
 20
-159.7818060581448
 30
0.0
  0
VERTEX
  5
97
330
95
100
AcDbEntity
  8
_U+30EC_U+30A4_U+30E4_U+30FC 1
370
     0
100
AcDbVertex
100
AcDb2dVertex
 10
98.49131806348481
 20
-160.1287271735095
 30
0.0
  0
VERTEX
  5
98
330
95
100
AcDbEntity
  8
_U+30EC_U+30A4_U+30E4_U+30FC 1
370
     0
100
AcDbVertex
100
AcDb2dVertex
 10
98.25860186345619
 20
-160.1287271735095
 30
0.0
  0
VERTEX
  5
99
330
95
100
AcDbEntity
  8
_U+30EC_U+30A4_U+30E4_U+30FC 1
370
     0
100
AcDbVertex
100
AcDb2dVertex
 10
98.25860186345619
 20
-159.7818060581448
 30
0.0
  0
VERTEX
  5
9A
330
95
100
AcDbEntity
  8
_U+30EC_U+30A4_U+30E4_U+30FC 1
370
     0
100
AcDbVertex
100
AcDb2dVertex
 10
97.55769718698211
 20
-159.7818060581448
 30
0.0
  0
VERTEX
  5
9B
330
95
100
AcDbEntity
  8
_U+30EC_U+30A4_U+30E4_U+30FC 1
370
     0
100
AcDbVertex
100
AcDb2dVertex
 10
97.55769718698211
 20
-159.5575303420551
 30
0.0
  0
VERTEX
  5
9C
330
95
100
AcDbEntity
  8
_U+30EC_U+30A4_U+30E4_U+30FC 1
370
     0
100
AcDbVertex
100
AcDb2dVertex
 10
98.28340655094999
 20
-158.584290867472
 30
0.0
  0
VERTEX
  5
9D
330
95
100
AcDbEntity
  8
_U+30EC_U+30A4_U+30E4_U+30FC 1
370
     0
100
AcDbVertex
100
AcDb2dVertex
 10
98.49131806348481
 20
-158.584290867472
 30
0.0
  0
VERTEX
  5
9E
330
95
100
AcDbEntity
  8
_U+30EC_U+30A4_U+30E4_U+30FC 1
370
     0
100
AcDbVertex
100
AcDb2dVertex
 10
98.49131806348481
 20
-159.5830240486459
 30
0.0
  0
VERTEX
  5
9F
330
95
100
AcDbEntity
  8
_U+30EC_U+30A4_U+30E4_U+30FC 1
370
     0
100
AcDbVertex
100
AcDb2dVertex
 10
98.71300995796064
 20
-159.5830240486459
 30
0.0
  0
VERTEX
  5
A0
330
95
100
AcDbEntity
  8
_U+30EC_U+30A4_U+30E4_U+30FC 1
370
     0
100
AcDbVertex
100
AcDb2dVertex
 10
98.71300995796064
 20
-159.7818060581448
 30
0.0
  0
VERTEX
  5
A1
330
95
100
AcDbEntity
  8
_U+30EC_U+30A4_U+30E4_U+30FC 1
370
     0
100
AcDbVertex
100
AcDb2dVertex
 10
98.49131806348481
 20
-159.7818060581448
 30
0.0
  0
SEQEND
  5
A2
330
95
100
AcDbEntity
  8
_U+30EC_U+30A4_U+30E4_U+30FC 1
370
     0
  0
POLYLINE
  5
A3
330
91
100
AcDbEntity
  8
_U+30EC_U+30A4_U+30E4_U+30FC 1
370
     0
100
AcDb2dPolyline
 66
     1
 10
0.0
 20
0.0
 30
0.0
  0
VERTEX
  5
A4
330
A3
100
AcDbEntity
  8
_U+30EC_U+30A4_U+30E4_U+30FC 1
370
     0
100
AcDbVertex
100
AcDb2dVertex
 10
98.25860186345619
 20
-158.9270778682543
 30
0.0
  0
VERTEX
  5
A5
330
A3
100
AcDbEntity
  8
_U+30EC_U+30A4_U+30E4_U+30FC 1
370
     0
100
AcDbVertex
100
AcDb2dVertex
 10
97.77008732364776
 20
-159.5830240486459
 30
0.0
  0
VERTEX
  5
A6
330
A3
100
AcDbEntity
  8
_U+30EC_U+30A4_U+30E4_U+30FC 1
370
     0
100
AcDbVertex
100
AcDb2dVertex
 10
98.25860186345619
 20
-159.5830240486459
 30
0.0
  0
VERTEX
  5
A7
330
A3
100
AcDbEntity
  8
_U+30EC_U+30A4_U+30E4_U+30FC 1
370
     0
100
AcDbVertex
100
AcDb2dVertex
 10
98.25860186345619
 20
-158.9270778682543
 30
0.0
  0
SEQEND
  5
A8
330
A3
100
AcDbEntity
  8
_U+30EC_U+30A4_U+30E4_U+30FC 1
370
     0
  0
HATCH
  5
A9
330
91
100
AcDbEntity
  8
_U+30EC_U+30A4_U+30E4_U+30FC 1
 62
   179
420
  2234388
100
AcDbHatch
 10
0.0
 20
0.0
 30
0.0
210
0.0
220
0.0
230
1.0
  2
SOLID
 70
     1
 71
     0
 91
        2
 92
        1
 93
       11
 72
     1
 10
98.49131806348481
 20
-159.7818060581448
 11
98.49131806348481
 21
-160.1287271735095
 72
     1
 10
98.49131806348481
 20
-160.1287271735095
 11
98.25860186345619
 21
-160.1287271735095
 72
     1
 10
98.25860186345619
 20
-160.1287271735095
 11
98.25860186345619
 21
-159.7818060581448
 72
     1
 10
98.25860186345619
 20
-159.7818060581448
 11
97.55769718698211
 21
-159.7818060581448
 72
     1
 10
97.55769718698211
 20
-159.7818060581448
 11
97.55769718698211
 21
-159.5575303420551
 72
     1
 10
97.55769718698211
 20
-159.5575303420551
 11
98.28340655094999
 21
-158.584290867472
 72
     1
 10
98.28340655094999
 20
-158.584290867472
 11
98.49131806348481
 21
-158.584290867472
 72
     1
 10
98.49131806348481
 20
-158.584290867472
 11
98.49131806348481
 21
-159.5830240486459
 72
     1
 10
98.49131806348481
 20
-159.5830240486459
 11
98.71300995796064
 21
-159.5830240486459
 72
     1
 10
98.71300995796064
 20
-159.5830240486459
 11
98.71300995796064
 21
-159.7818060581448
 72
     1
 10
98.71300995796064
 20
-159.7818060581448
 11
98.49131806348481
 21
-159.7818060581448
 97
        0
 92
        1
 93
        3
 72
     1
 10
98.25860186345619
 20
-158.9270778682543
 11
97.77008732364776
 21
-159.5830240486459
 72
     1
 10
97.77008732364776
 20
-159.5830240486459
 11
98.25860186345619
 21
-159.5830240486459
 72
     1
 10
98.25860186345619
 20
-159.5830240486459
 11
98.25860186345619
 21
-158.9270778682543
 97
        0
 75
     2
 76
     1
 98
        0
  0
ENDBLK
  5
94
330
91
100
AcDbEntity
  8
0
100
AcDbBlockEnd
  0
BLOCK
  5
BC
330
BA
100
AcDbEntity
  8
0
100
AcDbBlockBegin
  2
block 5
 70
     0
 10
0.0
 20
0.0
 30
0.0
  3
block 5
  1

  0
SPLINE
  5
BE
330
BA
100
AcDbEntity
  8
_U+30EC_U+30A4_U+30E4_U+30FC 1
370
     0
100
AcDbSpline
210
0.0
220
0.0
230
1.0
 70
    11
 71
     3
 72
    29
 73
    25
 74
     0
 42
0.0000000001
 43
0.0000000001
 12
1.0
 22
0.0
 32
0.0
 13
1.0
 23
0.0
 33
0.0
 40
0.0
 40
0.0
 40
0.0
 40
0.0
 40
1.0
 40
1.0
 40
1.0
 40
2.0
 40
2.0
 40
2.0
 40
3.0
 40
3.0
 40
3.0
 40
4.0
 40
4.0
 40
4.0
 40
5.0
 40
5.0
 40
5.0
 40
6.0
 40
6.0
 40
6.0
 40
7.0
 40
7.0
 40
7.0
 40
8.0
 40
8.0
 40
8.0
 40
8.0
 10
103.3197916408367
 20
-153.075238677009
 30
0.0
 10
103.5292534463399
 20
-153.1906493757648
 30
0.0
 10
103.5482014715088
 20
-153.3759955128713
 30
0.0
 10
103.5482014715088
 20
-153.5003634598888
 30
0.0
 10
103.5482014715088
 20
-153.6719292150542
 30
0.0
 10
103.5016926824579
 20
-153.8235134164052
 30
0.0
 10
103.3197916408367
 20
-153.9251437332201
 30
0.0
 10
103.1251437459201
 20
-154.0360758078452
 30
0.0
 10
102.8884656860834
 20
-154.0564018712081
 30
0.0
 10
102.7255126696311
 20
-154.0564018712081
 30
0.0
 10
102.5815076783477
 20
-154.0564018712081
 30
0.0
 10
102.3296711983759
 20
-154.0384873746848
 30
0.0
 10
102.130889188877
 20
-153.9251437332201
 30
0.0
 10
101.9279730647958
 20
-153.8100775440128
 30
0.0
 10
101.9045464154961
 20
-153.6381672792988
 30
0.0
 10
101.9045464154961
 20
-153.5003634598888
 30
0.0
 10
101.9045464154961
 20
-153.330520252466
 30
0.0
 10
101.9489881472558
 20
-153.1768689938239
 30
0.0
 10
102.130889188877
 20
-153.075238677009
 30
0.0
 10
102.3234700265025
 20
-152.9687852265148
 30
0.0
 10
102.5518798571745
 20
-152.943980539021
 30
0.0
 10
102.7255126696311
 20
-152.943980539021
 30
0.0
 10
102.896733915248
 20
-152.943980539021
 30
0.0
 10
103.1272108032113
 20
-152.9667181692236
 30
0.0
 10
103.3197916408367
 20
-153.075238677009
 30
0.0
  0
SPLINE
  5
BF
330
BA
100
AcDbEntity
  8
_U+30EC_U+30A4_U+30E4_U+30FC 1
370
     0
100
AcDbSpline
210
0.0
220
0.0
230
1.0
 70
    11
 71
     3
 72
    17
 73
    13
 74
     0
 42
0.0000000001
 43
0.0000000001
 12
1.0
 22
0.0
 32
0.0
 13
1.0
 23
0.0
 33
0.0
 40
0.0
 40
0.0
 40
0.0
 40
0.0
 40
1.0
 40
1.0
 40
1.0
 40
2.0
 40
2.0
 40
2.0
 40
3.0
 40
3.0
 40
3.0
 40
4.0
 40
4.0
 40
4.0
 40
4.0
 10
102.0971272531216
 20
-153.5003634598888
 30
0.0
 10
102.0971272531216
 20
-153.7670138504471
 30
0.0
 10
102.3806586115576
 20
-153.8166232254347
 30
0.0
 10
102.7255126696311
 20
-153.8166232254347
 30
0.0
 10
103.0448730211138
 20
-153.8166232254347
 30
0.0
 10
103.3535535765922
 20
-153.7783826655485
 30
0.0
 10
103.3535535765922
 20
-153.5003634598888
 30
0.0
 10
103.3535535765922
 20
-153.2357801266216
 30
0.0
 10
103.0724337849958
 20
-153.1837591847944
 30
0.0
 10
102.7255126696311
 20
-153.1837591847944
 30
0.0
 10
102.4058078085999
 20
-153.1837591847944
 30
0.0
 10
102.0971272531216
 20
-153.2244113115203
 30
0.0
 10
102.0971272531216
 20
-153.5003634598888
 30
0.0
  0
HATCH
  5
C0
330
BA
100
AcDbEntity
  8
_U+30EC_U+30A4_U+30E4_U+30FC 1
 62
   179
420
  2234388
100
AcDbHatch
 10
0.0
 20
0.0
 30
0.0
210
0.0
220
0.0
230
1.0
  2
SOLID
 70
     1
 71
     0
 91
        2
 92
        1
 93
        1
 72
     4
 94
        3
 73
     0
 74
     1
 95
       29
 96
       25
 40
0.0
 40
0.0
 40
0.0
 40
0.0
 40
1.0
 40
1.0
 40
1.0
 40
2.0
 40
2.0
 40
2.0
 40
3.0
 40
3.0
 40
3.0
 40
4.0
 40
4.0
 40
4.0
 40
5.0
 40
5.0
 40
5.0
 40
6.0
 40
6.0
 40
6.0
 40
7.0
 40
7.0
 40
7.0
 40
8.0
 40
8.0
 40
8.0
 40
8.0
 10
103.3197916408367
 20
-153.075238677009
 10
103.5292534463399
 20
-153.1906493757648
 10
103.5482014715088
 20
-153.3759955128713
 10
103.5482014715088
 20
-153.5003634598888
 10
103.5482014715088
 20
-153.6719292150542
 10
103.5016926824579
 20
-153.8235134164052
 10
103.3197916408367
 20
-153.9251437332201
 10
103.1251437459201
 20
-154.0360758078452
 10
102.8884656860834
 20
-154.0564018712081
 10
102.7255126696311
 20
-154.0564018712081
 10
102.5815076783477
 20
-154.0564018712081
 10
102.3296711983759
 20
-154.0384873746848
 10
102.130889188877
 20
-153.9251437332201
 10
101.9279730647958
 20
-153.8100775440128
 10
101.9045464154961
 20
-153.6381672792988
 10
101.9045464154961
 20
-153.5003634598888
 10
101.9045464154961
 20
-153.330520252466
 10
101.9489881472558
 20
-153.1768689938239
 10
102.130889188877
 20
-153.075238677009
 10
102.3234700265025
 20
-152.9687852265148
 10
102.5518798571745
 20
-152.943980539021
 10
102.7255126696311
 20
-152.943980539021
 10
102.896733915248
 20
-152.943980539021
 10
103.1272108032113
 20
-152.9667181692236
 10
103.3197916408367
 20
-153.075238677009
 97
        0
 97
        0
 92
        1
 93
        1
 72
     4
 94
        3
 73
     0
 74
     1
 95
       17
 96
       13
 40
0.0
 40
0.0
 40
0.0
 40
0.0
 40
1.0
 40
1.0
 40
1.0
 40
2.0
 40
2.0
 40
2.0
 40
3.0
 40
3.0
 40
3.0
 40
4.0
 40
4.0
 40
4.0
 40
4.0
 10
102.0971272531216
 20
-153.5003634598888
 10
102.0971272531216
 20
-153.7670138504471
 10
102.3806586115576
 20
-153.8166232254347
 10
102.7255126696311
 20
-153.8166232254347
 10
103.0448730211138
 20
-153.8166232254347
 10
103.3535535765922
 20
-153.7783826655485
 10
103.3535535765922
 20
-153.5003634598888
 10
103.3535535765922
 20
-153.2357801266216
 10
103.0724337849958
 20
-153.1837591847944
 10
102.7255126696311
 20
-153.1837591847944
 10
102.4058078085999
 20
-153.1837591847944
 10
102.0971272531216
 20
-153.2244113115203
 10
102.0971272531216
 20
-153.5003634598888
 97
        0
 97
        0
 75
     2
 76
     1
 98
        0
  0
POLYLINE
  5
C1
330
BA
100
AcDbEntity
  8
_U+30EC_U+30A4_U+30E4_U+30FC 1
370
     0
100
AcDb2dPolyline
 66
     1
 10
0.0
 20
0.0
 30
0.0
  0
VERTEX
  5
C2
330
C1
100
AcDbEntity
  8
_U+30EC_U+30A4_U+30E4_U+30FC 1
370
     0
100
AcDbVertex
100
AcDb2dVertex
 10
103.4975585678756
 20
-152.7128146319607
 30
0.0
  0
VERTEX
  5
C3
330
C1
100
AcDbEntity
  8
_U+30EC_U+30A4_U+30E4_U+30FC 1
370
     0
100
AcDbVertex
100
AcDb2dVertex
 10
103.2457220879039
 20
-152.7128146319607
 30
0.0
  0
VERTEX
  5
C4
330
C1
100
AcDbEntity
  8
_U+30EC_U+30A4_U+30E4_U+30FC 1
370
     0
100
AcDbVertex
100
AcDb2dVertex
 10
103.2457220879039
 20
-152.4437526745627
 30
0.0
  0
VERTEX
  5
C5
330
C1
100
AcDbEntity
  8
_U+30EC_U+30A4_U+30E4_U+30FC 1
370
     0
100
AcDbVertex
100
AcDb2dVertex
 10
103.4975585678756
 20
-152.4437526745627
 30
0.0
  0
VERTEX
  5
C6
330
C1
100
AcDbEntity
  8
_U+30EC_U+30A4_U+30E4_U+30FC 1
370
     0
100
AcDbVertex
100
AcDb2dVertex
 10
103.4975585678756
 20
-152.7128146319607
 30
0.0
  0
SEQEND
  5
C7
330
C1
100
AcDbEntity
  8
_U+30EC_U+30A4_U+30E4_U+30FC 1
370
     0
  0
HATCH
  5
C8
330
BA
100
AcDbEntity
  8
_U+30EC_U+30A4_U+30E4_U+30FC 1
 62
   179
420
  2234388
100
AcDbHatch
 10
0.0
 20
0.0
 30
0.0
210
0.0
220
0.0
230
1.0
  2
SOLID
 70
     1
 71
     0
 91
        1
 92
        1
 93
        4
 72
     1
 10
103.4975585678756
 20
-152.7128146319607
 11
103.2457220879039
 21
-152.7128146319607
 72
     1
 10
103.2457220879039
 20
-152.7128146319607
 11
103.2457220879039
 21
-152.4437526745627
 72
     1
 10
103.2457220879039
 20
-152.4437526745627
 11
103.4975585678756
 21
-152.4437526745627
 72
     1
 10
103.4975585678756
 20
-152.4437526745627
 11
103.4975585678756
 21
-152.7128146319607
 97
        0
 75
     2
 76
     1
 98
        0
  0
SPLINE
  5
C9
330
BA
100
AcDbEntity
  8
_U+30EC_U+30A4_U+30E4_U+30FC 1
370
     0
100
AcDbSpline
210
0.0
220
0.0
230
1.0
 70
    11
 71
     3
 72
    53
 73
    49
 74
     0
 42
0.0000000001
 43
0.0000000001
 12
1.0
 22
0.0
 32
0.0
 13
1.0
 23
0.0
 33
0.0
 40
0.0
 40
0.0
 40
0.0
 40
0.0
 40
1.0
 40
1.0
 40
1.0
 40
2.0
 40
2.0
 40
2.0
 40
3.0
 40
3.0
 40
3.0
 40
4.0
 40
4.0
 40
4.0
 40
5.0
 40
5.0
 40
5.0
 40
6.0
 40
6.0
 40
6.0
 40
7.0
 40
7.0
 40
7.0
 40
8.0
 40
8.0
 40
8.0
 40
9.0
 40
9.0
 40
9.0
 40
10.0
 40
10.0
 40
10.0
 40
11.0
 40
11.0
 40
11.0
 40
12.0
 40
12.0
 40
12.0
 40
13.0
 40
13.0
 40
13.0
 40
14.0
 40
14.0
 40
14.0
 40
15.0
 40
15.0
 40
15.0
 40
16.0
 40
16.0
 40
16.0
 40
16.0
 10
103.5482014715088
 20
-151.6768744195461
 30
0.0
 10
103.5482014715088
 20
-151.7605902398376
 30
0.0
 10
103.5313205036311
 20
-151.8687662380745
 30
0.0
 10
103.4679307467025
 20
-151.9776312554084
 30
0.0
 10
103.358032200723
 20
-152.1629773925148
 30
0.0
 10
103.226774062735
 20
-152.1853705131689
 30
0.0
 10
103.1189425740467
 20
-152.2056965765319
 30
0.0
 10
103.1189425740467
 20
-152.2056965765319
 30
0.0
 10
103.1189425740467
 20
-151.9683294975982
 30
0.0
 10
103.1189425740467
 20
-151.9683294975982
 30
0.0
 10
103.3177245835456
 20
-151.909762874349
 30
0.0
 10
103.3473524047187
 20
-151.7740261122301
 30
0.0
 10
103.3473524047187
 20
-151.6744628527064
 30
0.0
 10
103.3473524047187
 20
-151.5252902181951
 30
0.0
 10
103.247789145195
 20
-151.3623372017427
 30
0.0
 10
103.0152451999406
 20
-151.3623372017427
 30
0.0
 10
102.7592746053866
 20
-151.3623372017427
 30
0.0
 10
102.689339167036
 20
-151.5545735298197
 30
0.0
 10
102.689339167036
 20
-151.683420100968
 30
0.0
 10
102.689339167036
 20
-151.717526546272
 30
0.0
 10
102.689339167036
 20
-151.8687662380745
 30
0.0
 10
102.8185302477329
 20
-151.9638508734674
 30
0.0
 10
102.8185302477329
 20
-151.9638508734674
 30
0.0
 10
102.799582222564
 20
-152.1516085774135
 30
0.0
 10
102.799582222564
 20
-152.1516085774135
 30
0.0
 10
102.799582222564
 20
-152.1516085774135
 30
0.0
 10
101.9531222618381
 20
-152.0227620062651
 30
0.0
 10
101.9531222618381
 20
-152.0227620062651
 30
0.0
 10
101.9531222618381
 20
-152.0227620062651
 30
0.0
 10
101.9531222618381
 20
-151.1907714465773
 30
0.0
 10
101.9531222618381
 20
-151.1907714465773
 30
0.0
 10
101.9531222618381
 20
-151.1907714465773
 30
0.0
 10
102.1477701567547
 20
-151.1907714465773
 30
0.0
 10
102.1477701567547
 20
-151.1907714465773
 30
0.0
 10
102.1477701567547
 20
-151.1907714465773
 30
0.0
 10
102.1477701567547
 20
-151.8484401747115
 30
0.0
 10
102.1477701567547
 20
-151.8484401747115
 30
0.0
 10
102.1477701567547
 20
-151.8484401747115
 30
0.0
 10
102.5708278823434
 20
-151.9187201226106
 30
0.0
 10
102.5708278823434
 20
-151.9187201226106
 30
0.0
 10
102.537065946588
 20
-151.8532633083909
 30
0.0
 10
102.4967583294105
 20
-151.7650688639685
 30
0.0
 10
102.4967583294105
 20
-151.6382893501113
 30
0.0
 10
102.4967583294105
 20
-151.3671603354221
 30
0.0
 10
102.6831379951626
 20
-151.1139458172563
 30
0.0
 10
102.9962971747718
 20
-151.1139458172563
 30
0.0
 10
103.3135904689633
 20
-151.1139458172563
 30
0.0
 10
103.5482014715088
 20
-151.3533799534811
 30
0.0
 10
103.5482014715088
 20
-151.6768744195461
 30
0.0
  0
HATCH
  5
CA
330
BA
100
AcDbEntity
  8
_U+30EC_U+30A4_U+30E4_U+30FC 1
 62
   179
420
  2234388
100
AcDbHatch
 10
0.0
 20
0.0
 30
0.0
210
0.0
220
0.0
230
1.0
  2
SOLID
 70
     1
 71
     0
 91
        1
 92
        1
 93
        1
 72
     4
 94
        3
 73
     0
 74
     1
 95
       53
 96
       49
 40
0.0
 40
0.0
 40
0.0
 40
0.0
 40
1.0
 40
1.0
 40
1.0
 40
2.0
 40
2.0
 40
2.0
 40
3.0
 40
3.0
 40
3.0
 40
4.0
 40
4.0
 40
4.0
 40
5.0
 40
5.0
 40
5.0
 40
6.0
 40
6.0
 40
6.0
 40
7.0
 40
7.0
 40
7.0
 40
8.0
 40
8.0
 40
8.0
 40
9.0
 40
9.0
 40
9.0
 40
10.0
 40
10.0
 40
10.0
 40
11.0
 40
11.0
 40
11.0
 40
12.0
 40
12.0
 40
12.0
 40
13.0
 40
13.0
 40
13.0
 40
14.0
 40
14.0
 40
14.0
 40
15.0
 40
15.0
 40
15.0
 40
16.0
 40
16.0
 40
16.0
 40
16.0
 10
103.5482014715088
 20
-151.6768744195461
 10
103.5482014715088
 20
-151.7605902398376
 10
103.5313205036311
 20
-151.8687662380745
 10
103.4679307467025
 20
-151.9776312554084
 10
103.358032200723
 20
-152.1629773925148
 10
103.226774062735
 20
-152.1853705131689
 10
103.1189425740467
 20
-152.2056965765319
 10
103.1189425740467
 20
-152.2056965765319
 10
103.1189425740467
 20
-151.9683294975982
 10
103.1189425740467
 20
-151.9683294975982
 10
103.3177245835456
 20
-151.909762874349
 10
103.3473524047187
 20
-151.7740261122301
 10
103.3473524047187
 20
-151.6744628527064
 10
103.3473524047187
 20
-151.5252902181951
 10
103.247789145195
 20
-151.3623372017427
 10
103.0152451999406
 20
-151.3623372017427
 10
102.7592746053866
 20
-151.3623372017427
 10
102.689339167036
 20
-151.5545735298197
 10
102.689339167036
 20
-151.683420100968
 10
102.689339167036
 20
-151.717526546272
 10
102.689339167036
 20
-151.8687662380745
 10
102.8185302477329
 20
-151.9638508734674
 10
102.8185302477329
 20
-151.9638508734674
 10
102.799582222564
 20
-152.1516085774135
 10
102.799582222564
 20
-152.1516085774135
 10
102.799582222564
 20
-152.1516085774135
 10
101.9531222618381
 20
-152.0227620062651
 10
101.9531222618381
 20
-152.0227620062651
 10
101.9531222618381
 20
-152.0227620062651
 10
101.9531222618381
 20
-151.1907714465773
 10
101.9531222618381
 20
-151.1907714465773
 10
101.9531222618381
 20
-151.1907714465773
 10
102.1477701567547
 20
-151.1907714465773
 10
102.1477701567547
 20
-151.1907714465773
 10
102.1477701567547
 20
-151.1907714465773
 10
102.1477701567547
 20
-151.8484401747115
 10
102.1477701567547
 20
-151.8484401747115
 10
102.1477701567547
 20
-151.8484401747115
 10
102.5708278823434
 20
-151.9187201226106
 10
102.5708278823434
 20
-151.9187201226106
 10
102.537065946588
 20
-151.8532633083909
 10
102.4967583294105
 20
-151.7650688639685
 10
102.4967583294105
 20
-151.6382893501113
 10
102.4967583294105
 20
-151.3671603354221
 10
102.6831379951626
 20
-151.1139458172563
 10
102.9962971747718
 20
-151.1139458172563
 10
103.3135904689633
 20
-151.1139458172563
 10
103.5482014715088
 20
-151.3533799534811
 10
103.5482014715088
 20
-151.6768744195461
 97
        0
 97
        0
 75
     2
 76
     1
 98
        0
  0
ENDBLK
  5
BD
330
BA
100
AcDbEntity
  8
0
100
AcDbBlockEnd
  0
BLOCK
  5
DD
330
DB
100
AcDbEntity
  8
0
100
AcDbBlockBegin
  2
block 6
 70
     0
 10
0.0
 20
0.0
 30
0.0
  3
block 6
  1

  0
SPLINE
  5
DF
330
DB
100
AcDbEntity
  8
_U+30EC_U+30A4_U+30E4_U+30FC 1
370
     0
100
AcDbSpline
210
0.0
220
0.0
230
1.0
 70
    11
 71
     3
 72
    26
 73
    22
 74
     0
 42
0.0000000001
 43
0.0000000001
 12
1.0
 22
0.0
 32
0.0
 13
1.0
 23
0.0
 33
0.0
 40
0.0
 40
0.0
 40
0.0
 40
0.0
 40
1.0
 40
1.0
 40
1.0
 40
2.0
 40
2.0
 40
2.0
 40
3.0
 40
3.0
 40
3.0
 40
4.0
 40
4.0
 40
4.0
 40
5.0
 40
5.0
 40
5.0
 40
6.0
 40
6.0
 40
6.0
 40
7.0
 40
7.0
 40
7.0
 40
7.0
 10
119.49796003957
 20
-139.0344075173248
 30
0.0
 10
119.49796003957
 20
-139.0344075173248
 30
0.0
 10
118.3938069365474
 20
-139.0344075173248
 30
0.0
 10
118.3938069365474
 20
-139.0344075173248
 30
0.0
 10
118.3938069365474
 20
-139.0344075173248
 30
0.0
 10
118.3938069365474
 20
-139.3871852950143
 30
0.0
 10
118.3938069365474
 20
-139.3871852950143
 30
0.0
 10
118.3938069365474
 20
-139.3871852950143
 30
0.0
 10
118.2456678306816
 20
-139.3871852950143
 30
0.0
 10
118.2456678306816
 20
-139.3871852950143
 30
0.0
 10
118.2308539200951
 20
-139.0321682052593
 30
0.0
 10
118.0679009036428
 20
-138.9823865754975
 30
0.0
 10
117.9535237335325
 20
-138.9506916970332
 30
0.0
 10
117.9535237335325
 20
-138.9506916970332
 30
0.0
 10
117.9535237335325
 20
-138.7948011263256
 30
0.0
 10
117.9535237335325
 20
-138.7948011263256
 30
0.0
 10
117.9535237335325
 20
-138.7948011263256
 30
0.0
 10
119.49796003957
 20
-138.7948011263256
 30
0.0
 10
119.49796003957
 20
-138.7948011263256
 30
0.0
 10
119.49796003957
 20
-138.7948011263256
 30
0.0
 10
119.49796003957
 20
-139.0344075173248
 30
0.0
 10
119.49796003957
 20
-139.0344075173248
 30
0.0
  0
HATCH
  5
E0
330
DB
100
AcDbEntity
  8
_U+30EC_U+30A4_U+30E4_U+30FC 1
 62
   179
420
  2234388
100
AcDbHatch
 10
0.0
 20
0.0
 30
0.0
210
0.0
220
0.0
230
1.0
  2
SOLID
 70
     1
 71
     0
 91
        1
 92
        1
 93
        1
 72
     4
 94
        3
 73
     0
 74
     1
 95
       26
 96
       22
 40
0.0
 40
0.0
 40
0.0
 40
0.0
 40
1.0
 40
1.0
 40
1.0
 40
2.0
 40
2.0
 40
2.0
 40
3.0
 40
3.0
 40
3.0
 40
4.0
 40
4.0
 40
4.0
 40
5.0
 40
5.0
 40
5.0
 40
6.0
 40
6.0
 40
6.0
 40
7.0
 40
7.0
 40
7.0
 40
7.0
 10
119.49796003957
 20
-139.0344075173248
 10
119.49796003957
 20
-139.0344075173248
 10
118.3938069365474
 20
-139.0344075173248
 10
118.3938069365474
 20
-139.0344075173248
 10
118.3938069365474
 20
-139.0344075173248
 10
118.3938069365474
 20
-139.3871852950143
 10
118.3938069365474
 20
-139.3871852950143
 10
118.3938069365474
 20
-139.3871852950143
 10
118.2456678306816
 20
-139.3871852950143
 10
118.2456678306816
 20
-139.3871852950143
 10
118.2308539200951
 20
-139.0321682052593
 10
118.0679009036428
 20
-138.9823865754975
 10
117.9535237335325
 20
-138.9506916970332
 10
117.9535237335325
 20
-138.9506916970332
 10
117.9535237335325
 20
-138.7948011263256
 10
117.9535237335325
 20
-138.7948011263256
 10
117.9535237335325
 20
-138.7948011263256
 10
119.49796003957
 20
-138.7948011263256
 10
119.49796003957
 20
-138.7948011263256
 10
119.49796003957
 20
-138.7948011263256
 10
119.49796003957
 20
-139.0344075173248
 10
119.49796003957
 20
-139.0344075173248
 97
        0
 97
        0
 75
     2
 76
     1
 98
        0
  0
ENDBLK
  5
DE
330
DB
100
AcDbEntity
  8
0
100
AcDbBlockEnd
  0
BLOCK
  5
EF
330
ED
100
AcDbEntity
  8
0
100
AcDbBlockBegin
  2
block 7
 70
     0
 10
0.0
 20
0.0
 30
0.0
  3
block 7
  1

  0
SPLINE
  5
F1
330
ED
100
AcDbEntity
  8
_U+30EC_U+30A4_U+30E4_U+30FC 1
370
     0
100
AcDbSpline
210
0.0
220
0.0
230
1.0
 70
    11
 71
     3
 72
    26
 73
    22
 74
     0
 42
0.0000000001
 43
0.0000000001
 12
1.0
 22
0.0
 32
0.0
 13
1.0
 23
0.0
 33
0.0
 40
0.0
 40
0.0
 40
0.0
 40
0.0
 40
1.0
 40
1.0
 40
1.0
 40
2.0
 40
2.0
 40
2.0
 40
3.0
 40
3.0
 40
3.0
 40
4.0
 40
4.0
 40
4.0
 40
5.0
 40
5.0
 40
5.0
 40
6.0
 40
6.0
 40
6.0
 40
7.0
 40
7.0
 40
7.0
 40
7.0
 10
91.49760197365339
 20
-150.7198268937437
 30
0.0
 10
91.49760197365339
 20
-150.7198268937437
 30
0.0
 10
90.3934488706308
 20
-150.7198268937437
 30
0.0
 10
90.3934488706308
 20
-150.7198268937437
 30
0.0
 10
90.3934488706308
 20
-150.7198268937437
 30
0.0
 10
90.3934488706308
 20
-151.0722601618847
 30
0.0
 10
90.3934488706308
 20
-151.0722601618847
 30
0.0
 10
90.3934488706308
 20
-151.0722601618847
 30
0.0
 10
90.24530976476507
 20
-151.0722601618847
 30
0.0
 10
90.24530976476507
 20
-151.0722601618847
 30
0.0
 10
90.23049585417849
 20
-150.717415326904
 30
0.0
 10
90.06754283772618
 20
-150.6678059519164
 30
0.0
 10
89.95333792239015
 20
-150.6361110734521
 30
0.0
 10
89.95333792239015
 20
-150.6361110734521
 30
0.0
 10
89.95333792239015
 20
-150.4800482479703
 30
0.0
 10
89.95333792239015
 20
-150.4800482479703
 30
0.0
 10
89.95333792239015
 20
-150.4800482479703
 30
0.0
 10
91.49760197365339
 20
-150.4800482479703
 30
0.0
 10
91.49760197365339
 20
-150.4800482479703
 30
0.0
 10
91.49760197365339
 20
-150.4800482479703
 30
0.0
 10
91.49760197365339
 20
-150.7198268937437
 30
0.0
 10
91.49760197365339
 20
-150.7198268937437
 30
0.0
  0
HATCH
  5
F2
330
ED
100
AcDbEntity
  8
_U+30EC_U+30A4_U+30E4_U+30FC 1
 62
   179
420
  2234388
100
AcDbHatch
 10
0.0
 20
0.0
 30
0.0
210
0.0
220
0.0
230
1.0
  2
SOLID
 70
     1
 71
     0
 91
        1
 92
        1
 93
        1
 72
     4
 94
        3
 73
     0
 74
     1
 95
       26
 96
       22
 40
0.0
 40
0.0
 40
0.0
 40
0.0
 40
1.0
 40
1.0
 40
1.0
 40
2.0
 40
2.0
 40
2.0
 40
3.0
 40
3.0
 40
3.0
 40
4.0
 40
4.0
 40
4.0
 40
5.0
 40
5.0
 40
5.0
 40
6.0
 40
6.0
 40
6.0
 40
7.0
 40
7.0
 40
7.0
 40
7.0
 10
91.49760197365339
 20
-150.7198268937437
 10
91.49760197365339
 20
-150.7198268937437
 10
90.3934488706308
 20
-150.7198268937437
 10
90.3934488706308
 20
-150.7198268937437
 10
90.3934488706308
 20
-150.7198268937437
 10
90.3934488706308
 20
-151.0722601618847
 10
90.3934488706308
 20
-151.0722601618847
 10
90.3934488706308
 20
-151.0722601618847
 10
90.24530976476507
 20
-151.0722601618847
 10
90.24530976476507
 20
-151.0722601618847
 10
90.23049585417849
 20
-150.717415326904
 10
90.06754283772618
 20
-150.6678059519164
 10
89.95333792239015
 20
-150.6361110734521
 10
89.95333792239015
 20
-150.6361110734521
 10
89.95333792239015
 20
-150.4800482479703
 10
89.95333792239015
 20
-150.4800482479703
 10
89.95333792239015
 20
-150.4800482479703
 10
91.49760197365339
 20
-150.4800482479703
 10
91.49760197365339
 20
-150.4800482479703
 10
91.49760197365339
 20
-150.4800482479703
 10
91.49760197365339
 20
-150.7198268937437
 10
91.49760197365339
 20
-150.7198268937437
 97
        0
 97
        0
 75
     2
 76
     1
 98
        0
  0
POLYLINE
  5
F3
330
ED
100
AcDbEntity
  8
_U+30EC_U+30A4_U+30E4_U+30FC 1
370
     0
100
AcDb2dPolyline
 66
     1
 10
0.0
 20
0.0
 30
0.0
  0
VERTEX
  5
F4
330
F3
100
AcDbEntity
  8
_U+30EC_U+30A4_U+30E4_U+30FC 1
370
     0
100
AcDbVertex
100
AcDb2dVertex
 10
91.15068085828872
 20
-149.0548122457224
 30
0.0
  0
VERTEX
  5
F5
330
F3
100
AcDbEntity
  8
_U+30EC_U+30A4_U+30E4_U+30FC 1
370
     0
100
AcDbVertex
100
AcDb2dVertex
 10
91.49760197365339
 20
-149.0548122457224
 30
0.0
  0
VERTEX
  5
F6
330
F3
100
AcDbEntity
  8
_U+30EC_U+30A4_U+30E4_U+30FC 1
370
     0
100
AcDbVertex
100
AcDb2dVertex
 10
91.49760197365339
 20
-149.2877007005253
 30
0.0
  0
VERTEX
  5
F7
330
F3
100
AcDbEntity
  8
_U+30EC_U+30A4_U+30E4_U+30FC 1
370
     0
100
AcDbVertex
100
AcDb2dVertex
 10
91.15068085828872
 20
-149.2877007005253
 30
0.0
  0
VERTEX
  5
F8
330
F3
100
AcDbEntity
  8
_U+30EC_U+30A4_U+30E4_U+30FC 1
370
     0
100
AcDbVertex
100
AcDb2dVertex
 10
91.15068085828872
 20
-149.9887776317736
 30
0.0
  0
VERTEX
  5
F9
330
F3
100
AcDbEntity
  8
_U+30EC_U+30A4_U+30E4_U+30FC 1
370
     0
100
AcDbVertex
100
AcDb2dVertex
 10
90.92640514219896
 20
-149.9887776317736
 30
0.0
  0
VERTEX
  5
FA
330
F3
100
AcDbEntity
  8
_U+30EC_U+30A4_U+30E4_U+30FC 1
370
     0
100
AcDbVertex
100
AcDb2dVertex
 10
89.95333792239015
 20
-149.2628960130315
 30
0.0
  0
VERTEX
  5
FB
330
F3
100
AcDbEntity
  8
_U+30EC_U+30A4_U+30E4_U+30FC 1
370
     0
100
AcDbVertex
100
AcDb2dVertex
 10
89.95333792239015
 20
-149.0548122457224
 30
0.0
  0
VERTEX
  5
FC
330
F3
100
AcDbEntity
  8
_U+30EC_U+30A4_U+30E4_U+30FC 1
370
     0
100
AcDbVertex
100
AcDb2dVertex
 10
90.95189884878981
 20
-149.0548122457224
 30
0.0
  0
VERTEX
  5
FD
330
F3
100
AcDbEntity
  8
_U+30EC_U+30A4_U+30E4_U+30FC 1
370
     0
100
AcDbVertex
100
AcDb2dVertex
 10
90.95189884878981
 20
-148.8332926060208
 30
0.0
  0
VERTEX
  5
FE
330
F3
100
AcDbEntity
  8
_U+30EC_U+30A4_U+30E4_U+30FC 1
370
     0
100
AcDbVertex
100
AcDb2dVertex
 10
91.15068085828872
 20
-148.8332926060208
 30
0.0
  0
VERTEX
  5
FF
330
F3
100
AcDbEntity
  8
_U+30EC_U+30A4_U+30E4_U+30FC 1
370
     0
100
AcDbVertex
100
AcDb2dVertex
 10
91.15068085828872
 20
-149.0548122457224
 30
0.0
  0
SEQEND
  5
100
330
F3
100
AcDbEntity
  8
_U+30EC_U+30A4_U+30E4_U+30FC 1
370
     0
  0
POLYLINE
  5
101
330
ED
100
AcDbEntity
  8
_U+30EC_U+30A4_U+30E4_U+30FC 1
370
     0
100
AcDb2dPolyline
 66
     1
 10
0.0
 20
0.0
 30
0.0
  0
VERTEX
  5
102
330
101
100
AcDbEntity
  8
_U+30EC_U+30A4_U+30E4_U+30FC 1
370
     0
100
AcDbVertex
100
AcDb2dVertex
 10
90.29595266839824
 20
-149.2877007005253
 30
0.0
  0
VERTEX
  5
103
330
101
100
AcDbEntity
  8
_U+30EC_U+30A4_U+30E4_U+30FC 1
370
     0
100
AcDbVertex
100
AcDb2dVertex
 10
90.95189884878981
 20
-149.7762152403337
 30
0.0
  0
VERTEX
  5
104
330
101
100
AcDbEntity
  8
_U+30EC_U+30A4_U+30E4_U+30FC 1
370
     0
100
AcDbVertex
100
AcDb2dVertex
 10
90.95189884878981
 20
-149.2877007005253
 30
0.0
  0
VERTEX
  5
105
330
101
100
AcDbEntity
  8
_U+30EC_U+30A4_U+30E4_U+30FC 1
370
     0
100
AcDbVertex
100
AcDb2dVertex
 10
90.29595266839824
 20
-149.2877007005253
 30
0.0
  0
SEQEND
  5
106
330
101
100
AcDbEntity
  8
_U+30EC_U+30A4_U+30E4_U+30FC 1
370
     0
  0
HATCH
  5
107
330
ED
100
AcDbEntity
  8
_U+30EC_U+30A4_U+30E4_U+30FC 1
 62
   179
420
  2234388
100
AcDbHatch
 10
0.0
 20
0.0
 30
0.0
210
0.0
220
0.0
230
1.0
  2
SOLID
 70
     1
 71
     0
 91
        2
 92
        1
 93
       11
 72
     1
 10
91.15068085828872
 20
-149.0548122457224
 11
91.49760197365339
 21
-149.0548122457224
 72
     1
 10
91.49760197365339
 20
-149.0548122457224
 11
91.49760197365339
 21
-149.2877007005253
 72
     1
 10
91.49760197365339
 20
-149.2877007005253
 11
91.15068085828872
 21
-149.2877007005253
 72
     1
 10
91.15068085828872
 20
-149.2877007005253
 11
91.15068085828872
 21
-149.9887776317736
 72
     1
 10
91.15068085828872
 20
-149.9887776317736
 11
90.92640514219896
 21
-149.9887776317736
 72
     1
 10
90.92640514219896
 20
-149.9887776317736
 11
89.95333792239015
 21
-149.2628960130315
 72
     1
 10
89.95333792239015
 20
-149.2628960130315
 11
89.95333792239015
 21
-149.0548122457224
 72
     1
 10
89.95333792239015
 20
-149.0548122457224
 11
90.95189884878981
 21
-149.0548122457224
 72
     1
 10
90.95189884878981
 20
-149.0548122457224
 11
90.95189884878981
 21
-148.8332926060208
 72
     1
 10
90.95189884878981
 20
-148.8332926060208
 11
91.15068085828872
 21
-148.8332926060208
 72
     1
 10
91.15068085828872
 20
-148.8332926060208
 11
91.15068085828872
 21
-149.0548122457224
 97
        0
 92
        1
 93
        3
 72
     1
 10
90.29595266839824
 20
-149.2877007005253
 11
90.95189884878981
 21
-149.7762152403337
 72
     1
 10
90.95189884878981
 20
-149.7762152403337
 11
90.95189884878981
 21
-149.2877007005253
 72
     1
 10
90.95189884878981
 20
-149.2877007005253
 11
90.29595266839824
 21
-149.2877007005253
 97
        0
 75
     2
 76
     1
 98
        0
  0
POLYLINE
  5
108
330
ED
100
AcDbEntity
  8
_U+30EC_U+30A4_U+30E4_U+30FC 1
370
     0
100
AcDb2dPolyline
 66
     1
 10
0.0
 20
0.0
 30
0.0
  0
VERTEX
  5
109
330
108
100
AcDbEntity
  8
_U+30EC_U+30A4_U+30E4_U+30FC 1
370
     0
100
AcDbVertex
100
AcDb2dVertex
 10
91.49760197365339
 20
-148.6224527623235
 30
0.0
  0
VERTEX
  5
10A
330
108
100
AcDbEntity
  8
_U+30EC_U+30A4_U+30E4_U+30FC 1
370
     0
100
AcDbVertex
100
AcDb2dVertex
 10
91.24576549368162
 20
-148.6224527623235
 30
0.0
  0
VERTEX
  5
10B
330
108
100
AcDbEntity
  8
_U+30EC_U+30A4_U+30E4_U+30FC 1
370
     0
100
AcDbVertex
100
AcDb2dVertex
 10
91.24576549368162
 20
-148.3533908049255
 30
0.0
  0
VERTEX
  5
10C
330
108
100
AcDbEntity
  8
_U+30EC_U+30A4_U+30E4_U+30FC 1
370
     0
100
AcDbVertex
100
AcDb2dVertex
 10
91.49760197365339
 20
-148.3533908049255
 30
0.0
  0
VERTEX
  5
10D
330
108
100
AcDbEntity
  8
_U+30EC_U+30A4_U+30E4_U+30FC 1
370
     0
100
AcDbVertex
100
AcDb2dVertex
 10
91.49760197365339
 20
-148.6224527623235
 30
0.0
  0
SEQEND
  5
10E
330
108
100
AcDbEntity
  8
_U+30EC_U+30A4_U+30E4_U+30FC 1
370
     0
  0
HATCH
  5
10F
330
ED
100
AcDbEntity
  8
_U+30EC_U+30A4_U+30E4_U+30FC 1
 62
   179
420
  2234388
100
AcDbHatch
 10
0.0
 20
0.0
 30
0.0
210
0.0
220
0.0
230
1.0
  2
SOLID
 70
     1
 71
     0
 91
        1
 92
        1
 93
        4
 72
     1
 10
91.49760197365339
 20
-148.6224527623235
 11
91.24576549368162
 21
-148.6224527623235
 72
     1
 10
91.24576549368162
 20
-148.6224527623235
 11
91.24576549368162
 21
-148.3533908049255
 72
     1
 10
91.24576549368162
 20
-148.3533908049255
 11
91.49760197365339
 21
-148.3533908049255
 72
     1
 10
91.49760197365339
 20
-148.3533908049255
 11
91.49760197365339
 21
-148.6224527623235
 97
        0
 75
     2
 76
     1
 98
        0
  0
SPLINE
  5
110
330
ED
100
AcDbEntity
  8
_U+30EC_U+30A4_U+30E4_U+30FC 1
370
     0
100
AcDbSpline
210
0.0
220
0.0
230
1.0
 70
    11
 71
     3
 72
    26
 73
    22
 74
     0
 42
0.0000000001
 43
0.0000000001
 12
1.0
 22
0.0
 32
0.0
 13
1.0
 23
0.0
 33
0.0
 40
0.0
 40
0.0
 40
0.0
 40
0.0
 40
1.0
 40
1.0
 40
1.0
 40
2.0
 40
2.0
 40
2.0
 40
3.0
 40
3.0
 40
3.0
 40
4.0
 40
4.0
 40
4.0
 40
5.0
 40
5.0
 40
5.0
 40
6.0
 40
6.0
 40
6.0
 40
7.0
 40
7.0
 40
7.0
 40
7.0
 10
91.49760197365339
 20
-147.6609266123903
 30
0.0
 10
91.49760197365339
 20
-147.6609266123903
 30
0.0
 10
91.49760197365339
 20
-147.9141411305562
 30
0.0
 10
91.49760197365339
 20
-147.9141411305562
 30
0.0
 10
91.18857690862647
 20
-147.8869248762227
 30
0.0
 10
90.6704345476449
 20
-147.6812526757533
 30
0.0
 10
90.16469453041022
 20
-147.2471706446118
 30
0.0
 10
90.16469453041022
 20
-147.2471706446118
 30
0.0
 10
90.16469453041022
 20
-148.1425509612283
 30
0.0
 10
90.16469453041022
 20
-148.1425509612283
 30
0.0
 10
90.16469453041022
 20
-148.1425509612283
 30
0.0
 10
89.95333792239015
 20
-148.1425509612283
 30
0.0
 10
89.95333792239015
 20
-148.1425509612283
 30
0.0
 10
89.95333792239015
 20
-148.1425509612283
 30
0.0
 10
89.95333792239015
 20
-146.993956126446
 30
0.0
 10
89.95333792239015
 20
-146.993956126446
 30
0.0
 10
89.95333792239015
 20
-146.993956126446
 30
0.0
 10
90.16469453041022
 20
-146.993956126446
 30
0.0
 10
90.16469453041022
 20
-146.993956126446
 30
0.0
 10
90.45477157026825
 20
-147.339843713165
 30
0.0
 10
91.0469834841827
 20
-147.6247531097952
 30
0.0
 10
91.49760197365339
 20
-147.6609266123903
 30
0.0
  0
HATCH
  5
111
330
ED
100
AcDbEntity
  8
_U+30EC_U+30A4_U+30E4_U+30FC 1
 62
   179
420
  2234388
100
AcDbHatch
 10
0.0
 20
0.0
 30
0.0
210
0.0
220
0.0
230
1.0
  2
SOLID
 70
     1
 71
     0
 91
        1
 92
        1
 93
        1
 72
     4
 94
        3
 73
     0
 74
     1
 95
       26
 96
       22
 40
0.0
 40
0.0
 40
0.0
 40
0.0
 40
1.0
 40
1.0
 40
1.0
 40
2.0
 40
2.0
 40
2.0
 40
3.0
 40
3.0
 40
3.0
 40
4.0
 40
4.0
 40
4.0
 40
5.0
 40
5.0
 40
5.0
 40
6.0
 40
6.0
 40
6.0
 40
7.0
 40
7.0
 40
7.0
 40
7.0
 10
91.49760197365339
 20
-147.6609266123903
 10
91.49760197365339
 20
-147.6609266123903
 10
91.49760197365339
 20
-147.9141411305562
 10
91.49760197365339
 20
-147.9141411305562
 10
91.18857690862647
 20
-147.8869248762227
 10
90.6704345476449
 20
-147.6812526757533
 10
90.16469453041022
 20
-147.2471706446118
 10
90.16469453041022
 20
-147.2471706446118
 10
90.16469453041022
 20
-148.1425509612283
 10
90.16469453041022
 20
-148.1425509612283
 10
90.16469453041022
 20
-148.1425509612283
 10
89.95333792239015
 20
-148.1425509612283
 10
89.95333792239015
 20
-148.1425509612283
 10
89.95333792239015
 20
-148.1425509612283
 10
89.95333792239015
 20
-146.993956126446
 10
89.95333792239015
 20
-146.993956126446
 10
89.95333792239015
 20
-146.993956126446
 10
90.16469453041022
 20
-146.993956126446
 10
90.16469453041022
 20
-146.993956126446
 10
90.45477157026825
 20
-147.339843713165
 10
91.0469834841827
 20
-147.6247531097952
 10
91.49760197365339
 20
-147.6609266123903
 97
        0
 97
        0
 75
     2
 76
     1
 98
        0
  0
ENDBLK
  5
F0
330
ED
100
AcDbEntity
  8
0
100
AcDbBlockEnd
  0
BLOCK
  5
120
330
11E
100
AcDbEntity
  8
0
100
AcDbBlockBegin
  2
block 8
 70
     0
 10
0.0
 20
0.0
 30
0.0
  3
block 8
  1

  0
SPLINE
  5
122
330
11E
100
AcDbEntity
  8
_U+30EC_U+30A4_U+30E4_U+30FC 1
370
     0
100
AcDbSpline
210
0.0
220
0.0
230
1.0
 70
    11
 71
     3
 72
    26
 73
    22
 74
     0
 42
0.0000000001
 43
0.0000000001
 12
1.0
 22
0.0
 32
0.0
 13
1.0
 23
0.0
 33
0.0
 40
0.0
 40
0.0
 40
0.0
 40
0.0
 40
1.0
 40
1.0
 40
1.0
 40
2.0
 40
2.0
 40
2.0
 40
3.0
 40
3.0
 40
3.0
 40
4.0
 40
4.0
 40
4.0
 40
5.0
 40
5.0
 40
5.0
 40
6.0
 40
6.0
 40
6.0
 40
7.0
 40
7.0
 40
7.0
 40
7.0
 10
119.49796003957
 20
-150.7198268937437
 30
0.0
 10
119.49796003957
 20
-150.7198268937437
 30
0.0
 10
118.3938069365474
 20
-150.7198268937437
 30
0.0
 10
118.3938069365474
 20
-150.7198268937437
 30
0.0
 10
118.3938069365474
 20
-150.7198268937437
 30
0.0
 10
118.3938069365474
 20
-151.0722601618847
 30
0.0
 10
118.3938069365474
 20
-151.0722601618847
 30
0.0
 10
118.3938069365474
 20
-151.0722601618847
 30
0.0
 10
118.2456678306816
 20
-151.0722601618847
 30
0.0
 10
118.2456678306816
 20
-151.0722601618847
 30
0.0
 10
118.2308539200951
 20
-150.717415326904
 30
0.0
 10
118.0679009036428
 20
-150.6678059519164
 30
0.0
 10
117.9535237335325
 20
-150.6361110734521
 30
0.0
 10
117.9535237335325
 20
-150.6361110734521
 30
0.0
 10
117.9535237335325
 20
-150.4800482479703
 30
0.0
 10
117.9535237335325
 20
-150.4800482479703
 30
0.0
 10
117.9535237335325
 20
-150.4800482479703
 30
0.0
 10
119.49796003957
 20
-150.4800482479703
 30
0.0
 10
119.49796003957
 20
-150.4800482479703
 30
0.0
 10
119.49796003957
 20
-150.4800482479703
 30
0.0
 10
119.49796003957
 20
-150.7198268937437
 30
0.0
 10
119.49796003957
 20
-150.7198268937437
 30
0.0
  0
HATCH
  5
123
330
11E
100
AcDbEntity
  8
_U+30EC_U+30A4_U+30E4_U+30FC 1
 62
   179
420
  2234388
100
AcDbHatch
 10
0.0
 20
0.0
 30
0.0
210
0.0
220
0.0
230
1.0
  2
SOLID
 70
     1
 71
     0
 91
        1
 92
        1
 93
        1
 72
     4
 94
        3
 73
     0
 74
     1
 95
       26
 96
       22
 40
0.0
 40
0.0
 40
0.0
 40
0.0
 40
1.0
 40
1.0
 40
1.0
 40
2.0
 40
2.0
 40
2.0
 40
3.0
 40
3.0
 40
3.0
 40
4.0
 40
4.0
 40
4.0
 40
5.0
 40
5.0
 40
5.0
 40
6.0
 40
6.0
 40
6.0
 40
7.0
 40
7.0
 40
7.0
 40
7.0
 10
119.49796003957
 20
-150.7198268937437
 10
119.49796003957
 20
-150.7198268937437
 10
118.3938069365474
 20
-150.7198268937437
 10
118.3938069365474
 20
-150.7198268937437
 10
118.3938069365474
 20
-150.7198268937437
 10
118.3938069365474
 20
-151.0722601618847
 10
118.3938069365474
 20
-151.0722601618847
 10
118.3938069365474
 20
-151.0722601618847
 10
118.2456678306816
 20
-151.0722601618847
 10
118.2456678306816
 20
-151.0722601618847
 10
118.2308539200951
 20
-150.717415326904
 10
118.0679009036428
 20
-150.6678059519164
 10
117.9535237335325
 20
-150.6361110734521
 10
117.9535237335325
 20
-150.6361110734521
 10
117.9535237335325
 20
-150.4800482479703
 10
117.9535237335325
 20
-150.4800482479703
 10
117.9535237335325
 20
-150.4800482479703
 10
119.49796003957
 20
-150.4800482479703
 10
119.49796003957
 20
-150.4800482479703
 10
119.49796003957
 20
-150.4800482479703
 10
119.49796003957
 20
-150.7198268937437
 10
119.49796003957
 20
-150.7198268937437
 97
        0
 97
        0
 75
     2
 76
     1
 98
        0
  0
SPLINE
  5
124
330
11E
100
AcDbEntity
  8
_U+30EC_U+30A4_U+30E4_U+30FC 1
370
     0
100
AcDbSpline
210
0.0
220
0.0
230
1.0
 70
    11
 71
     3
 72
    44
 73
    40
 74
     0
 42
0.0000000001
 43
0.0000000001
 12
1.0
 22
0.0
 32
0.0
 13
1.0
 23
0.0
 33
0.0
 40
0.0
 40
0.0
 40
0.0
 40
0.0
 40
1.0
 40
1.0
 40
1.0
 40
2.0
 40
2.0
 40
2.0
 40
3.0
 40
3.0
 40
3.0
 40
4.0
 40
4.0
 40
4.0
 40
5.0
 40
5.0
 40
5.0
 40
6.0
 40
6.0
 40
6.0
 40
7.0
 40
7.0
 40
7.0
 40
8.0
 40
8.0
 40
8.0
 40
9.0
 40
9.0
 40
9.0
 40
10.0
 40
10.0
 40
10.0
 40
11.0
 40
11.0
 40
11.0
 40
12.0
 40
12.0
 40
12.0
 40
13.0
 40
13.0
 40
13.0
 40
13.0
 10
118.9160834121113
 20
-149.3104383307279
 30
0.0
 10
119.0749023139813
 20
-149.5433267855308
 30
0.0
 10
119.1489718669142
 20
-149.6428900450546
 30
0.0
 10
119.2926323486491
 20
-149.6949109868818
 30
0.0
 10
119.2926323486491
 20
-149.6949109868818
 30
0.0
 10
119.2926323486491
 20
-148.8625759176455
 30
0.0
 10
119.2926323486491
 20
-148.8625759176455
 30
0.0
 10
119.2926323486491
 20
-148.8625759176455
 30
0.0
 10
119.49796003957
 20
-148.8625759176455
 30
0.0
 10
119.49796003957
 20
-148.8625759176455
 30
0.0
 10
119.49796003957
 20
-148.8625759176455
 30
0.0
 10
119.49796003957
 20
-149.9615613774402
 30
0.0
 10
119.49796003957
 20
-149.9615613774402
 30
0.0
 10
119.140359128201
 20
-149.9274549321362
 30
0.0
 10
119.0621554606859
 20
-149.8575194937856
 30
0.0
 10
118.7638101916632
 20
-149.4461750928468
 30
0.0
 10
118.5650281821643
 20
-149.172634511318
 30
0.0
 10
118.4971598011049
 20
-149.1023545634189
 30
0.0
 10
118.3597004912434
 20
-149.1023545634189
 30
0.0
 10
118.2411892065508
 20
-149.1023545634189
 30
0.0
 10
118.1102755781113
 20
-149.1791801927399
 30
0.0
 10
118.1102755781113
 20
-149.3896755268887
 30
0.0
 10
118.1102755781113
 20
-149.6676947325484
 30
0.0
 10
118.3407524660745
 20
-149.67665198081
 30
0.0
 10
118.457196693476
 20
-149.6811306049408
 30
0.0
 10
118.457196693476
 20
-149.6811306049408
 30
0.0
 10
118.457196693476
 20
-149.9209092507142
 30
0.0
 10
118.457196693476
 20
-149.9209092507142
 30
0.0
 10
118.3300726700703
 20
-149.9119520024526
 30
0.0
 10
118.2181070667996
 20
-149.9005831873513
 30
0.0
 10
118.099595782107
 20
-149.81445580022
 30
0.0
 10
117.9387098229459
 20
-149.696978044173
 30
0.0
 10
117.9049478871904
 20
-149.4981960346741
 30
0.0
 10
117.9049478871904
 20
-149.3738280876566
 30
0.0
 10
117.9049478871904
 20
-149.0775498759251
 30
0.0
 10
118.0889159861028
 20
-148.8560302362235
 30
0.0
 10
118.3617675485346
 20
-148.8560302362235
 30
0.0
 10
118.5905218887551
 20
-148.8560302362235
 30
0.0
 10
118.6897406387303
 20
-148.980398183241
 30
0.0
 10
118.9160834121113
 20
-149.3104383307279
 30
0.0
  0
HATCH
  5
125
330
11E
100
AcDbEntity
  8
_U+30EC_U+30A4_U+30E4_U+30FC 1
 62
   179
420
  2234388
100
AcDbHatch
 10
0.0
 20
0.0
 30
0.0
210
0.0
220
0.0
230
1.0
  2
SOLID
 70
     1
 71
     0
 91
        1
 92
        1
 93
        1
 72
     4
 94
        3
 73
     0
 74
     1
 95
       44
 96
       40
 40
0.0
 40
0.0
 40
0.0
 40
0.0
 40
1.0
 40
1.0
 40
1.0
 40
2.0
 40
2.0
 40
2.0
 40
3.0
 40
3.0
 40
3.0
 40
4.0
 40
4.0
 40
4.0
 40
5.0
 40
5.0
 40
5.0
 40
6.0
 40
6.0
 40
6.0
 40
7.0
 40
7.0
 40
7.0
 40
8.0
 40
8.0
 40
8.0
 40
9.0
 40
9.0
 40
9.0
 40
10.0
 40
10.0
 40
10.0
 40
11.0
 40
11.0
 40
11.0
 40
12.0
 40
12.0
 40
12.0
 40
13.0
 40
13.0
 40
13.0
 40
13.0
 10
118.9160834121113
 20
-149.3104383307279
 10
119.0749023139813
 20
-149.5433267855308
 10
119.1489718669142
 20
-149.6428900450546
 10
119.2926323486491
 20
-149.6949109868818
 10
119.2926323486491
 20
-149.6949109868818
 10
119.2926323486491
 20
-148.8625759176455
 10
119.2926323486491
 20
-148.8625759176455
 10
119.2926323486491
 20
-148.8625759176455
 10
119.49796003957
 20
-148.8625759176455
 10
119.49796003957
 20
-148.8625759176455
 10
119.49796003957
 20
-148.8625759176455
 10
119.49796003957
 20
-149.9615613774402
 10
119.49796003957
 20
-149.9615613774402
 10
119.140359128201
 20
-149.9274549321362
 10
119.0621554606859
 20
-149.8575194937856
 10
118.7638101916632
 20
-149.4461750928468
 10
118.5650281821643
 20
-149.172634511318
 10
118.4971598011049
 20
-149.1023545634189
 10
118.3597004912434
 20
-149.1023545634189
 10
118.2411892065508
 20
-149.1023545634189
 10
118.1102755781113
 20
-149.1791801927399
 10
118.1102755781113
 20
-149.3896755268887
 10
118.1102755781113
 20
-149.6676947325484
 10
118.3407524660745
 20
-149.67665198081
 10
118.457196693476
 20
-149.6811306049408
 10
118.457196693476
 20
-149.6811306049408
 10
118.457196693476
 20
-149.9209092507142
 10
118.457196693476
 20
-149.9209092507142
 10
118.3300726700703
 20
-149.9119520024526
 10
118.2181070667996
 20
-149.9005831873513
 10
118.099595782107
 20
-149.81445580022
 10
117.9387098229459
 20
-149.696978044173
 10
117.9049478871904
 20
-149.4981960346741
 10
117.9049478871904
 20
-149.3738280876566
 10
117.9049478871904
 20
-149.0775498759251
 10
118.0889159861028
 20
-148.8560302362235
 10
118.3617675485346
 20
-148.8560302362235
 10
118.5905218887551
 20
-148.8560302362235
 10
118.6897406387303
 20
-148.980398183241
 10
118.9160834121113
 20
-149.3104383307279
 97
        0
 97
        0
 75
     2
 76
     1
 98
        0
  0
POLYLINE
  5
126
330
11E
100
AcDbEntity
  8
_U+30EC_U+30A4_U+30E4_U+30FC 1
370
     0
100
AcDb2dPolyline
 66
     1
 10
0.0
 20
0.0
 30
0.0
  0
VERTEX
  5
127
330
126
100
AcDbEntity
  8
_U+30EC_U+30A4_U+30E4_U+30FC 1
370
     0
100
AcDbVertex
100
AcDb2dVertex
 10
119.49796003957
 20
-148.6224527623235
 30
0.0
  0
VERTEX
  5
128
330
126
100
AcDbEntity
  8
_U+30EC_U+30A4_U+30E4_U+30FC 1
370
     0
100
AcDbVertex
100
AcDb2dVertex
 10
119.2461235595982
 20
-148.6224527623235
 30
0.0
  0
VERTEX
  5
129
330
126
100
AcDbEntity
  8
_U+30EC_U+30A4_U+30E4_U+30FC 1
370
     0
100
AcDbVertex
100
AcDb2dVertex
 10
119.2461235595982
 20
-148.3533908049255
 30
0.0
  0
VERTEX
  5
12A
330
126
100
AcDbEntity
  8
_U+30EC_U+30A4_U+30E4_U+30FC 1
370
     0
100
AcDbVertex
100
AcDb2dVertex
 10
119.49796003957
 20
-148.3533908049255
 30
0.0
  0
VERTEX
  5
12B
330
126
100
AcDbEntity
  8
_U+30EC_U+30A4_U+30E4_U+30FC 1
370
     0
100
AcDbVertex
100
AcDb2dVertex
 10
119.49796003957
 20
-148.6224527623235
 30
0.0
  0
SEQEND
  5
12C
330
126
100
AcDbEntity
  8
_U+30EC_U+30A4_U+30E4_U+30FC 1
370
     0
  0
HATCH
  5
12D
330
11E
100
AcDbEntity
  8
_U+30EC_U+30A4_U+30E4_U+30FC 1
 62
   179
420
  2234388
100
AcDbHatch
 10
0.0
 20
0.0
 30
0.0
210
0.0
220
0.0
230
1.0
  2
SOLID
 70
     1
 71
     0
 91
        1
 92
        1
 93
        4
 72
     1
 10
119.49796003957
 20
-148.6224527623235
 11
119.2461235595982
 21
-148.6224527623235
 72
     1
 10
119.2461235595982
 20
-148.6224527623235
 11
119.2461235595982
 21
-148.3533908049255
 72
     1
 10
119.2461235595982
 20
-148.3533908049255
 11
119.49796003957
 21
-148.3533908049255
 72
     1
 10
119.49796003957
 20
-148.3533908049255
 11
119.49796003957
 21
-148.6224527623235
 97
        0
 75
     2
 76
     1
 98
        0
  0
SPLINE
  5
12E
330
11E
100
AcDbEntity
  8
_U+30EC_U+30A4_U+30E4_U+30FC 1
370
     0
100
AcDbSpline
210
0.0
220
0.0
230
1.0
 70
    11
 71
     3
 72
    26
 73
    22
 74
     0
 42
0.0000000001
 43
0.0000000001
 12
1.0
 22
0.0
 32
0.0
 13
1.0
 23
0.0
 33
0.0
 40
0.0
 40
0.0
 40
0.0
 40
0.0
 40
1.0
 40
1.0
 40
1.0
 40
2.0
 40
2.0
 40
2.0
 40
3.0
 40
3.0
 40
3.0
 40
4.0
 40
4.0
 40
4.0
 40
5.0
 40
5.0
 40
5.0
 40
6.0
 40
6.0
 40
6.0
 40
7.0
 40
7.0
 40
7.0
 40
7.0
 10
119.49796003957
 20
-147.6609266123903
 30
0.0
 10
119.49796003957
 20
-147.6609266123903
 30
0.0
 10
119.49796003957
 20
-147.9141411305562
 30
0.0
 10
119.49796003957
 20
-147.9141411305562
 30
0.0
 10
119.188934974543
 20
-147.8869248762227
 30
0.0
 10
118.6707926135615
 20
-147.6812526757533
 30
0.0
 10
118.1650525963268
 20
-147.2471706446118
 30
0.0
 10
118.1650525963268
 20
-147.2471706446118
 30
0.0
 10
118.1650525963268
 20
-148.1425509612283
 30
0.0
 10
118.1650525963268
 20
-148.1425509612283
 30
0.0
 10
118.1650525963268
 20
-148.1425509612283
 30
0.0
 10
117.9535237335325
 20
-148.1425509612283
 30
0.0
 10
117.9535237335325
 20
-148.1425509612283
 30
0.0
 10
117.9535237335325
 20
-148.1425509612283
 30
0.0
 10
117.9535237335325
 20
-146.993956126446
 30
0.0
 10
117.9535237335325
 20
-146.993956126446
 30
0.0
 10
117.9535237335325
 20
-146.993956126446
 30
0.0
 10
118.1650525963268
 20
-146.993956126446
 30
0.0
 10
118.1650525963268
 20
-146.993956126446
 30
0.0
 10
118.4551296361848
 20
-147.339843713165
 30
0.0
 10
119.0473415500993
 20
-147.6247531097952
 30
0.0
 10
119.49796003957
 20
-147.6609266123903
 30
0.0
  0
HATCH
  5
12F
330
11E
100
AcDbEntity
  8
_U+30EC_U+30A4_U+30E4_U+30FC 1
 62
   179
420
  2234388
100
AcDbHatch
 10
0.0
 20
0.0
 30
0.0
210
0.0
220
0.0
230
1.0
  2
SOLID
 70
     1
 71
     0
 91
        1
 92
        1
 93
        1
 72
     4
 94
        3
 73
     0
 74
     1
 95
       26
 96
       22
 40
0.0
 40
0.0
 40
0.0
 40
0.0
 40
1.0
 40
1.0
 40
1.0
 40
2.0
 40
2.0
 40
2.0
 40
3.0
 40
3.0
 40
3.0
 40
4.0
 40
4.0
 40
4.0
 40
5.0
 40
5.0
 40
5.0
 40
6.0
 40
6.0
 40
6.0
 40
7.0
 40
7.0
 40
7.0
 40
7.0
 10
119.49796003957
 20
-147.6609266123903
 10
119.49796003957
 20
-147.6609266123903
 10
119.49796003957
 20
-147.9141411305562
 10
119.49796003957
 20
-147.9141411305562
 10
119.188934974543
 20
-147.8869248762227
 10
118.6707926135615
 20
-147.6812526757533
 10
118.1650525963268
 20
-147.2471706446118
 10
118.1650525963268
 20
-147.2471706446118
 10
118.1650525963268
 20
-148.1425509612283
 10
118.1650525963268
 20
-148.1425509612283
 10
118.1650525963268
 20
-148.1425509612283
 10
117.9535237335325
 20
-148.1425509612283
 10
117.9535237335325
 20
-148.1425509612283
 10
117.9535237335325
 20
-148.1425509612283
 10
117.9535237335325
 20
-146.993956126446
 10
117.9535237335325
 20
-146.993956126446
 10
117.9535237335325
 20
-146.993956126446
 10
118.1650525963268
 20
-146.993956126446
 10
118.1650525963268
 20
-146.993956126446
 10
118.4551296361848
 20
-147.339843713165
 10
119.0473415500993
 20
-147.6247531097952
 10
119.49796003957
 20
-147.6609266123903
 97
        0
 97
        0
 75
     2
 76
     1
 98
        0
  0
ENDBLK
  5
121
330
11E
100
AcDbEntity
  8
0
100
AcDbBlockEnd
  0
ENDSEC
  0
SECTION
  2
ENTITIES
  0
INSERT
  5
42
330
1F
100
AcDbEntity
  8
_U+30EC_U+30A4_U+30E4_U+30FC 1
100
AcDbBlockReference
  2
block 2
 10
0.0
 20
0.0
 30
0.0
  0
ENDSEC
  0
SECTION
  2
OBJECTS
  0
DICTIONARY
  5
C
330
0
100
AcDbDictionary
281
     1
  3
ACAD_GROUP
350
D
  3
ACAD_LAYOUT
350
1A
  3
ACAD_MATERIAL
350
3B
  3
ACAD_MLEADERSTYLE
350
131
  3
ACAD_MLINESTYLE
350
17
  3
ACAD_PLOTSETTINGS
350
19
  3
ACAD_PLOTSTYLENAME
350
E
  3
ACAD_TABLESTYLE
350
130
  3
ACAD_VISUALSTYLE
350
2A
  0
SUN
  5
3F
330
29
100
AcDbSun
 90
        1
290
     0
 63
     7
421
 16777215
 40
1.0
291
     1
 91
  2455826
 92
 54000000
292
     0
 70
     2
 71
   256
280
     1
  0
DICTIONARY
  5
D
102
{ACAD_REACTORS
330
C
102
}
330
C
100
AcDbDictionary
281
     1
  0
DICTIONARY
  5
1A
102
{ACAD_REACTORS
330
C
102
}
330
C
100
AcDbDictionary
281
     1
  3
Layout1
350
1E
  3
Layout2
350
26
  3
Model
350
22
  0
DICTIONARY
  5
3B
102
{ACAD_REACTORS
330
C
102
}
330
C
100
AcDbDictionary
281
     1
  3
ByBlock
350
3D
  3
ByLayer
350
3C
  3
Global
350
3E
  0
DICTIONARY
  5
131
102
{ACAD_REACTORS
330
C
102
}
330
C
100
AcDbDictionary
281
     1
  0
DICTIONARY
  5
17
102
{ACAD_REACTORS
330
C
102
}
330
C
100
AcDbDictionary
281
     1
  3
Standard
350
18
  0
DICTIONARY
  5
19
102
{ACAD_REACTORS
330
C
102
}
330
C
100
AcDbDictionary
281
     1
  0
ACDBDICTIONARYWDFLT
  5
E
102
{ACAD_REACTORS
330
C
102
}
330
C
100
AcDbDictionary
281
     1
  3
Normal
350
F
100
AcDbDictionaryWithDefault
340
F
  0
DICTIONARY
  5
130
102
{ACAD_REACTORS
330
C
102
}
330
C
100
AcDbDictionary
281
     1
  0
DICTIONARY
  5
2A
102
{ACAD_REACTORS
330
C
102
}
330
C
100
AcDbDictionary
281
     1
  3
2dWireframe
350
2F
  3
3D Hidden
350
31
  3
3dWireframe
350
30
  3
Basic
350
32
  3
Brighten
350
36
  3
ColorChange
350
3A
  3
Conceptual
350
34
  3
Dim
350
35
  3
Facepattern
350
39
  3
Flat
350
2B
  3
FlatWithEdges
350
2C
  3
Gouraud
350
2D
  3
GouraudWithEdges
350
2E
  3
Linepattern
350
38
  3
Realistic
350
33
  3
Thicken
350
37
  0
LAYOUT
  5
1E
102
{ACAD_REACTORS
330
1A
102
}
330
1A
100
AcDbPlotSettings
  1

  2
none_device
  4

  6

 40
0.0
 41
0.0
 42
0.0
 43
0.0
 44
0.0
 45
0.0
 46
0.0
 47
0.0
 48
0.0
 49
0.0
140
0.0
141
0.0
142
1.0
143
1.0
 70
   688
 72
     0
 73
     0
 74
     5
  7

 75
    16
 76
     0
 77
     2
 78
   300
147
1.0
148
0.0
149
0.0
100
AcDbLayout
  1
Layout1
 70
     1
 71
     1
 10
0.0
 20
0.0
 11
12.0
 21
9.0
 12
0.0
 22
0.0
 32
0.0
 14
1.000000000000000E+20
 24
1.000000000000000E+20
 34
1.000000000000000E+20
 15
-1.000000000000000E+20
 25
-1.000000000000000E+20
 35
-1.000000000000000E+20
146
0.0
 13
0.0
 23
0.0
 33
0.0
 16
1.0
 26
0.0
 36
0.0
 17
0.0
 27
1.0
 37
0.0
 76
     0
330
1B
  0
LAYOUT
  5
26
102
{ACAD_REACTORS
330
1A
102
}
330
1A
100
AcDbPlotSettings
  1

  2
none_device
  4

  6

 40
0.0
 41
0.0
 42
0.0
 43
0.0
 44
0.0
 45
0.0
 46
0.0
 47
0.0
 48
0.0
 49
0.0
140
0.0
141
0.0
142
1.0
143
1.0
 70
   688
 72
     0
 73
     0
 74
     5
  7

 75
    16
 76
     0
 77
     2
 78
   300
147
1.0
148
0.0
149
0.0
100
AcDbLayout
  1
Layout2
 70
     1
 71
     2
 10
0.0
 20
0.0
 11
0.0
 21
0.0
 12
0.0
 22
0.0
 32
0.0
 14
0.0
 24
0.0
 34
0.0
 15
0.0
 25
0.0
 35
0.0
146
0.0
 13
0.0
 23
0.0
 33
0.0
 16
1.0
 26
0.0
 36
0.0
 17
0.0
 27
1.0
 37
0.0
 76
     0
330
23
  0
LAYOUT
  5
22
102
{ACAD_REACTORS
330
1A
102
}
330
1A
100
AcDbPlotSettings
  1

  2
none_device
  4

  6

 40
0.0
 41
0.0
 42
0.0
 43
0.0
 44
0.0
 45
0.0
 46
0.0
 47
0.0
 48
0.0
 49
0.0
140
0.0
141
0.0
142
1.0
143
1.0
 70
  1712
 72
     0
 73
     0
 74
     0
  7

 75
     0
 76
     0
 77
     2
 78
   300
147
1.0
148
0.0
149
0.0
100
AcDbLayout
  1
Model
 70
     1
 71
     0
 10
0.0
 20
0.0
 11
12.0
 21
9.0
 12
0.0
 22
0.0
 32
0.0
 14
1.000000000000000E+20
 24
1.000000000000000E+20
 34
1.000000000000000E+20
 15
-1.000000000000000E+20
 25
-1.000000000000000E+20
 35
-1.000000000000000E+20
146
0.0
 13
0.0
 23
0.0
 33
0.0
 16
1.0
 26
0.0
 36
0.0
 17
0.0
 27
1.0
 37
0.0
 76
     0
330
1F
331
29
  0
MATERIAL
  5
3D
102
{ACAD_REACTORS
330
3B
102
}
330
3B
100
AcDbMaterial
  1
ByBlock
 72
     1
 94
      127
  0
MATERIAL
  5
3C
102
{ACAD_REACTORS
330
3B
102
}
330
3B
100
AcDbMaterial
  1
ByLayer
 72
     1
 94
      127
  0
MATERIAL
  5
3E
102
{ACAD_REACTORS
330
3B
102
}
330
3B
100
AcDbMaterial
  1
Global
 72
     1
 94
      127
  0
MLINESTYLE
  5
18
102
{ACAD_REACTORS
330
17
102
}
330
17
100
AcDbMlineStyle
  2
Standard
 70
     0
  3

 62
   256
 51
90.0
 52
90.0
 71
     2
 49
0.5
 62
   256
  6
BYLAYER
 49
-0.5
 62
   256
  6
BYLAYER
  0
ACDBPLACEHOLDER
  5
F
102
{ACAD_REACTORS
330
E
102
}
330
E
  0
VISUALSTYLE
  5
2F
102
{ACAD_REACTORS
330
2A
102
}
330
2A
100
AcDbVisualStyle
  2
2dWireframe
 70
     4
177
     2
291
     0
 71
     0
176
     1
 72
     2
176
     1
 73
     0
176
     1
 90
        0
176
     1
 40
-0.6
176
     1
 41
-30.0
176
     1
 62
     5
 63
     7
421
 16777215
176
     1
 74
     1
176
     1
 91
        4
176
     1
 64
     7
176
     1
 65
   257
176
     1
 75
     1
176
     1
175
     1
176
     1
 42
1.0
176
     1
 92
        0
176
     1
 66
   257
176
     1
 43
1.0
176
     1
 76
     1
176
     1
 77
     6
176
     1
 78
     2
176
     1
 67
     7
176
     1
 79
     5
176
     1
170
     0
176
     1
171
     0
176
     1
290
     0
176
     1
 93
        1
176
     1
 44
0.0
176
     1
173
     0
176
     1
  0
VISUALSTYLE
  5
31
102
{ACAD_REACTORS
330
2A
102
}
330
2A
100
AcDbVisualStyle
  2
3D Hidden
 70
     6
177
     2
291
     0
 71
     1
176
     1
 72
     2
176
     1
 73
     2
176
     1
 90
        0
176
     1
 40
-0.6
176
     1
 41
-30.0
176
     1
 62
     5
 63
     7
421
 16777215
176
     1
 74
     2
176
     1
 91
        2
176
     1
 64
     7
176
     1
 65
   257
176
     1
 75
     2
176
     1
175
     1
176
     1
 42
40.0
176
     1
 92
        0
176
     1
 66
   257
176
     1
 43
1.0
176
     1
 76
     1
176
     1
 77
     6
176
     1
 78
     2
176
     1
 67
     7
176
     1
 79
     3
176
     1
170
     0
176
     1
171
     0
176
     1
290
     0
176
     1
 93
        1
176
     1
 44
0.0
176
     1
173
     0
176
     1
  0
VISUALSTYLE
  5
30
102
{ACAD_REACTORS
330
2A
102
}
330
2A
100
AcDbVisualStyle
  2
3dWireframe
 70
     5
177
     2
291
     0
 71
     0
176
     1
 72
     2
176
     1
 73
     0
176
     1
 90
        0
176
     1
 40
-0.6
176
     1
 41
-30.0
176
     1
 62
     5
 63
     7
421
 16777215
176
     1
 74
     1
176
     1
 91
        4
176
     1
 64
     7
176
     1
 65
   257
176
     1
 75
     1
176
     1
175
     1
176
     1
 42
1.0
176
     1
 92
        0
176
     1
 66
   257
176
     1
 43
1.0
176
     1
 76
     1
176
     1
 77
     6
176
     1
 78
     2
176
     1
 67
     7
176
     1
 79
     5
176
     1
170
     0
176
     1
171
     0
176
     1
290
     0
176
     1
 93
        1
176
     1
 44
0.0
176
     1
173
     0
176
     1
  0
VISUALSTYLE
  5
32
102
{ACAD_REACTORS
330
2A
102
}
330
2A
100
AcDbVisualStyle
  2
Basic
 70
     7
177
     2
291
     1
 71
     1
176
     1
 72
     0
176
     1
 73
     1
176
     1
 90
        0
176
     1
 40
-0.6
176
     1
 41
-30.0
176
     1
 62
     5
 63
     7
421
 16777215
176
     1
 74
     0
176
     1
 91
        4
176
     1
 64
     7
176
     1
 65
   257
176
     1
 75
     1
176
     1
175
     1
176
     1
 42
1.0
176
     1
 92
        8
176
     1
 66
     7
176
     1
 43
1.0
176
     1
 76
     1
176
     1
 77
     6
176
     1
 78
     2
176
     1
 67
     7
176
     1
 79
     5
176
     1
170
     0
176
     1
171
     0
176
     1
290
     0
176
     1
 93
        1
176
     1
 44
0.0
176
     1
173
     0
176
     1
  0
VISUALSTYLE
  5
36
102
{ACAD_REACTORS
330
2A
102
}
330
2A
100
AcDbVisualStyle
  2
Brighten
 70
    12
177
     2
291
     1
 71
     2
176
     1
 72
     2
176
     1
 73
     0
176
     1
 90
        0
176
     1
 40
-0.6
176
     1
 41
-30.0
176
     1
 62
     5
 63
     7
421
 16777215
176
     1
 74
     1
176
     1
 91
        4
176
     1
 64
     7
176
     1
 65
   257
176
     1
 75
     1
176
     1
175
     1
176
     1
 42
1.0
176
     1
 92
        8
176
     1
 66
     7
176
     1
 43
1.0
176
     1
 76
     1
176
     1
 77
     6
176
     1
 78
     2
176
     1
 67
     7
176
     1
 79
     5
176
     1
170
     0
176
     1
171
     0
176
     1
290
     0
176
     1
 93
        1
176
     1
 44
50.0
176
     1
173
     0
176
     1
  0
VISUALSTYLE
  5
3A
102
{ACAD_REACTORS
330
2A
102
}
330
2A
100
AcDbVisualStyle
  2
ColorChange
 70
    16
177
     2
291
     1
 71
     2
176
     1
 72
     2
176
     1
 73
     3
176
     1
 90
        0
176
     1
 40
-0.6
176
     1
 41
-30.0
176
     1
 62
     5
 63
     8
421
  8421504
176
     1
 74
     1
176
     1
 91
        4
176
     1
 64
     7
176
     1
 65
   257
176
     1
 75
     1
176
     1
175
     1
176
     1
 42
1.0
176
     1
 92
        8
176
     1
 66
     8
424
  8421504
176
     1
 43
1.0
176
     1
 76
     1
176
     1
 77
     6
176
     1
 78
     2
176
     1
 67
     7
176
     1
 79
     5
176
     1
170
     0
176
     1
171
     0
176
     1
290
     0
176
     1
 93
        1
176
     1
 44
0.0
176
     1
173
     0
176
     1
  0
VISUALSTYLE
  5
34
102
{ACAD_REACTORS
330
2A
102
}
330
2A
100
AcDbVisualStyle
  2
Conceptual
 70
     9
177
     2
291
     0
 71
     3
176
     1
 72
     2
176
     1
 73
     0
176
     1
 90
        0
176
     1
 40
-0.6
176
     1
 41
-30.0
176
     1
 62
     5
 63
     7
421
 16777215
176
     1
 74
     2
176
     1
 91
        2
176
     1
 64
     7
176
     1
 65
   257
176
     1
 75
     1
176
     1
175
     1
176
     1
 42
40.0
176
     1
 92
        8
176
     1
 66
     7
176
     1
 43
1.0
176
     1
 76
     1
176
     1
 77
     6
176
     1
 78
     2
176
     1
 67
     7
176
     1
 79
     3
176
     1
170
     0
176
     1
171
     0
176
     1
290
     0
176
     1
 93
        1
176
     1
 44
0.0
176
     1
173
     0
176
     1
  0
VISUALSTYLE
  5
35
102
{ACAD_REACTORS
330
2A
102
}
330
2A
100
AcDbVisualStyle
  2
Dim
 70
    11
177
     2
291
     1
 71
     2
176
     1
 72
     2
176
     1
 73
     0
176
     1
 90
        0
176
     1
 40
-0.6
176
     1
 41
-30.0
176
     1
 62
     5
 63
     7
421
 16777215
176
     1
 74
     1
176
     1
 91
        4
176
     1
 64
     7
176
     1
 65
   257
176
     1
 75
     1
176
     1
175
     1
176
     1
 42
1.0
176
     1
 92
        8
176
     1
 66
     7
176
     1
 43
1.0
176
     1
 76
     1
176
     1
 77
     6
176
     1
 78
     2
176
     1
 67
     7
176
     1
 79
     5
176
     1
170
     0
176
     1
171
     0
176
     1
290
     0
176
     1
 93
        1
176
     1
 44
-50.0
176
     1
173
     0
176
     1
  0
VISUALSTYLE
  5
39
102
{ACAD_REACTORS
330
2A
102
}
330
2A
100
AcDbVisualStyle
  2
Facepattern
 70
    15
177
     2
291
     1
 71
     2
176
     1
 72
     2
176
     1
 73
     0
176
     1
 90
        0
176
     1
 40
-0.6
176
     1
 41
-30.0
176
     1
 62
     5
 63
     7
421
 16777215
176
     1
 74
     1
176
     1
 91
        4
176
     1
 64
     7
176
     1
 65
   257
176
     1
 75
     1
176
     1
175
     1
176
     1
 42
1.0
176
     1
 92
        8
176
     1
 66
     7
176
     1
 43
1.0
176
     1
 76
     1
176
     1
 77
     6
176
     1
 78
     2
176
     1
 67
     7
176
     1
 79
     5
176
     1
170
     0
176
     1
171
     0
176
     1
290
     0
176
     1
 93
        1
176
     1
 44
0.0
176
     1
173
     0
176
     1
  0
VISUALSTYLE
  5
2B
102
{ACAD_REACTORS
330
2A
102
}
330
2A
100
AcDbVisualStyle
  2
Flat
 70
     0
177
     2
291
     1
 71
     2
176
     1
 72
     1
176
     1
 73
     1
176
     1
 90
        2
176
     1
 40
-0.6
176
     1
 41
30.0
176
     1
 62
     5
 63
     7
421
 16777215
176
     1
 74
     0
176
     1
 91
        4
176
     1
 64
     7
176
     1
 65
   257
176
     1
 75
     1
176
     1
175
     1
176
     1
 42
1.0
176
     1
 92
        8
176
     1
 66
     7
176
     1
 43
1.0
176
     1
 76
     1
176
     1
 77
     6
176
     1
 78
     2
176
     1
 67
     7
176
     1
 79
     5
176
     1
170
     0
176
     1
171
     0
176
     1
290
     0
176
     1
 93
       13
176
     1
 44
0.0
176
     1
173
     0
176
     1
  0
VISUALSTYLE
  5
2C
102
{ACAD_REACTORS
330
2A
102
}
330
2A
100
AcDbVisualStyle
  2
FlatWithEdges
 70
     1
177
     2
291
     1
 71
     2
176
     1
 72
     1
176
     1
 73
     1
176
     1
 90
        2
176
     1
 40
-0.6
176
     1
 41
30.0
176
     1
 62
     5
 63
     7
421
 16777215
176
     1
 74
     1
176
     1
 91
        4
176
     1
 64
     7
176
     1
 65
   257
176
     1
 75
     1
176
     1
175
     1
176
     1
 42
1.0
176
     1
 92
        0
176
     1
 66
   257
176
     1
 43
1.0
176
     1
 76
     1
176
     1
 77
     6
176
     1
 78
     2
176
     1
 67
     7
176
     1
 79
     5
176
     1
170
     0
176
     1
171
     0
176
     1
290
     0
176
     1
 93
       13
176
     1
 44
0.0
176
     1
173
     0
176
     1
  0
VISUALSTYLE
  5
2D
102
{ACAD_REACTORS
330
2A
102
}
330
2A
100
AcDbVisualStyle
  2
Gouraud
 70
     2
177
     2
291
     1
 71
     2
176
     1
 72
     2
176
     1
 73
     1
176
     1
 90
        2
176
     1
 40
-0.6
176
     1
 41
30.0
176
     1
 62
     5
 63
     7
421
 16777215
176
     1
 74
     0
176
     1
 91
        4
176
     1
 64
     7
176
     1
 65
   257
176
     1
 75
     1
176
     1
175
     1
176
     1
 42
1.0
176
     1
 92
        0
176
     1
 66
     7
176
     1
 43
1.0
176
     1
 76
     1
176
     1
 77
     6
176
     1
 78
     2
176
     1
 67
     7
176
     1
 79
     5
176
     1
170
     0
176
     1
171
     0
176
     1
290
     0
176
     1
 93
       13
176
     1
 44
0.0
176
     1
173
     0
176
     1
  0
VISUALSTYLE
  5
2E
102
{ACAD_REACTORS
330
2A
102
}
330
2A
100
AcDbVisualStyle
  2
GouraudWithEdges
 70
     3
177
     2
291
     1
 71
     2
176
     1
 72
     2
176
     1
 73
     1
176
     1
 90
        2
176
     1
 40
-0.6
176
     1
 41
30.0
176
     1
 62
     5
 63
     7
421
 16777215
176
     1
 74
     1
176
     1
 91
        4
176
     1
 64
     7
176
     1
 65
   257
176
     1
 75
     1
176
     1
175
     1
176
     1
 42
1.0
176
     1
 92
        0
176
     1
 66
   257
176
     1
 43
1.0
176
     1
 76
     1
176
     1
 77
     6
176
     1
 78
     2
176
     1
 67
     7
176
     1
 79
     5
176
     1
170
     0
176
     1
171
     0
176
     1
290
     0
176
     1
 93
       13
176
     1
 44
0.0
176
     1
173
     0
176
     1
  0
VISUALSTYLE
  5
38
102
{ACAD_REACTORS
330
2A
102
}
330
2A
100
AcDbVisualStyle
  2
Linepattern
 70
    14
177
     2
291
     1
 71
     2
176
     1
 72
     2
176
     1
 73
     0
176
     1
 90
        0
176
     1
 40
-0.6
176
     1
 41
-30.0
176
     1
 62
     5
 63
     7
421
 16777215
176
     1
 74
     1
176
     1
 91
        4
176
     1
 64
     7
176
     1
 65
   257
176
     1
 75
     7
176
     1
175
     7
176
     1
 42
1.0
176
     1
 92
        8
176
     1
 66
     7
176
     1
 43
1.0
176
     1
 76
     1
176
     1
 77
     6
176
     1
 78
     2
176
     1
 67
     7
176
     1
 79
     5
176
     1
170
     0
176
     1
171
     0
176
     1
290
     0
176
     1
 93
        1
176
     1
 44
0.0
176
     1
173
     0
176
     1
  0
VISUALSTYLE
  5
33
102
{ACAD_REACTORS
330
2A
102
}
330
2A
100
AcDbVisualStyle
  2
Realistic
 70
     8
177
     2
291
     0
 71
     2
176
     1
 72
     2
176
     1
 73
     0
176
     1
 90
        0
176
     1
 40
-0.6
176
     1
 41
-30.0
176
     1
 62
     5
 63
     7
421
 16777215
176
     1
 74
     1
176
     1
 91
        0
176
     1
 64
     7
176
     1
 65
   257
176
     1
 75
     1
176
     1
175
     1
176
     1
 42
1.0
176
     1
 92
        8
176
     1
 66
     8
424
  7895160
176
     1
 43
1.0
176
     1
 76
     1
176
     1
 77
     6
176
     1
 78
     2
176
     1
 67
     7
176
     1
 79
     5
176
     1
170
     0
176
     1
171
     0
176
     1
290
     0
176
     1
 93
       13
176
     1
 44
0.0
176
     1
173
     0
176
     1
  0
VISUALSTYLE
  5
37
102
{ACAD_REACTORS
330
2A
102
}
330
2A
100
AcDbVisualStyle
  2
Thicken
 70
    13
177
     2
291
     1
 71
     2
176
     1
 72
     2
176
     1
 73
     0
176
     1
 90
        0
176
     1
 40
-0.6
176
     1
 41
-30.0
176
     1
 62
     5
 63
     7
421
 16777215
176
     1
 74
     1
176
     1
 91
        4
176
     1
 64
     7
176
     1
 65
   257
176
     1
 75
     1
176
     1
175
     1
176
     1
 42
1.0
176
     1
 92
       12
176
     1
 66
     7
176
     1
 43
1.0
176
     1
 76
     1
176
     1
 77
     6
176
     1
 78
     2
176
     1
 67
     7
176
     1
 79
     5
176
     1
170
     0
176
     1
171
     0
176
     1
290
     0
176
     1
 93
        1
176
     1
 44
0.0
176
     1
173
     0
176
     1
  0
ENDSEC
  0
EOF
