  0
SECTION
  2
HEADER
  9
$ACADVER
  1
AC1024
  9
$ACADMAINTVER
 70
     6
  9
$DWGCODEPAGE
  3
UNDEFINED
  9
$INSBASE
 10
0.0
 20
0.0
 30
0.0
  9
$EXTMIN
 10
1.000000000000000E+20
 20
1.000000000000000E+20
 30
1.000000000000000E+20
  9
$EXTMAX
 10
-1.000000000000000E+20
 20
-1.000000000000000E+20
 30
-1.000000000000000E+20
  9
$LIMMIN
 10
0.0
 20
0.0
  9
$LIMMAX
 10
12.0
 20
9.0
  9
$ORTHOMODE
 70
     0
  9
$REGENMODE
 70
     1
  9
$FILLMODE
 70
     1
  9
$QTEXTMODE
 70
     0
  9
$MIRRTEXT
 70
     1
  9
$LTSCALE
 40
1.0
  9
$ATTMODE
 70
     1
  9
$TEXTSIZE
 40
0.2
  9
$TRACEWID
 40
0.05
  9
$TEXTSTYLE
  7
Standard
  9
$CLAYER
  8
0
  9
$CELTYPE
  6
ByLayer
  9
$CECOLOR
 62
   256
  9
$CELTSCALE
 40
1.0
  9
$DISPSILH
 70
     0
  9
$DIMSCALE
 40
1.0
  9
$DIMASZ
 40
0.18
  9
$DIMEXO
 40
0.0625
  9
$DIMDLI
 40
0.38
  9
$DIMRND
 40
0.0
  9
$DIMDLE
 40
0.0
  9
$DIMEXE
 40
0.18
  9
$DIMTP
 40
0.0
  9
$DIMTM
 40
0.0
  9
$DIMTXT
 40
0.18
  9
$DIMCEN
 40
0.09
  9
$DIMTSZ
 40
0.0
  9
$DIMTOL
 70
     0
  9
$DIMLIM
 70
     0
  9
$DIMTIH
 70
     1
  9
$DIMTOH
 70
     1
  9
$DIMSE1
 70
     0
  9
$DIMSE2
 70
     0
  9
$DIMTAD
 70
     0
  9
$DIMZIN
 70
     0
  9
$DIMBLK
  1

  9
$DIMASO
 70
     1
  9
$DIMSHO
 70
     1
  9
$DIMPOST
  1

  9
$DIMAPOST
  1

  9
$DIMALT
 70
     0
  9
$DIMALTD
 70
     2
  9
$DIMALTF
 40
25.4
  9
$DIMLFAC
 40
1.0
  9
$DIMTOFL
 70
     0
  9
$DIMTVP
 40
0.0
  9
$DIMTIX
 70
     0
  9
$DIMSOXD
 70
     0
  9
$DIMSAH
 70
     0
  9
$DIMBLK1
  1

  9
$DIMBLK2
  1

  9
$DIMSTYLE
  2
Standard
  9
$DIMCLRD
 70
     0
  9
$DIMCLRE
 70
     0
  9
$DIMCLRT
 70
     0
  9
$DIMTFAC
 40
1.0
  9
$DIMGAP
 40
0.09
  9
$DIMJUST
 70
     0
  9
$DIMSD1
 70
     0
  9
$DIMSD2
 70
     0
  9
$DIMTOLJ
 70
     1
  9
$DIMTZIN
 70
     0
  9
$DIMALTZ
 70
     0
  9
$DIMALTTZ
 70
     0
  9
$DIMUPT
 70
     0
  9
$DIMDEC
 70
     4
  9
$DIMTDEC
 70
     4
  9
$DIMALTU
 70
     2
  9
$DIMALTTD
 70
     2
  9
$DIMTXSTY
  7
Standard
  9
$DIMAUNIT
 70
     0
  9
$DIMADEC
 70
     0
  9
$DIMALTRND
 40
0.0
  9
$DIMAZIN
 70
     0
  9
$DIMDSEP
 70
    46
  9
$DIMATFIT
 70
     3
  9
$DIMFRAC
 70
     0
  9
$DIMLDRBLK
  1

  9
$DIMLUNIT
 70
     2
  9
$DIMLWD
 70
    -2
  9
$DIMLWE
 70
    -2
  9
$DIMTMOVE
 70
     0
  9
$DIMFXL
 40
1.0
  9
$DIMFXLON
 70
     0
  9
$DIMJOGANG
 40
0.7853981633974483
  9
$DIMTFILL
 70
     0
  9
$DIMTFILLCLR
 70
     0
  9
$DIMARCSYM
 70
     0
  9
$DIMLTYPE
  6

  9
$DIMLTEX1
  6

  9
$DIMLTEX2
  6

  9
$DIMTXTDIRECTION
 70
     0
  9
$LUNITS
 70
     2
  9
$LUPREC
 70
     4
  9
$SKETCHINC
 40
0.1
  9
$FILLETRAD
 40
0.5
  9
$AUNITS
 70
     0
  9
$AUPREC
 70
     0
  9
$MENU
  1
.
  9
$ELEVATION
 40
0.0
  9
$PELEVATION
 40
0.0
  9
$THICKNESS
 40
0.0
  9
$LIMCHECK
 70
     0
  9
$CHAMFERA
 40
0.5
  9
$CHAMFERB
 40
0.5
  9
$CHAMFERC
 40
1.0
  9
$CHAMFERD
 40
0.0
  9
$SKPOLY
 70
     0
  9
$TDCREATE
 40
2457917.586365741
  9
$TDUCREATE
 40
2457917.211365741
  9
$TDUPDATE
 40
2457917.586377303
  9
$TDUUPDATE
 40
2457917.211377315
  9
$TDINDWG
 40
0.0000000116
  9
$TDUSRTIMER
 40
0.0000000116
  9
$USRTIMER
 70
     1
  9
$ANGBASE
 50
0.0
  9
$ANGDIR
 70
     0
  9
$PDMODE
 70
     0
  9
$PDSIZE
 40
0.0
  9
$PLINEWID
 40
0.0
  9
$SPLFRAME
 70
     0
  9
$SPLINETYPE
 70
     6
  9
$SPLINESEGS
 70
     8
  9
$HANDSEED
  5
11E
  9
$SURFTAB1
 70
     6
  9
$SURFTAB2
 70
     6
  9
$SURFTYPE
 70
     6
  9
$SURFU
 70
     6
  9
$SURFV
 70
     6
  9
$UCSBASE
  2

  9
$UCSNAME
  2

  9
$UCSORG
 10
0.0
 20
0.0
 30
0.0
  9
$UCSXDIR
 10
1.0
 20
0.0
 30
0.0
  9
$UCSYDIR
 10
0.0
 20
1.0
 30
0.0
  9
$UCSORTHOREF
  2

  9
$UCSORTHOVIEW
 70
     0
  9
$UCSORGTOP
 10
0.0
 20
0.0
 30
0.0
  9
$UCSORGBOTTOM
 10
0.0
 20
0.0
 30
0.0
  9
$UCSORGLEFT
 10
0.0
 20
0.0
 30
0.0
  9
$UCSORGRIGHT
 10
0.0
 20
0.0
 30
0.0
  9
$UCSORGFRONT
 10
0.0
 20
0.0
 30
0.0
  9
$UCSORGBACK
 10
0.0
 20
0.0
 30
0.0
  9
$PUCSBASE
  2

  9
$PUCSNAME
  2

  9
$PUCSORG
 10
0.0
 20
0.0
 30
0.0
  9
$PUCSXDIR
 10
1.0
 20
0.0
 30
0.0
  9
$PUCSYDIR
 10
0.0
 20
1.0
 30
0.0
  9
$PUCSORTHOREF
  2

  9
$PUCSORTHOVIEW
 70
     0
  9
$PUCSORGTOP
 10
0.0
 20
0.0
 30
0.0
  9
$PUCSORGBOTTOM
 10
0.0
 20
0.0
 30
0.0
  9
$PUCSORGLEFT
 10
0.0
 20
0.0
 30
0.0
  9
$PUCSORGRIGHT
 10
0.0
 20
0.0
 30
0.0
  9
$PUCSORGFRONT
 10
0.0
 20
0.0
 30
0.0
  9
$PUCSORGBACK
 10
0.0
 20
0.0
 30
0.0
  9
$USERI1
 70
     0
  9
$USERI2
 70
     0
  9
$USERI3
 70
     0
  9
$USERI4
 70
     0
  9
$USERI5
 70
     0
  9
$USERR1
 40
0.0
  9
$USERR2
 40
0.0
  9
$USERR3
 40
0.0
  9
$USERR4
 40
0.0
  9
$USERR5
 40
0.0
  9
$WORLDVIEW
 70
     1
  9
$SHADEDGE
 70
     3
  9
$SHADEDIF
 70
    70
  9
$TILEMODE
 70
     1
  9
$MAXACTVP
 70
    64
  9
$PINSBASE
 10
0.0
 20
0.0
 30
0.0
  9
$PLIMCHECK
 70
     0
  9
$PEXTMIN
 10
1.000000000000000E+20
 20
1.000000000000000E+20
 30
1.000000000000000E+20
  9
$PEXTMAX
 10
-1.000000000000000E+20
 20
-1.000000000000000E+20
 30
-1.000000000000000E+20
  9
$PLIMMIN
 10
0.0
 20
0.0
  9
$PLIMMAX
 10
12.0
 20
9.0
  9
$UNITMODE
 70
     0
  9
$VISRETAIN
 70
     1
  9
$PLINEGEN
 70
     0
  9
$PSLTSCALE
 70
     1
  9
$TREEDEPTH
 70
  3020
  9
$CMLSTYLE
  2
Standard
  9
$CMLJUST
 70
     0
  9
$CMLSCALE
 40
1.0
  9
$PROXYGRAPHICS
 70
     1
  9
$MEASUREMENT
 70
     0
  9
$CELWEIGHT
370
    -1
  9
$ENDCAPS
280
     0
  9
$JOINSTYLE
280
     0
  9
$LWDISPLAY
290
     1
  9
$INSUNITS
 70
     1
  9
$HYPERLINKBASE
  1

  9
$STYLESHEET
  1

  9
$XEDIT
290
     1
  9
$CEPSNTYPE
380
     0
  9
$PSTYLEMODE
290
     1
  9
$FINGERPRINTGUID
  2
{2E27962F-584E-FA46-426C-59A801F01D69}
  9
$VERSIONGUID
  2
{FAEB1C32-E019-11D5-929B-00C0DF256EC4}
  9
$EXTNAMES
290
     1
  9
$PSVPSCALE
 40
0.0
  9
$OLESTARTUP
290
     0
  9
$SORTENTS
280
   127
  9
$INDEXCTL
280
     0
  9
$HIDETEXT
280
     1
  9
$XCLIPFRAME
280
     2
  9
$HALOGAP
280
     0
  9
$OBSCOLOR
 70
   257
  9
$OBSLTYPE
280
     0
  9
$INTERSECTIONDISPLAY
280
     0
  9
$INTERSECTIONCOLOR
 70
   257
  9
$DIMASSOC
280
     2
  9
$PROJECTNAME
  1

  9
$CAMERADISPLAY
290
     0
  9
$LENSLENGTH
 40
50.0
  9
$CAMERAHEIGHT
 40
0.0
  9
$STEPSPERSEC
 40
2.0
  9
$STEPSIZE
 40
6.0
  9
$3DDWFPREC
 40
2.0
  9
$PSOLWIDTH
 40
0.25
  9
$PSOLHEIGHT
 40
4.0
  9
$LOFTANG1
 40
1.570796326794897
  9
$LOFTANG2
 40
1.570796326794897
  9
$LOFTMAG1
 40
0.0
  9
$LOFTMAG2
 40
0.0
  9
$LOFTPARAM
 70
     7
  9
$LOFTNORMALS
280
     1
  9
$LATITUDE
 40
37.795
  9
$LONGITUDE
 40
-122.394
  9
$NORTHDIRECTION
 40
0.0
  9
$TIMEZONE
 70
 -8000
  9
$LIGHTGLYPHDISPLAY
280
     1
  9
$TILEMODELIGHTSYNCH
280
     1
  9
$CMATERIAL
347
3C
  9
$SOLIDHIST
280
     1
  9
$SHOWHIST
280
     1
  9
$DWFFRAME
280
     2
  9
$DGNFRAME
280
     2
  9
$REALWORLDSCALE
290
     1
  9
$INTERFERECOLOR
 62
   256
  9
$CSHADOW
280
     0
  9
$SHADOWPLANELOCATION
 40
0.0
  0
ENDSEC
  0
SECTION
  2
CLASSES
  0
CLASS
  1
ACDBDICTIONARYWDFLT
  2
AcDbDictionaryWithDefault
  3
ObjectDBX Classes
 90
        0
 91
        4
280
     0
281
     0
  0
CLASS
  1
VISUALSTYLE
  2
AcDbVisualStyle
  3
ObjectDBX Classes
 90
     4095
 91
        4
280
     0
281
     0
  0
CLASS
  1
MATERIAL
  2
AcDbMaterial
  3
ObjectDBX Classes
 90
     1153
 91
        4
280
     0
281
     0
  0
CLASS
  1
SUN
  2
AcDbSun
  3
SCENEOE
 90
     1024
 91
        4
280
     0
281
     0
  0
ENDSEC
  0
SECTION
  2
TABLES
  0
TABLE
  2
VPORT
  5
8
330
0
100
AcDbSymbolTable
 70
     1
  0
VPORT
  5
29
330
8
100
AcDbSymbolTableRecord
100
AcDbViewportTableRecord
  2
*Active
 70
     0
 10
0.0
 20
0.0
 11
1.0
 21
1.0
 12
0.0
 22
0.0
 13
0.0
 23
0.0
 14
0.5
 24
0.5
 15
0.5
 25
0.5
 16
0.0
 26
0.0
 36
1.0
 17
105.0008280156501
 27
-148.4999710739862
 37
0.0
 40
296.9999421479724
 41
0.7070764206636528
 42
50.0
 43
0.0
 44
0.0
 50
0.0
 51
0.0
 71
     0
 72
   100
 73
     1
 74
     3
 75
     0
 76
     0
 77
     0
 78
     0
281
     0
 65
     1
110
0.0
120
0.0
130
0.0
111
1.0
121
0.0
131
0.0
112
0.0
122
1.0
132
0.0
 79
     0
146
0.0
 60
     3
 61
     5
292
     1
282
     1
141
0.0
142
0.0
 63
   250
361
3F
  0
ENDTAB
  0
TABLE
  2
LTYPE
  5
5
330
0
100
AcDbSymbolTable
 70
     1
  0
LTYPE
  5
14
330
5
100
AcDbSymbolTableRecord
100
AcDbLinetypeTableRecord
  2
ByBlock
 70
     0
  3

 72
    65
 73
     0
 40
0.0
  0
LTYPE
  5
15
330
5
100
AcDbSymbolTableRecord
100
AcDbLinetypeTableRecord
  2
ByLayer
 70
     0
  3

 72
    65
 73
     0
 40
0.0
  0
LTYPE
  5
16
330
5
100
AcDbSymbolTableRecord
100
AcDbLinetypeTableRecord
  2
Continuous
 70
     0
  3
Solid line
 72
    65
 73
     0
 40
0.0
  0
ENDTAB
  0
TABLE
  2
LAYER
  5
2
330
0
100
AcDbSymbolTable
 70
     2
  0
LAYER
  5
10
330
2
100
AcDbSymbolTableRecord
100
AcDbLayerTableRecord
  2
0
 70
     0
 62
     7
  6
Continuous
370
    -3
390
F
347
3E
  0
LAYER
  5
40
330
2
100
AcDbSymbolTableRecord
100
AcDbLayerTableRecord
  2
_U+30EC_U+30A4_U+30E4_U+30FC 1
 70
     0
 62
     7
  6
Continuous
370
    -3
390
F
347
3E
  0
ENDTAB
  0
TABLE
  2
STYLE
  5
3
330
0
100
AcDbSymbolTable
 70
     1
  0
STYLE
  5
11
330
3
100
AcDbSymbolTableRecord
100
AcDbTextStyleTableRecord
  2
Standard
 70
     0
 40
0.0
 41
1.0
 50
0.0
 71
     0
 42
0.2
  3
txt
  4

  0
ENDTAB
  0
TABLE
  2
VIEW
  5
6
330
0
100
AcDbSymbolTable
 70
     0
  0
ENDTAB
  0
TABLE
  2
UCS
  5
7
330
0
100
AcDbSymbolTable
 70
     0
  0
ENDTAB
  0
TABLE
  2
APPID
  5
9
330
0
100
AcDbSymbolTable
 70
     1
  0
APPID
  5
12
330
9
100
AcDbSymbolTableRecord
100
AcDbRegAppTableRecord
  2
ACAD
 70
     0
  0
ENDTAB
  0
TABLE
  2
DIMSTYLE
  5
A
330
0
100
AcDbSymbolTable
 70
     1
100
AcDbDimStyleTable
  0
DIMSTYLE
105
27
330
A
100
AcDbSymbolTableRecord
100
AcDbDimStyleTableRecord
  2
Standard
 70
     0
178
     0
340
11
  0
ENDTAB
  0
TABLE
  2
BLOCK_RECORD
  5
1
330
0
100
AcDbSymbolTable
 70
     8
  0
BLOCK_RECORD
  5
1F
330
1
100
AcDbSymbolTableRecord
100
AcDbBlockTableRecord
  2
*Model_Space
340
22
 70
     0
280
     1
281
     0
  0
BLOCK_RECORD
  5
1B
330
1
100
AcDbSymbolTableRecord
100
AcDbBlockTableRecord
  2
*Paper_Space
340
1E
 70
     0
280
     1
281
     0
  0
BLOCK_RECORD
  5
23
330
1
100
AcDbSymbolTableRecord
100
AcDbBlockTableRecord
  2
*Paper_Space0
340
26
 70
     0
280
     1
281
     0
  0
BLOCK_RECORD
  5
41
330
1
100
AcDbSymbolTableRecord
100
AcDbBlockTableRecord
  2
block 2
340
0
102
{BLKREFS
331
42
102
}
 70
     0
280
     1
281
     0
  0
BLOCK_RECORD
  5
7C
330
1
100
AcDbSymbolTableRecord
100
AcDbBlockTableRecord
  2
block 3
340
0
102
{BLKREFS
331
7D
102
}
 70
     0
280
     1
281
     0
  0
BLOCK_RECORD
  5
91
330
1
100
AcDbSymbolTableRecord
100
AcDbBlockTableRecord
  2
block 4
340
0
102
{BLKREFS
331
92
102
}
 70
     0
280
     1
281
     0
  0
BLOCK_RECORD
  5
BA
330
1
100
AcDbSymbolTableRecord
100
AcDbBlockTableRecord
  2
block 5
340
0
102
{BLKREFS
331
BB
102
}
 70
     0
280
     1
281
     0
  0
BLOCK_RECORD
  5
DB
330
1
100
AcDbSymbolTableRecord
100
AcDbBlockTableRecord
  2
block 6
340
0
102
{BLKREFS
331
DC
102
}
 70
     0
280
     1
281
     0
  0
BLOCK_RECORD
  5
ED
330
1
100
AcDbSymbolTableRecord
100
AcDbBlockTableRecord
  2
block 7
340
0
102
{BLKREFS
331
EE
102
}
 70
     0
280
     1
281
     0
  0
BLOCK_RECORD
  5
10A
330
1
100
AcDbSymbolTableRecord
100
AcDbBlockTableRecord
  2
block 8
340
0
102
{BLKREFS
331
10B
102
}
 70
     0
280
     1
281
     0
  0
ENDTAB
  0
ENDSEC
  0
SECTION
  2
BLOCKS
  0
BLOCK
  5
20
330
1F
100
AcDbEntity
  8
0
100
AcDbBlockBegin
  2
*Model_Space
 70
     0
 10
0.0
 20
0.0
 30
0.0
  3
*Model_Space
  1

  0
ENDBLK
  5
21
330
1F
100
AcDbEntity
  8
0
100
AcDbBlockEnd
  0
BLOCK
  5
1C
330
1B
100
AcDbEntity
 67
     1
  8
0
100
AcDbBlockBegin
  2
*Paper_Space
 70
     0
 10
0.0
 20
0.0
 30
0.0
  3
*Paper_Space
  1

  0
ENDBLK
  5
1D
330
1B
100
AcDbEntity
 67
     1
  8
0
100
AcDbBlockEnd
  0
BLOCK
  5
24
330
23
100
AcDbEntity
  8
0
100
AcDbBlockBegin
  2
*Paper_Space0
 70
     0
 10
0.0
 20
0.0
 30
0.0
  3
*Paper_Space0
  1

  0
ENDBLK
  5
25
330
23
100
AcDbEntity
  8
0
100
AcDbBlockEnd
  0
BLOCK
  5
43
330
41
100
AcDbEntity
  8
0
100
AcDbBlockBegin
  2
block 2
 70
     0
 10
0.0
 20
0.0
 30
0.0
  3
block 2
  1

  0
POLYLINE
  5
45
330
41
100
AcDbEntity
  8
_U+30EC_U+30A4_U+30E4_U+30FC 1
 62
   179
420
  2234388
370
    25
100
AcDb2dPolyline
 66
     1
 10
0.0
 20
0.0
 30
0.0
  0
VERTEX
  5
46
330
45
100
AcDbEntity
  8
_U+30EC_U+30A4_U+30E4_U+30FC 1
 62
   179
420
  2234388
370
    25
100
AcDbVertex
100
AcDb2dVertex
 10
96.0409958831234
 20
-143.6141399640964
 30
0.0
  0
VERTEX
  5
47
330
45
100
AcDbEntity
  8
_U+30EC_U+30A4_U+30E4_U+30FC 1
 62
   179
420
  2234388
370
    25
100
AcDbVertex
100
AcDb2dVertex
 10
116.0411317617663
 20
-143.6141399640964
 30
0.0
  0
SEQEND
  5
48
330
45
100
AcDbEntity
  8
_U+30EC_U+30A4_U+30E4_U+30FC 1
 62
   179
420
  2234388
370
    25
  0
POLYLINE
  5
49
330
41
100
AcDbEntity
  8
_U+30EC_U+30A4_U+30E4_U+30FC 1
 62
   179
420
  2234388
370
    25
100
AcDb2dPolyline
 66
     1
 10
0.0
 20
0.0
 30
0.0
  0
VERTEX
  5
4A
330
49
100
AcDbEntity
  8
_U+30EC_U+30A4_U+30E4_U+30FC 1
 62
   179
420
  2234388
370
    25
100
AcDbVertex
100
AcDb2dVertex
 10
96.0409958831234
 20
-143.6141399640964
 30
0.0
  0
VERTEX
  5
4B
330
49
100
AcDbEntity
  8
_U+30EC_U+30A4_U+30E4_U+30FC 1
 62
   179
420
  2234388
370
    25
100
AcDbVertex
100
AcDb2dVertex
 10
96.0409958831234
 20
-155.3138738500604
 30
0.0
  0
SEQEND
  5
4C
330
49
100
AcDbEntity
  8
_U+30EC_U+30A4_U+30E4_U+30FC 1
 62
   179
420
  2234388
370
    25
  0
POLYLINE
  5
4D
330
41
100
AcDbEntity
  8
_U+30EC_U+30A4_U+30E4_U+30FC 1
 62
   179
420
  2234388
370
    25
100
AcDb2dPolyline
 66
     1
 10
0.0
 20
0.0
 30
0.0
  0
VERTEX
  5
4E
330
4D
100
AcDbEntity
  8
_U+30EC_U+30A4_U+30E4_U+30FC 1
 62
   179
420
  2234388
370
    25
100
AcDbVertex
100
AcDb2dVertex
 10
116.0411317617663
 20
-143.6141399640964
 30
0.0
  0
VERTEX
  5
4F
330
4D
100
AcDbEntity
  8
_U+30EC_U+30A4_U+30E4_U+30FC 1
 62
   179
420
  2234388
370
    25
100
AcDbVertex
100
AcDb2dVertex
 10
116.0411317617663
 20
-144.6142649638464
 30
0.0
  0
SEQEND
  5
50
330
4D
100
AcDbEntity
  8
_U+30EC_U+30A4_U+30E4_U+30FC 1
 62
   179
420
  2234388
370
    25
  0
POLYLINE
  5
51
330
41
100
AcDbEntity
  8
_U+30EC_U+30A4_U+30E4_U+30FC 1
 62
   179
420
  2234388
370
    25
100
AcDb2dPolyline
 66
     1
 10
0.0
 20
0.0
 30
0.0
  0
VERTEX
  5
52
330
51
100
AcDbEntity
  8
_U+30EC_U+30A4_U+30E4_U+30FC 1
 62
   179
420
  2234388
370
    25
100
AcDbVertex
100
AcDb2dVertex
 10
97.0410855798312
 20
-144.6142649638464
 30
0.0
  0
VERTEX
  5
53
330
51
100
AcDbEntity
  8
_U+30EC_U+30A4_U+30E4_U+30FC 1
 62
   179
420
  2234388
370
    25
100
AcDbVertex
100
AcDb2dVertex
 10
116.0411317617663
 20
-144.6142649638464
 30
0.0
  0
SEQEND
  5
54
330
51
100
AcDbEntity
  8
_U+30EC_U+30A4_U+30E4_U+30FC 1
 62
   179
420
  2234388
370
    25
  0
POLYLINE
  5
55
330
41
100
AcDbEntity
  8
_U+30EC_U+30A4_U+30E4_U+30FC 1
 62
   179
420
  2234388
370
    25
100
AcDb2dPolyline
 66
     1
 10
0.0
 20
0.0
 30
0.0
  0
VERTEX
  5
56
330
55
100
AcDbEntity
  8
_U+30EC_U+30A4_U+30E4_U+30FC 1
 62
   179
420
  2234388
370
    25
100
AcDbVertex
100
AcDb2dVertex
 10
100.0411077255165
 20
-154.3141016280885
 30
0.0
  0
VERTEX
  5
57
330
55
100
AcDbEntity
  8
_U+30EC_U+30A4_U+30E4_U+30FC 1
 62
   179
420
  2234388
370
    25
100
AcDbVertex
100
AcDb2dVertex
 10
100.0411077255165
 20
-154.8143405168522
 30
0.0
  0
SEQEND
  5
58
330
55
100
AcDbEntity
  8
_U+30EC_U+30A4_U+30E4_U+30FC 1
 62
   179
420
  2234388
370
    25
  0
POLYLINE
  5
59
330
41
100
AcDbEntity
  8
_U+30EC_U+30A4_U+30E4_U+30FC 1
 62
   179
420
  2234388
370
    25
100
AcDb2dPolyline
 66
     1
 10
0.0
 20
0.0
 30
0.0
  0
VERTEX
  5
5A
330
59
100
AcDbEntity
  8
_U+30EC_U+30A4_U+30E4_U+30FC 1
 62
   179
420
  2234388
370
    25
100
AcDbVertex
100
AcDb2dVertex
 10
97.0410855798312
 20
-154.3141016280885
 30
0.0
  0
VERTEX
  5
5B
330
59
100
AcDbEntity
  8
_U+30EC_U+30A4_U+30E4_U+30FC 1
 62
   179
420
  2234388
370
    25
100
AcDbVertex
100
AcDb2dVertex
 10
100.0411077255165
 20
-154.3141016280885
 30
0.0
  0
SEQEND
  5
5C
330
59
100
AcDbEntity
  8
_U+30EC_U+30A4_U+30E4_U+30FC 1
 62
   179
420
  2234388
370
    25
  0
POLYLINE
  5
5D
330
41
100
AcDbEntity
  8
_U+30EC_U+30A4_U+30E4_U+30FC 1
 62
   179
420
  2234388
370
    25
100
AcDb2dPolyline
 66
     1
 10
0.0
 20
0.0
 30
0.0
  0
VERTEX
  5
5E
330
5D
100
AcDbEntity
  8
_U+30EC_U+30A4_U+30E4_U+30FC 1
 62
   179
420
  2234388
370
    25
100
AcDbVertex
100
AcDb2dVertex
 10
96.0409958831234
 20
-155.3138738500604
 30
0.0
  0
VERTEX
  5
5F
330
5D
100
AcDbEntity
  8
_U+30EC_U+30A4_U+30E4_U+30FC 1
 62
   179
420
  2234388
370
    25
100
AcDbVertex
100
AcDb2dVertex
 10
100.0411077255165
 20
-154.8143405168522
 30
0.0
  0
SEQEND
  5
60
330
5D
100
AcDbEntity
  8
_U+30EC_U+30A4_U+30E4_U+30FC 1
 62
   179
420
  2234388
370
    25
  0
POLYLINE
  5
61
330
41
100
AcDbEntity
  8
_U+30EC_U+30A4_U+30E4_U+30FC 1
 62
   179
420
  2234388
370
    25
100
AcDb2dPolyline
 66
     1
 10
0.0
 20
0.0
 30
0.0
  0
VERTEX
  5
62
330
61
100
AcDbEntity
  8
_U+30EC_U+30A4_U+30E4_U+30FC 1
 62
   179
420
  2234388
370
    25
100
AcDbVertex
100
AcDb2dVertex
 10
97.0410855798312
 20
-144.6142649638464
 30
0.0
  0
VERTEX
  5
63
330
61
100
AcDbEntity
  8
_U+30EC_U+30A4_U+30E4_U+30FC 1
 62
   179
420
  2234388
370
    25
100
AcDbVertex
100
AcDb2dVertex
 10
97.0410855798312
 20
-154.3141016280885
 30
0.0
  0
SEQEND
  5
64
330
61
100
AcDbEntity
  8
_U+30EC_U+30A4_U+30E4_U+30FC 1
 62
   179
420
  2234388
370
    25
  0
SPLINE
  5
65
330
41
100
AcDbEntity
  8
_U+30EC_U+30A4_U+30E4_U+30FC 1
 62
   179
420
  2234388
370
     9
100
AcDbSpline
210
0.0
220
0.0
230
1.0
 70
    11
 71
     3
 72
    17
 73
    13
 74
     0
 42
0.0000000001
 43
0.0000000001
 12
1.0
 22
0.0
 32
0.0
 13
1.0
 23
0.0
 33
0.0
 40
0.0
 40
0.0
 40
0.0
 40
0.0
 40
1.0
 40
1.0
 40
1.0
 40
2.0
 40
2.0
 40
2.0
 40
3.0
 40
3.0
 40
3.0
 40
4.0
 40
4.0
 40
4.0
 40
4.0
 10
96.14090254724124
 20
-139.6143807984298
 30
0.0
 10
96.14090254724124
 20
-139.5589241317768
 30
0.0
 10
96.09609977060647
 20
-139.5141213540104
 30
0.0
 10
96.0409958831234
 20
-139.5141213540104
 30
0.0
 10
95.98585671786346
 20
-139.5141213540104
 30
0.0
 10
95.94109164268134
 20
-139.5589241317768
 30
0.0
 10
95.94109164268134
 20
-139.6143807984298
 30
0.0
 10
95.94109164268134
 20
-139.6695199650826
 30
0.0
 10
95.98585671786346
 20
-139.7142874650715
 30
0.0
 10
96.0409958831234
 20
-139.7142874650715
 30
0.0
 10
96.09609977060647
 20
-139.7142874650715
 30
0.0
 10
96.14090254724124
 20
-139.6695199650826
 30
0.0
 10
96.14090254724124
 20
-139.6143807984298
 30
0.0
  0
SPLINE
  5
66
330
41
100
AcDbEntity
  8
_U+30EC_U+30A4_U+30E4_U+30FC 1
 62
   179
420
  2234388
370
     9
100
AcDbSpline
210
0.0
220
0.0
230
1.0
 70
    11
 71
     3
 72
    17
 73
    13
 74
     0
 42
0.0000000001
 43
0.0000000001
 12
1.0
 22
0.0
 32
0.0
 13
1.0
 23
0.0
 33
0.0
 40
0.0
 40
0.0
 40
0.0
 40
0.0
 40
1.0
 40
1.0
 40
1.0
 40
2.0
 40
2.0
 40
2.0
 40
3.0
 40
3.0
 40
3.0
 40
4.0
 40
4.0
 40
4.0
 40
4.0
 10
116.141073703661
 20
-139.6143807984298
 30
0.0
 10
116.141073703661
 20
-139.5589241317768
 30
0.0
 10
116.0962709270263
 20
-139.5141213540104
 30
0.0
 10
116.0411317617663
 20
-139.5141213540104
 30
0.0
 10
115.9860278742832
 20
-139.5141213540104
 30
0.0
 10
115.9412250976485
 20
-139.5589241317768
 30
0.0
 10
115.9412250976485
 20
-139.6143807984298
 30
0.0
 10
115.9412250976485
 20
-139.6695199650826
 30
0.0
 10
115.9860278742832
 20
-139.7142874650715
 30
0.0
 10
116.0411317617663
 20
-139.7142874650715
 30
0.0
 10
116.0962709270263
 20
-139.7142874650715
 30
0.0
 10
116.141073703661
 20
-139.6695199650826
 30
0.0
 10
116.141073703661
 20
-139.6143807984298
 30
0.0
  0
SPLINE
  5
67
330
41
100
AcDbEntity
  8
_U+30EC_U+30A4_U+30E4_U+30FC 1
 62
   179
420
  2234388
370
     9
100
AcDbSpline
210
0.0
220
0.0
230
1.0
 70
    11
 71
     3
 72
    17
 73
    13
 74
     0
 42
0.0000000001
 43
0.0000000001
 12
1.0
 22
0.0
 32
0.0
 13
1.0
 23
0.0
 33
0.0
 40
0.0
 40
0.0
 40
0.0
 40
0.0
 40
1.0
 40
1.0
 40
1.0
 40
2.0
 40
2.0
 40
2.0
 40
3.0
 40
3.0
 40
3.0
 40
4.0
 40
4.0
 40
4.0
 40
4.0
 10
120.141503046046
 20
-143.6141399640964
 30
0.0
 10
120.141503046046
 20
-143.5590360752215
 30
0.0
 10
120.0967002694113
 20
-143.5142332974548
 30
0.0
 10
120.0415963819282
 20
-143.5142332974548
 30
0.0
 10
119.9857869389076
 20
-143.5142332974548
 30
0.0
 10
119.9409841622728
 20
-143.5590360752215
 30
0.0
 10
119.9409841622728
 20
-143.6141399640964
 30
0.0
 10
119.9409841622728
 20
-143.6692791307495
 30
0.0
 10
119.9857869389076
 20
-143.714046630738
 30
0.0
 10
120.0415963819282
 20
-143.714046630738
 30
0.0
 10
120.0967002694113
 20
-143.714046630738
 30
0.0
 10
120.141503046046
 20
-143.6692791307495
 30
0.0
 10
120.141503046046
 20
-143.6141399640964
 30
0.0
  0
SPLINE
  5
68
330
41
100
AcDbEntity
  8
_U+30EC_U+30A4_U+30E4_U+30FC 1
 62
   179
420
  2234388
370
     9
100
AcDbSpline
210
0.0
220
0.0
230
1.0
 70
    11
 71
     3
 72
    17
 73
    13
 74
     0
 42
0.0000000001
 43
0.0000000001
 12
1.0
 22
0.0
 32
0.0
 13
1.0
 23
0.0
 33
0.0
 40
0.0
 40
0.0
 40
0.0
 40
0.0
 40
1.0
 40
1.0
 40
1.0
 40
2.0
 40
2.0
 40
2.0
 40
3.0
 40
3.0
 40
3.0
 40
4.0
 40
4.0
 40
4.0
 40
4.0
 10
120.141503046046
 20
-144.6142649638464
 30
0.0
 10
120.141503046046
 20
-144.5587730194158
 30
0.0
 10
120.0967002694113
 20
-144.514005519427
 30
0.0
 10
120.0415963819282
 20
-144.514005519427
 30
0.0
 10
119.9857869389076
 20
-144.514005519427
 30
0.0
 10
119.9409841622728
 20
-144.5587730194158
 30
0.0
 10
119.9409841622728
 20
-144.6142649638464
 30
0.0
 10
119.9409841622728
 20
-144.6693688527216
 30
0.0
 10
119.9857869389076
 20
-144.714171630488
 30
0.0
 10
120.0415963819282
 20
-144.714171630488
 30
0.0
 10
120.0967002694113
 20
-144.714171630488
 30
0.0
 10
120.141503046046
 20
-144.6693688527216
 30
0.0
 10
120.141503046046
 20
-144.6142649638464
 30
0.0
  0
SPLINE
  5
69
330
41
100
AcDbEntity
  8
_U+30EC_U+30A4_U+30E4_U+30FC 1
 62
   179
420
  2234388
370
     9
100
AcDbSpline
210
0.0
220
0.0
230
1.0
 70
    11
 71
     3
 72
    17
 73
    13
 74
     0
 42
0.0000000001
 43
0.0000000001
 12
1.0
 22
0.0
 32
0.0
 13
1.0
 23
0.0
 33
0.0
 40
0.0
 40
0.0
 40
0.0
 40
0.0
 40
1.0
 40
1.0
 40
1.0
 40
2.0
 40
2.0
 40
2.0
 40
3.0
 40
3.0
 40
3.0
 40
4.0
 40
4.0
 40
4.0
 40
4.0
 10
120.141503046046
 20
-154.3141016280885
 30
0.0
 10
120.141503046046
 20
-154.2589624614354
 30
0.0
 10
120.0967002694113
 20
-154.2141949614462
 30
0.0
 10
120.0415963819282
 20
-154.2141949614462
 30
0.0
 10
119.9857869389076
 20
-154.2141949614462
 30
0.0
 10
119.9409841622728
 20
-154.2589624614354
 30
0.0
 10
119.9409841622728
 20
-154.3141016280885
 30
0.0
 10
119.9409841622728
 20
-154.3692055169634
 30
0.0
 10
119.9857869389076
 20
-154.4140082947301
 30
0.0
 10
120.0415963819282
 20
-154.4140082947301
 30
0.0
 10
120.0967002694113
 20
-154.4140082947301
 30
0.0
 10
120.141503046046
 20
-154.3692055169634
 30
0.0
 10
120.141503046046
 20
-154.3141016280885
 30
0.0
  0
SPLINE
  5
6A
330
41
100
AcDbEntity
  8
_U+30EC_U+30A4_U+30E4_U+30FC 1
 62
   179
420
  2234388
370
     9
100
AcDbSpline
210
0.0
220
0.0
230
1.0
 70
    11
 71
     3
 72
    17
 73
    13
 74
     0
 42
0.0000000001
 43
0.0000000001
 12
1.0
 22
0.0
 32
0.0
 13
1.0
 23
0.0
 33
0.0
 40
0.0
 40
0.0
 40
0.0
 40
0.0
 40
1.0
 40
1.0
 40
1.0
 40
2.0
 40
2.0
 40
2.0
 40
3.0
 40
3.0
 40
3.0
 40
4.0
 40
4.0
 40
4.0
 40
4.0
 10
104.1409145653661
 20
-154.3141016280885
 30
0.0
 10
104.1409145653661
 20
-154.2589624614354
 30
0.0
 10
104.0961470665083
 20
-154.2141949614462
 30
0.0
 10
104.0410079012483
 20
-154.2141949614462
 30
0.0
 10
103.9859040137652
 20
-154.2141949614462
 30
0.0
 10
103.9411012371305
 20
-154.2589624614354
 30
0.0
 10
103.9411012371305
 20
-154.3141016280885
 30
0.0
 10
103.9411012371305
 20
-154.3692055169634
 30
0.0
 10
103.9859040137652
 20
-154.4140082947301
 30
0.0
 10
104.0410079012483
 20
-154.4140082947301
 30
0.0
 10
104.0961470665083
 20
-154.4140082947301
 30
0.0
 10
104.1409145653661
 20
-154.3692055169634
 30
0.0
 10
104.1409145653661
 20
-154.3141016280885
 30
0.0
  0
SPLINE
  5
6B
330
41
100
AcDbEntity
  8
_U+30EC_U+30A4_U+30E4_U+30FC 1
 62
   179
420
  2234388
370
     9
100
AcDbSpline
210
0.0
220
0.0
230
1.0
 70
    11
 71
     3
 72
    17
 73
    13
 74
     0
 42
0.0000000001
 43
0.0000000001
 12
1.0
 22
0.0
 32
0.0
 13
1.0
 23
0.0
 33
0.0
 40
0.0
 40
0.0
 40
0.0
 40
0.0
 40
1.0
 40
1.0
 40
1.0
 40
2.0
 40
2.0
 40
2.0
 40
3.0
 40
3.0
 40
3.0
 40
4.0
 40
4.0
 40
4.0
 40
4.0
 10
104.1409145653661
 20
-154.8143405168522
 30
0.0
 10
104.1409145653661
 20
-154.7592013501991
 30
0.0
 10
104.0961470665083
 20
-154.7143985724324
 30
0.0
 10
104.0410079012483
 20
-154.7143985724324
 30
0.0
 10
103.9859040137652
 20
-154.7143985724324
 30
0.0
 10
103.9411012371305
 20
-154.7592013501991
 30
0.0
 10
103.9411012371305
 20
-154.8143405168522
 30
0.0
 10
103.9411012371305
 20
-154.8694444057271
 30
0.0
 10
103.9859040137652
 20
-154.9142471834938
 30
0.0
 10
104.0410079012483
 20
-154.9142471834938
 30
0.0
 10
104.0961470665083
 20
-154.9142471834938
 30
0.0
 10
104.1409145653661
 20
-154.8694444057271
 30
0.0
 10
104.1409145653661
 20
-154.8143405168522
 30
0.0
  0
SPLINE
  5
6C
330
41
100
AcDbEntity
  8
_U+30EC_U+30A4_U+30E4_U+30FC 1
 62
   179
420
  2234388
370
     9
100
AcDbSpline
210
0.0
220
0.0
230
1.0
 70
    11
 71
     3
 72
    17
 73
    13
 74
     0
 42
0.0000000001
 43
0.0000000001
 12
1.0
 22
0.0
 32
0.0
 13
1.0
 23
0.0
 33
0.0
 40
0.0
 40
0.0
 40
0.0
 40
0.0
 40
1.0
 40
1.0
 40
1.0
 40
2.0
 40
2.0
 40
2.0
 40
3.0
 40
3.0
 40
3.0
 40
4.0
 40
4.0
 40
4.0
 40
4.0
 10
92.14114348261693
 20
-155.3138738500604
 30
0.0
 10
92.14114348261693
 20
-155.2587346834073
 30
0.0
 10
92.09634070598216
 20
-155.2139671834187
 30
0.0
 10
92.04123681849909
 20
-155.2139671834187
 30
0.0
 10
91.98609997700333
 20
-155.2139671834187
 30
0.0
 10
91.94133015438125
 20
-155.2587346834073
 30
0.0
 10
91.94133015438125
 20
-155.3138738500604
 30
0.0
 10
91.94133015438125
 20
-155.3696832944908
 30
0.0
 10
91.98609997700333
 20
-155.41445079448
 30
0.0
 10
92.04123681849909
 20
-155.41445079448
 30
0.0
 10
92.09634070598216
 20
-155.41445079448
 30
0.0
 10
92.14114348261693
 20
-155.3696832944908
 30
0.0
 10
92.14114348261693
 20
-155.3138738500604
 30
0.0
  0
SPLINE
  5
6D
330
41
100
AcDbEntity
  8
_U+30EC_U+30A4_U+30E4_U+30FC 1
 62
   179
420
  2234388
370
     9
100
AcDbSpline
210
0.0
220
0.0
230
1.0
 70
    11
 71
     3
 72
    17
 73
    13
 74
     0
 42
0.0000000001
 43
0.0000000001
 12
1.0
 22
0.0
 32
0.0
 13
1.0
 23
0.0
 33
0.0
 40
0.0
 40
0.0
 40
0.0
 40
0.0
 40
1.0
 40
1.0
 40
1.0
 40
2.0
 40
2.0
 40
2.0
 40
3.0
 40
3.0
 40
3.0
 40
4.0
 40
4.0
 40
4.0
 40
4.0
 10
100.1413318896262
 20
-159.3143032935046
 30
0.0
 10
100.1413318896262
 20
-159.2591994046297
 30
0.0
 10
100.0965643907683
 20
-159.214396626863
 30
0.0
 10
100.0411077255165
 20
-159.214396626863
 30
0.0
 10
99.98561578248776
 20
-159.214396626863
 30
0.0
 10
99.94120106139866
 20
-159.2591994046297
 30
0.0
 10
99.94120106139866
 20
-159.3143032935046
 30
0.0
 10
99.94120106139866
 20
-159.3694424601577
 30
0.0
 10
99.98561578248776
 20
-159.4142099601463
 30
0.0
 10
100.0411077255165
 20
-159.4142099601463
 30
0.0
 10
100.0965643907683
 20
-159.4142099601463
 30
0.0
 10
100.1413318896262
 20
-159.3694424601577
 30
0.0
 10
100.1413318896262
 20
-159.3143032935046
 30
0.0
  0
SPLINE
  5
6E
330
41
100
AcDbEntity
  8
_U+30EC_U+30A4_U+30E4_U+30FC 1
 62
   179
420
  2234388
370
     9
100
AcDbSpline
210
0.0
220
0.0
230
1.0
 70
    11
 71
     3
 72
    17
 73
    13
 74
     0
 42
0.0000000001
 43
0.0000000001
 12
1.0
 22
0.0
 32
0.0
 13
1.0
 23
0.0
 33
0.0
 40
0.0
 40
0.0
 40
0.0
 40
0.0
 40
1.0
 40
1.0
 40
1.0
 40
2.0
 40
2.0
 40
2.0
 40
3.0
 40
3.0
 40
3.0
 40
4.0
 40
4.0
 40
4.0
 40
4.0
 10
96.14090254724124
 20
-159.3143032935046
 30
0.0
 10
96.14090254724124
 20
-159.2591994046297
 30
0.0
 10
96.09609977060647
 20
-159.214396626863
 30
0.0
 10
96.0409958831234
 20
-159.214396626863
 30
0.0
 10
95.98585671786346
 20
-159.214396626863
 30
0.0
 10
95.94109164268134
 20
-159.2591994046297
 30
0.0
 10
95.94109164268134
 20
-159.3143032935046
 30
0.0
 10
95.94109164268134
 20
-159.3694424601577
 30
0.0
 10
95.98585671786346
 20
-159.4142099601463
 30
0.0
 10
96.0409958831234
 20
-159.4142099601463
 30
0.0
 10
96.09609977060647
 20
-159.4142099601463
 30
0.0
 10
96.14090254724124
 20
-159.3694424601577
 30
0.0
 10
96.14090254724124
 20
-159.3143032935046
 30
0.0
  0
SPLINE
  5
6F
330
41
100
AcDbEntity
  8
_U+30EC_U+30A4_U+30E4_U+30FC 1
 62
   179
420
  2234388
370
     9
100
AcDbSpline
210
0.0
220
0.0
230
1.0
 70
    11
 71
     3
 72
    17
 73
    13
 74
     0
 42
0.0000000001
 43
0.0000000001
 12
1.0
 22
0.0
 32
0.0
 13
1.0
 23
0.0
 33
0.0
 40
0.0
 40
0.0
 40
0.0
 40
0.0
 40
1.0
 40
1.0
 40
1.0
 40
2.0
 40
2.0
 40
2.0
 40
3.0
 40
3.0
 40
3.0
 40
4.0
 40
4.0
 40
4.0
 40
4.0
 10
92.14114348261693
 20
-143.6141399640964
 30
0.0
 10
92.14114348261693
 20
-143.5590360752215
 30
0.0
 10
92.09634070598216
 20
-143.5142332974548
 30
0.0
 10
92.04123681849909
 20
-143.5142332974548
 30
0.0
 10
91.98609997700333
 20
-143.5142332974548
 30
0.0
 10
91.94133015438125
 20
-143.5590360752215
 30
0.0
 10
91.94133015438125
 20
-143.6141399640964
 30
0.0
 10
91.94133015438125
 20
-143.6692791307495
 30
0.0
 10
91.98609997700333
 20
-143.714046630738
 30
0.0
 10
92.04123681849909
 20
-143.714046630738
 30
0.0
 10
92.09634070598216
 20
-143.714046630738
 30
0.0
 10
92.14114348261693
 20
-143.6692791307495
 30
0.0
 10
92.14114348261693
 20
-143.6141399640964
 30
0.0
  0
POLYLINE
  5
70
330
41
100
AcDbEntity
  8
_U+30EC_U+30A4_U+30E4_U+30FC 1
 62
   179
420
  2234388
370
     9
100
AcDb2dPolyline
 66
     1
 10
0.0
 20
0.0
 30
0.0
  0
VERTEX
  5
71
330
70
100
AcDbEntity
  8
_U+30EC_U+30A4_U+30E4_U+30FC 1
 62
   179
420
  2234388
370
     9
100
AcDbVertex
100
AcDb2dVertex
 10
96.0409958831234
 20
-139.6143807984298
 30
0.0
  0
VERTEX
  5
72
330
70
100
AcDbEntity
  8
_U+30EC_U+30A4_U+30E4_U+30FC 1
 62
   179
420
  2234388
370
     9
100
AcDbVertex
100
AcDb2dVertex
 10
116.0411317617663
 20
-139.6143807984298
 30
0.0
  0
SEQEND
  5
73
330
70
100
AcDbEntity
  8
_U+30EC_U+30A4_U+30E4_U+30FC 1
 62
   179
420
  2234388
370
     9
  0
POLYLINE
  5
74
330
41
100
AcDbEntity
  8
_U+30EC_U+30A4_U+30E4_U+30FC 1
 62
   179
420
  2234388
370
     9
100
AcDb2dPolyline
 66
     1
 10
0.0
 20
0.0
 30
0.0
  0
VERTEX
  5
75
330
74
100
AcDbEntity
  8
_U+30EC_U+30A4_U+30E4_U+30FC 1
 62
   179
420
  2234388
370
     9
100
AcDbVertex
100
AcDb2dVertex
 10
96.0409958831234
 20
-141.0744221869535
 30
0.0
  0
VERTEX
  5
76
330
74
100
AcDbEntity
  8
_U+30EC_U+30A4_U+30E4_U+30FC 1
 62
   179
420
  2234388
370
     9
100
AcDbVertex
100
AcDb2dVertex
 10
96.0409958831234
 20
-138.6139382986799
 30
0.0
  0
SEQEND
  5
77
330
74
100
AcDbEntity
  8
_U+30EC_U+30A4_U+30E4_U+30FC 1
 62
   179
420
  2234388
370
     9
  0
POLYLINE
  5
78
330
41
100
AcDbEntity
  8
_U+30EC_U+30A4_U+30E4_U+30FC 1
 62
   179
420
  2234388
370
     9
100
AcDb2dPolyline
 66
     1
 10
0.0
 20
0.0
 30
0.0
  0
VERTEX
  5
79
330
78
100
AcDbEntity
  8
_U+30EC_U+30A4_U+30E4_U+30FC 1
 62
   179
420
  2234388
370
     9
100
AcDbVertex
100
AcDb2dVertex
 10
116.0411317617663
 20
-141.0744221869535
 30
0.0
  0
VERTEX
  5
7A
330
78
100
AcDbEntity
  8
_U+30EC_U+30A4_U+30E4_U+30FC 1
 62
   179
420
  2234388
370
     9
100
AcDbVertex
100
AcDb2dVertex
 10
116.0411317617663
 20
-138.6139382986799
 30
0.0
  0
SEQEND
  5
7B
330
78
100
AcDbEntity
  8
_U+30EC_U+30A4_U+30E4_U+30FC 1
 62
   179
420
  2234388
370
     9
  0
INSERT
  5
7D
330
41
100
AcDbEntity
  8
_U+30EC_U+30A4_U+30E4_U+30FC 1
100
AcDbBlockReference
  2
block 3
 10
0.0
 20
0.0
 30
0.0
  0
POLYLINE
  5
85
330
41
100
AcDbEntity
  8
_U+30EC_U+30A4_U+30E4_U+30FC 1
 62
   179
420
  2234388
370
     9
100
AcDb2dPolyline
 66
     1
 10
0.0
 20
0.0
 30
0.0
  0
VERTEX
  5
86
330
85
100
AcDbEntity
  8
_U+30EC_U+30A4_U+30E4_U+30FC 1
 62
   179
420
  2234388
370
     9
100
AcDbVertex
100
AcDb2dVertex
 10
96.0409958831234
 20
-159.3143032935046
 30
0.0
  0
VERTEX
  5
87
330
85
100
AcDbEntity
  8
_U+30EC_U+30A4_U+30E4_U+30FC 1
 62
   179
420
  2234388
370
     9
100
AcDbVertex
100
AcDb2dVertex
 10
100.0411077255165
 20
-159.3143032935046
 30
0.0
  0
SEQEND
  5
88
330
85
100
AcDbEntity
  8
_U+30EC_U+30A4_U+30E4_U+30FC 1
 62
   179
420
  2234388
370
     9
  0
POLYLINE
  5
89
330
41
100
AcDbEntity
  8
_U+30EC_U+30A4_U+30E4_U+30FC 1
 62
   179
420
  2234388
370
     9
100
AcDb2dPolyline
 66
     1
 10
0.0
 20
0.0
 30
0.0
  0
VERTEX
  5
8A
330
89
100
AcDbEntity
  8
_U+30EC_U+30A4_U+30E4_U+30FC 1
 62
   179
420
  2234388
370
     9
100
AcDbVertex
100
AcDb2dVertex
 10
96.0409958831234
 20
-157.8542619049809
 30
0.0
  0
VERTEX
  5
8B
330
89
100
AcDbEntity
  8
_U+30EC_U+30A4_U+30E4_U+30FC 1
 62
   179
420
  2234388
370
     9
100
AcDbVertex
100
AcDb2dVertex
 10
96.0409958831234
 20
-160.3140755154772
 30
0.0
  0
SEQEND
  5
8C
330
89
100
AcDbEntity
  8
_U+30EC_U+30A4_U+30E4_U+30FC 1
 62
   179
420
  2234388
370
     9
  0
POLYLINE
  5
8D
330
41
100
AcDbEntity
  8
_U+30EC_U+30A4_U+30E4_U+30FC 1
 62
   179
420
  2234388
370
     9
100
AcDb2dPolyline
 66
     1
 10
0.0
 20
0.0
 30
0.0
  0
VERTEX
  5
8E
330
8D
100
AcDbEntity
  8
_U+30EC_U+30A4_U+30E4_U+30FC 1
 62
   179
420
  2234388
370
     9
100
AcDbVertex
100
AcDb2dVertex
 10
100.0411077255165
 20
-157.3540582939947
 30
0.0
  0
VERTEX
  5
8F
330
8D
100
AcDbEntity
  8
_U+30EC_U+30A4_U+30E4_U+30FC 1
 62
   179
420
  2234388
370
     9
100
AcDbVertex
100
AcDb2dVertex
 10
100.0411077255165
 20
-160.3140755154772
 30
0.0
  0
SEQEND
  5
90
330
8D
100
AcDbEntity
  8
_U+30EC_U+30A4_U+30E4_U+30FC 1
 62
   179
420
  2234388
370
     9
  0
INSERT
  5
92
330
41
100
AcDbEntity
  8
_U+30EC_U+30A4_U+30E4_U+30FC 1
100
AcDbBlockReference
  2
block 4
 10
0.0
 20
0.0
 30
0.0
  0
POLYLINE
  5
AA
330
41
100
AcDbEntity
  8
_U+30EC_U+30A4_U+30E4_U+30FC 1
 62
   179
420
  2234388
370
     9
100
AcDb2dPolyline
 66
     1
 10
0.0
 20
0.0
 30
0.0
  0
VERTEX
  5
AB
330
AA
100
AcDbEntity
  8
_U+30EC_U+30A4_U+30E4_U+30FC 1
 62
   179
420
  2234388
370
     9
100
AcDbVertex
100
AcDb2dVertex
 10
104.0410079012483
 20
-154.3141016280885
 30
0.0
  0
VERTEX
  5
AC
330
AA
100
AcDbEntity
  8
_U+30EC_U+30A4_U+30E4_U+30FC 1
 62
   179
420
  2234388
370
     9
100
AcDbVertex
100
AcDb2dVertex
 10
104.0410079012483
 20
-149.0561957960695
 30
0.0
  0
SEQEND
  5
AD
330
AA
100
AcDbEntity
  8
_U+30EC_U+30A4_U+30E4_U+30FC 1
 62
   179
420
  2234388
370
     9
  0
POLYLINE
  5
AE
330
41
100
AcDbEntity
  8
_U+30EC_U+30A4_U+30E4_U+30FC 1
 62
   179
420
  2234388
370
     9
100
AcDb2dPolyline
 66
     1
 10
0.0
 20
0.0
 30
0.0
  0
VERTEX
  5
AF
330
AE
100
AcDbEntity
  8
_U+30EC_U+30A4_U+30E4_U+30FC 1
 62
   179
420
  2234388
370
     9
100
AcDbVertex
100
AcDb2dVertex
 10
104.0410079012483
 20
-154.3141016280885
 30
0.0
  0
VERTEX
  5
B0
330
AE
100
AcDbEntity
  8
_U+30EC_U+30A4_U+30E4_U+30FC 1
 62
   179
420
  2234388
370
     9
100
AcDbVertex
100
AcDb2dVertex
 10
104.0410079012483
 20
-155.8140774610466
 30
0.0
  0
SEQEND
  5
B1
330
AE
100
AcDbEntity
  8
_U+30EC_U+30A4_U+30E4_U+30FC 1
 62
   179
420
  2234388
370
     9
  0
POLYLINE
  5
B2
330
41
100
AcDbEntity
  8
_U+30EC_U+30A4_U+30E4_U+30FC 1
 62
   179
420
  2234388
370
     9
100
AcDb2dPolyline
 66
     1
 10
0.0
 20
0.0
 30
0.0
  0
VERTEX
  5
B3
330
B2
100
AcDbEntity
  8
_U+30EC_U+30A4_U+30E4_U+30FC 1
 62
   179
420
  2234388
370
     9
100
AcDbVertex
100
AcDb2dVertex
 10
102.5810018273851
 20
-154.3141016280885
 30
0.0
  0
VERTEX
  5
B4
330
B2
100
AcDbEntity
  8
_U+30EC_U+30A4_U+30E4_U+30FC 1
 62
   179
420
  2234388
370
     9
100
AcDbVertex
100
AcDb2dVertex
 10
105.0407800979642
 20
-154.3141016280885
 30
0.0
  0
SEQEND
  5
B5
330
B2
100
AcDbEntity
  8
_U+30EC_U+30A4_U+30E4_U+30FC 1
 62
   179
420
  2234388
370
     9
  0
POLYLINE
  5
B6
330
41
100
AcDbEntity
  8
_U+30EC_U+30A4_U+30E4_U+30FC 1
 62
   179
420
  2234388
370
     9
100
AcDb2dPolyline
 66
     1
 10
0.0
 20
0.0
 30
0.0
  0
VERTEX
  5
B7
330
B6
100
AcDbEntity
  8
_U+30EC_U+30A4_U+30E4_U+30FC 1
 62
   179
420
  2234388
370
     9
100
AcDbVertex
100
AcDb2dVertex
 10
102.5810018273851
 20
-154.8143405168522
 30
0.0
  0
VERTEX
  5
B8
330
B6
100
AcDbEntity
  8
_U+30EC_U+30A4_U+30E4_U+30FC 1
 62
   179
420
  2234388
370
     9
100
AcDbVertex
100
AcDb2dVertex
 10
105.0407800979642
 20
-154.8143405168522
 30
0.0
  0
SEQEND
  5
B9
330
B6
100
AcDbEntity
  8
_U+30EC_U+30A4_U+30E4_U+30FC 1
 62
   179
420
  2234388
370
     9
  0
INSERT
  5
BB
330
41
100
AcDbEntity
  8
_U+30EC_U+30A4_U+30E4_U+30FC 1
100
AcDbBlockReference
  2
block 5
 10
0.0
 20
0.0
 30
0.0
  0
POLYLINE
  5
CB
330
41
100
AcDbEntity
  8
_U+30EC_U+30A4_U+30E4_U+30FC 1
 62
   179
420
  2234388
370
     9
100
AcDb2dPolyline
 66
     1
 10
0.0
 20
0.0
 30
0.0
  0
VERTEX
  5
CC
330
CB
100
AcDbEntity
  8
_U+30EC_U+30A4_U+30E4_U+30FC 1
 62
   179
420
  2234388
370
     9
100
AcDbVertex
100
AcDb2dVertex
 10
120.0415963819282
 20
-143.6141399640964
 30
0.0
  0
VERTEX
  5
CD
330
CB
100
AcDbEntity
  8
_U+30EC_U+30A4_U+30E4_U+30FC 1
 62
   179
420
  2234388
370
     9
100
AcDbVertex
100
AcDb2dVertex
 10
120.0415963819282
 20
-139.843827465039
 30
0.0
  0
SEQEND
  5
CE
330
CB
100
AcDbEntity
  8
_U+30EC_U+30A4_U+30E4_U+30FC 1
 62
   179
420
  2234388
370
     9
  0
POLYLINE
  5
CF
330
41
100
AcDbEntity
  8
_U+30EC_U+30A4_U+30E4_U+30FC 1
 62
   179
420
  2234388
370
     9
100
AcDb2dPolyline
 66
     1
 10
0.0
 20
0.0
 30
0.0
  0
VERTEX
  5
D0
330
CF
100
AcDbEntity
  8
_U+30EC_U+30A4_U+30E4_U+30FC 1
 62
   179
420
  2234388
370
     9
100
AcDbVertex
100
AcDb2dVertex
 10
120.0415963819282
 20
-143.6141399640964
 30
0.0
  0
VERTEX
  5
D1
330
CF
100
AcDbEntity
  8
_U+30EC_U+30A4_U+30E4_U+30FC 1
 62
   179
420
  2234388
370
     9
100
AcDbVertex
100
AcDb2dVertex
 10
120.0415963819282
 20
-144.6142649638464
 30
0.0
  0
SEQEND
  5
D2
330
CF
100
AcDbEntity
  8
_U+30EC_U+30A4_U+30E4_U+30FC 1
 62
   179
420
  2234388
370
     9
  0
POLYLINE
  5
D3
330
41
100
AcDbEntity
  8
_U+30EC_U+30A4_U+30E4_U+30FC 1
 62
   179
420
  2234388
370
     9
100
AcDb2dPolyline
 66
     1
 10
0.0
 20
0.0
 30
0.0
  0
VERTEX
  5
D4
330
D3
100
AcDbEntity
  8
_U+30EC_U+30A4_U+30E4_U+30FC 1
 62
   179
420
  2234388
370
     9
100
AcDbVertex
100
AcDb2dVertex
 10
118.581555030288
 20
-143.6141399640964
 30
0.0
  0
VERTEX
  5
D5
330
D3
100
AcDbEntity
  8
_U+30EC_U+30A4_U+30E4_U+30FC 1
 62
   179
420
  2234388
370
     9
100
AcDbVertex
100
AcDb2dVertex
 10
121.0413685786441
 20
-143.6141399640964
 30
0.0
  0
SEQEND
  5
D6
330
D3
100
AcDbEntity
  8
_U+30EC_U+30A4_U+30E4_U+30FC 1
 62
   179
420
  2234388
370
     9
  0
POLYLINE
  5
D7
330
41
100
AcDbEntity
  8
_U+30EC_U+30A4_U+30E4_U+30FC 1
 62
   179
420
  2234388
370
     9
100
AcDb2dPolyline
 66
     1
 10
0.0
 20
0.0
 30
0.0
  0
VERTEX
  5
D8
330
D7
100
AcDbEntity
  8
_U+30EC_U+30A4_U+30E4_U+30FC 1
 62
   179
420
  2234388
370
     9
100
AcDbVertex
100
AcDb2dVertex
 10
118.581555030288
 20
-144.6142649638464
 30
0.0
  0
VERTEX
  5
D9
330
D7
100
AcDbEntity
  8
_U+30EC_U+30A4_U+30E4_U+30FC 1
 62
   179
420
  2234388
370
     9
100
AcDbVertex
100
AcDb2dVertex
 10
121.0413685786441
 20
-144.6142649638464
 30
0.0
  0
SEQEND
  5
DA
330
D7
100
AcDbEntity
  8
_U+30EC_U+30A4_U+30E4_U+30FC 1
 62
   179
420
  2234388
370
     9
  0
INSERT
  5
DC
330
41
100
AcDbEntity
  8
_U+30EC_U+30A4_U+30E4_U+30FC 1
100
AcDbBlockReference
  2
block 6
 10
0.0
 20
0.0
 30
0.0
  0
POLYLINE
  5
E1
330
41
100
AcDbEntity
  8
_U+30EC_U+30A4_U+30E4_U+30FC 1
 62
   179
420
  2234388
370
     9
100
AcDb2dPolyline
 66
     1
 10
0.0
 20
0.0
 30
0.0
  0
VERTEX
  5
E2
330
E1
100
AcDbEntity
  8
_U+30EC_U+30A4_U+30E4_U+30FC 1
 62
   179
420
  2234388
370
     9
100
AcDbVertex
100
AcDb2dVertex
 10
120.0415963819282
 20
-144.6142649638464
 30
0.0
  0
VERTEX
  5
E3
330
E1
100
AcDbEntity
  8
_U+30EC_U+30A4_U+30E4_U+30FC 1
 62
   179
420
  2234388
370
     9
100
AcDbVertex
100
AcDb2dVertex
 10
120.0415963819282
 20
-154.3141016280885
 30
0.0
  0
SEQEND
  5
E4
330
E1
100
AcDbEntity
  8
_U+30EC_U+30A4_U+30E4_U+30FC 1
 62
   179
420
  2234388
370
     9
  0
POLYLINE
  5
E5
330
41
100
AcDbEntity
  8
_U+30EC_U+30A4_U+30E4_U+30FC 1
 62
   179
420
  2234388
370
     9
100
AcDb2dPolyline
 66
     1
 10
0.0
 20
0.0
 30
0.0
  0
VERTEX
  5
E6
330
E5
100
AcDbEntity
  8
_U+30EC_U+30A4_U+30E4_U+30FC 1
 62
   179
420
  2234388
370
     9
100
AcDbVertex
100
AcDb2dVertex
 10
118.581555030288
 20
-144.6142649638464
 30
0.0
  0
VERTEX
  5
E7
330
E5
100
AcDbEntity
  8
_U+30EC_U+30A4_U+30E4_U+30FC 1
 62
   179
420
  2234388
370
     9
100
AcDbVertex
100
AcDb2dVertex
 10
121.0413685786441
 20
-144.6142649638464
 30
0.0
  0
SEQEND
  5
E8
330
E5
100
AcDbEntity
  8
_U+30EC_U+30A4_U+30E4_U+30FC 1
 62
   179
420
  2234388
370
     9
  0
POLYLINE
  5
E9
330
41
100
AcDbEntity
  8
_U+30EC_U+30A4_U+30E4_U+30FC 1
 62
   179
420
  2234388
370
     9
100
AcDb2dPolyline
 66
     1
 10
0.0
 20
0.0
 30
0.0
  0
VERTEX
  5
EA
330
E9
100
AcDbEntity
  8
_U+30EC_U+30A4_U+30E4_U+30FC 1
 62
   179
420
  2234388
370
     9
100
AcDbVertex
100
AcDb2dVertex
 10
102.5810018273851
 20
-154.3141016280885
 30
0.0
  0
VERTEX
  5
EB
330
E9
100
AcDbEntity
  8
_U+30EC_U+30A4_U+30E4_U+30FC 1
 62
   179
420
  2234388
370
     9
100
AcDbVertex
100
AcDb2dVertex
 10
121.0413685786441
 20
-154.3141016280885
 30
0.0
  0
SEQEND
  5
EC
330
E9
100
AcDbEntity
  8
_U+30EC_U+30A4_U+30E4_U+30FC 1
 62
   179
420
  2234388
370
     9
  0
INSERT
  5
EE
330
41
100
AcDbEntity
  8
_U+30EC_U+30A4_U+30E4_U+30FC 1
100
AcDbBlockReference
  2
block 7
 10
0.0
 20
0.0
 30
0.0
  0
POLYLINE
  5
FE
330
41
100
AcDbEntity
  8
_U+30EC_U+30A4_U+30E4_U+30FC 1
 62
   179
420
  2234388
370
     9
100
AcDb2dPolyline
 66
     1
 10
0.0
 20
0.0
 30
0.0
  0
VERTEX
  5
FF
330
FE
100
AcDbEntity
  8
_U+30EC_U+30A4_U+30E4_U+30FC 1
 62
   179
420
  2234388
370
     9
100
AcDbVertex
100
AcDb2dVertex
 10
92.04123681849909
 20
-143.6141399640964
 30
0.0
  0
VERTEX
  5
100
330
FE
100
AcDbEntity
  8
_U+30EC_U+30A4_U+30E4_U+30FC 1
 62
   179
420
  2234388
370
     9
100
AcDbVertex
100
AcDb2dVertex
 10
92.04123681849909
 20
-155.3138738500604
 30
0.0
  0
SEQEND
  5
101
330
FE
100
AcDbEntity
  8
_U+30EC_U+30A4_U+30E4_U+30FC 1
 62
   179
420
  2234388
370
     9
  0
POLYLINE
  5
102
330
41
100
AcDbEntity
  8
_U+30EC_U+30A4_U+30E4_U+30FC 1
 62
   179
420
  2234388
370
     9
100
AcDb2dPolyline
 66
     1
 10
0.0
 20
0.0
 30
0.0
  0
VERTEX
  5
103
330
102
100
AcDbEntity
  8
_U+30EC_U+30A4_U+30E4_U+30FC 1
 62
   179
420
  2234388
370
     9
100
AcDbVertex
100
AcDb2dVertex
 10
93.50128053218012
 20
-143.6141399640964
 30
0.0
  0
VERTEX
  5
104
330
102
100
AcDbEntity
  8
_U+30EC_U+30A4_U+30E4_U+30FC 1
 62
   179
420
  2234388
370
     9
100
AcDbVertex
100
AcDb2dVertex
 10
91.0411118440144
 20
-143.6141399640964
 30
0.0
  0
SEQEND
  5
105
330
102
100
AcDbEntity
  8
_U+30EC_U+30A4_U+30E4_U+30FC 1
 62
   179
420
  2234388
370
     9
  0
POLYLINE
  5
106
330
41
100
AcDbEntity
  8
_U+30EC_U+30A4_U+30E4_U+30FC 1
 62
   179
420
  2234388
370
     9
100
AcDb2dPolyline
 66
     1
 10
0.0
 20
0.0
 30
0.0
  0
VERTEX
  5
107
330
106
100
AcDbEntity
  8
_U+30EC_U+30A4_U+30E4_U+30FC 1
 62
   179
420
  2234388
370
     9
100
AcDbVertex
100
AcDb2dVertex
 10
93.50128053218012
 20
-155.3138738500604
 30
0.0
  0
VERTEX
  5
108
330
106
100
AcDbEntity
  8
_U+30EC_U+30A4_U+30E4_U+30FC 1
 62
   179
420
  2234388
370
     9
100
AcDbVertex
100
AcDb2dVertex
 10
91.0411118440144
 20
-155.3138738500604
 30
0.0
  0
SEQEND
  5
109
330
106
100
AcDbEntity
  8
_U+30EC_U+30A4_U+30E4_U+30FC 1
 62
   179
420
  2234388
370
     9
  0
INSERT
  5
10B
330
41
100
AcDbEntity
  8
_U+30EC_U+30A4_U+30E4_U+30FC 1
100
AcDbBlockReference
  2
block 8
 10
0.0
 20
0.0
 30
0.0
  0
ENDBLK
  5
44
330
41
100
AcDbEntity
  8
0
100
AcDbBlockEnd
  0
BLOCK
  5
7E
330
7C
100
AcDbEntity
  8
0
100
AcDbBlockBegin
  2
block 3
 70
     0
 10
0.0
 20
0.0
 30
0.0
  3
block 3
  1

  0
SPLINE
  5
80
330
7C
100
AcDbEntity
  8
_U+30EC_U+30A4_U+30E4_U+30FC 1
370
     0
100
AcDbSpline
210
0.0
220
0.0
230
1.0
 70
    11
 71
     3
 72
    44
 73
    40
 74
     0
 42
0.0000000001
 43
0.0000000001
 12
1.0
 22
0.0
 32
0.0
 13
1.0
 23
0.0
 33
0.0
 40
0.0
 40
0.0
 40
0.0
 40
0.0
 40
1.0
 40
1.0
 40
1.0
 40
2.0
 40
2.0
 40
2.0
 40
3.0
 40
3.0
 40
3.0
 40
4.0
 40
4.0
 40
4.0
 40
5.0
 40
5.0
 40
5.0
 40
6.0
 40
6.0
 40
6.0
 40
7.0
 40
7.0
 40
7.0
 40
8.0
 40
8.0
 40
8.0
 40
9.0
 40
9.0
 40
9.0
 40
10.0
 40
10.0
 40
10.0
 40
11.0
 40
11.0
 40
11.0
 40
12.0
 40
12.0
 40
12.0
 40
13.0
 40
13.0
 40
13.0
 40
13.0
 10
105.516384522232
 20
-138.4359944315368
 30
0.0
 10
105.2834960674291
 20
-138.5948133334068
 30
0.0
 10
105.1839328079054
 20
-138.6688828863397
 30
0.0
 10
105.1319118660781
 20
-138.8125433680746
 30
0.0
 10
105.1319118660781
 20
-138.8125433680746
 30
0.0
 10
105.9642469353145
 20
-138.8125433680746
 30
0.0
 10
105.9642469353145
 20
-138.8125433680746
 30
0.0
 10
105.9642469353145
 20
-138.8125433680746
 30
0.0
 10
105.9642469353145
 20
-139.0178710589955
 30
0.0
 10
105.9642469353145
 20
-139.0178710589955
 30
0.0
 10
105.9642469353145
 20
-139.0178710589955
 30
0.0
 10
104.8652614755198
 20
-139.0178710589955
 30
0.0
 10
104.8652614755198
 20
-139.0178710589955
 30
0.0
 10
104.8993679208238
 20
-138.6602701476266
 30
0.0
 10
104.9693033591743
 20
-138.5820664801114
 30
0.0
 10
105.3806477601132
 20
-138.2837212110888
 30
0.0
 10
105.654188341642
 20
-138.0849392015899
 30
0.0
 10
105.7244682895411
 20
-138.0170708205304
 30
0.0
 10
105.7244682895411
 20
-137.879611510669
 30
0.0
 10
105.7244682895411
 20
-137.7611002259764
 30
0.0
 10
105.64764266022
 20
-137.6301865975369
 30
0.0
 10
105.4371473260713
 20
-137.6301865975369
 30
0.0
 10
105.1591281204116
 20
-137.6301865975369
 30
0.0
 10
105.15017087215
 20
-137.8606634855001
 30
0.0
 10
105.1456922480191
 20
-137.9771077129016
 30
0.0
 10
105.1456922480191
 20
-137.9771077129016
 30
0.0
 10
104.9059136022457
 20
-137.9771077129016
 30
0.0
 10
104.9059136022457
 20
-137.9771077129016
 30
0.0
 10
104.9148708505074
 20
-137.8499836894958
 30
0.0
 10
104.9262396656087
 20
-137.7380180862252
 30
0.0
 10
105.01236705274
 20
-137.6195068015326
 30
0.0
 10
105.129844808787
 20
-137.4586208423715
 30
0.0
 10
105.3286268182859
 20
-137.424858906616
 30
0.0
 10
105.4529947653034
 20
-137.424858906616
 30
0.0
 10
105.7492729770349
 20
-137.424858906616
 30
0.0
 10
105.9707926167365
 20
-137.6088270055284
 30
0.0
 10
105.9707926167365
 20
-137.8816785679601
 30
0.0
 10
105.9707926167365
 20
-138.1104329081807
 30
0.0
 10
105.846424669719
 20
-138.2096516581559
 30
0.0
 10
105.516384522232
 20
-138.4359944315368
 30
0.0
  0
HATCH
  5
81
330
7C
100
AcDbEntity
  8
_U+30EC_U+30A4_U+30E4_U+30FC 1
 62
   179
420
  2234388
100
AcDbHatch
 10
0.0
 20
0.0
 30
0.0
210
0.0
220
0.0
230
1.0
  2
SOLID
 70
     1
 71
     0
 91
        1
 92
        1
 93
        1
 72
     4
 94
        3
 73
     0
 74
     1
 95
       44
 96
       40
 40
0.0
 40
0.0
 40
0.0
 40
0.0
 40
1.0
 40
1.0
 40
1.0
 40
2.0
 40
2.0
 40
2.0
 40
3.0
 40
3.0
 40
3.0
 40
4.0
 40
4.0
 40
4.0
 40
5.0
 40
5.0
 40
5.0
 40
6.0
 40
6.0
 40
6.0
 40
7.0
 40
7.0
 40
7.0
 40
8.0
 40
8.0
 40
8.0
 40
9.0
 40
9.0
 40
9.0
 40
10.0
 40
10.0
 40
10.0
 40
11.0
 40
11.0
 40
11.0
 40
12.0
 40
12.0
 40
12.0
 40
13.0
 40
13.0
 40
13.0
 40
13.0
 10
105.516384522232
 20
-138.4359944315368
 10
105.2834960674291
 20
-138.5948133334068
 10
105.1839328079054
 20
-138.6688828863397
 10
105.1319118660781
 20
-138.8125433680746
 10
105.1319118660781
 20
-138.8125433680746
 10
105.9642469353145
 20
-138.8125433680746
 10
105.9642469353145
 20
-138.8125433680746
 10
105.9642469353145
 20
-138.8125433680746
 10
105.9642469353145
 20
-139.0178710589955
 10
105.9642469353145
 20
-139.0178710589955
 10
105.9642469353145
 20
-139.0178710589955
 10
104.8652614755198
 20
-139.0178710589955
 10
104.8652614755198
 20
-139.0178710589955
 10
104.8993679208238
 20
-138.6602701476266
 10
104.9693033591743
 20
-138.5820664801114
 10
105.3806477601132
 20
-138.2837212110888
 10
105.654188341642
 20
-138.0849392015899
 10
105.7244682895411
 20
-138.0170708205304
 10
105.7244682895411
 20
-137.879611510669
 10
105.7244682895411
 20
-137.7611002259764
 10
105.64764266022
 20
-137.6301865975369
 10
105.4371473260713
 20
-137.6301865975369
 10
105.1591281204116
 20
-137.6301865975369
 10
105.15017087215
 20
-137.8606634855001
 10
105.1456922480191
 20
-137.9771077129016
 10
105.1456922480191
 20
-137.9771077129016
 10
104.9059136022457
 20
-137.9771077129016
 10
104.9059136022457
 20
-137.9771077129016
 10
104.9148708505074
 20
-137.8499836894958
 10
104.9262396656087
 20
-137.7380180862252
 10
105.01236705274
 20
-137.6195068015326
 10
105.129844808787
 20
-137.4586208423715
 10
105.3286268182859
 20
-137.424858906616
 10
105.4529947653034
 20
-137.424858906616
 10
105.7492729770349
 20
-137.424858906616
 10
105.9707926167365
 20
-137.6088270055284
 10
105.9707926167365
 20
-137.8816785679601
 10
105.9707926167365
 20
-138.1104329081807
 10
105.846424669719
 20
-138.2096516581559
 10
105.516384522232
 20
-138.4359944315368
 97
        0
 97
        0
 75
     2
 76
     1
 98
        0
  0
SPLINE
  5
82
330
7C
100
AcDbEntity
  8
_U+30EC_U+30A4_U+30E4_U+30FC 1
370
     0
100
AcDbSpline
210
0.0
220
0.0
230
1.0
 70
    11
 71
     3
 72
    29
 73
    25
 74
     0
 42
0.0000000001
 43
0.0000000001
 12
1.0
 22
0.0
 32
0.0
 13
1.0
 23
0.0
 33
0.0
 40
0.0
 40
0.0
 40
0.0
 40
0.0
 40
1.0
 40
1.0
 40
1.0
 40
2.0
 40
2.0
 40
2.0
 40
3.0
 40
3.0
 40
3.0
 40
4.0
 40
4.0
 40
4.0
 40
5.0
 40
5.0
 40
5.0
 40
6.0
 40
6.0
 40
6.0
 40
7.0
 40
7.0
 40
7.0
 40
8.0
 40
8.0
 40
8.0
 40
8.0
 10
107.0997504072528
 20
-138.8401041319567
 30
0.0
 10
106.984339708497
 20
-139.0495659374598
 30
0.0
 10
106.7989935713905
 20
-139.0685139626287
 30
0.0
 10
106.674625624373
 20
-139.0685139626287
 30
0.0
 10
106.5030598692076
 20
-139.0685139626287
 30
0.0
 10
106.3514756678566
 20
-139.0220051735778
 30
0.0
 10
106.2498453510417
 20
-138.8401041319567
 30
0.0
 10
106.1389132764167
 20
-138.64545623704
 30
0.0
 10
106.1185872130537
 20
-138.4087781772034
 30
0.0
 10
106.1185872130537
 20
-138.2458251607511
 30
0.0
 10
106.1185872130537
 20
-138.1018201694676
 30
0.0
 10
106.136501709577
 20
-137.8499836894958
 30
0.0
 10
106.2498453510417
 20
-137.6512016799969
 30
0.0
 10
106.3649115402491
 20
-137.4482855559157
 30
0.0
 10
106.536821804963
 20
-137.424858906616
 30
0.0
 10
106.674625624373
 20
-137.424858906616
 30
0.0
 10
106.8444688317958
 20
-137.424858906616
 30
0.0
 10
106.998120090438
 20
-137.4693006383757
 30
0.0
 10
107.0997504072528
 20
-137.6512016799969
 30
0.0
 10
107.2062038577471
 20
-137.8437825176224
 30
0.0
 10
107.2310085452409
 20
-138.0721923482945
 30
0.0
 10
107.2310085452409
 20
-138.2458251607511
 30
0.0
 10
107.2310085452409
 20
-138.417046406368
 30
0.0
 10
107.2082709150382
 20
-138.6475232943312
 30
0.0
 10
107.0997504072528
 20
-138.8401041319567
 30
0.0
  0
SPLINE
  5
83
330
7C
100
AcDbEntity
  8
_U+30EC_U+30A4_U+30E4_U+30FC 1
370
     0
100
AcDbSpline
210
0.0
220
0.0
230
1.0
 70
    11
 71
     3
 72
    17
 73
    13
 74
     0
 42
0.0000000001
 43
0.0000000001
 12
1.0
 22
0.0
 32
0.0
 13
1.0
 23
0.0
 33
0.0
 40
0.0
 40
0.0
 40
0.0
 40
0.0
 40
1.0
 40
1.0
 40
1.0
 40
2.0
 40
2.0
 40
2.0
 40
3.0
 40
3.0
 40
3.0
 40
4.0
 40
4.0
 40
4.0
 40
4.0
 10
106.674625624373
 20
-137.6174397442415
 30
0.0
 10
106.4079752338147
 20
-137.6174397442415
 30
0.0
 10
106.3583658588271
 20
-137.9009711026775
 30
0.0
 10
106.3583658588271
 20
-138.2458251607511
 30
0.0
 10
106.3583658588271
 20
-138.5651855122337
 30
0.0
 10
106.3966064187133
 20
-138.8738660677121
 30
0.0
 10
106.674625624373
 20
-138.8738660677121
 30
0.0
 10
106.9392089576402
 20
-138.8738660677121
 30
0.0
 10
106.9912298994675
 20
-138.5927462761157
 30
0.0
 10
106.9912298994675
 20
-138.2458251607511
 30
0.0
 10
106.9912298994675
 20
-137.9261202997199
 30
0.0
 10
106.9505777727415
 20
-137.6174397442415
 30
0.0
 10
106.674625624373
 20
-137.6174397442415
 30
0.0
  0
HATCH
  5
84
330
7C
100
AcDbEntity
  8
_U+30EC_U+30A4_U+30E4_U+30FC 1
 62
   179
420
  2234388
100
AcDbHatch
 10
0.0
 20
0.0
 30
0.0
210
0.0
220
0.0
230
1.0
  2
SOLID
 70
     1
 71
     0
 91
        2
 92
        1
 93
        1
 72
     4
 94
        3
 73
     0
 74
     1
 95
       29
 96
       25
 40
0.0
 40
0.0
 40
0.0
 40
0.0
 40
1.0
 40
1.0
 40
1.0
 40
2.0
 40
2.0
 40
2.0
 40
3.0
 40
3.0
 40
3.0
 40
4.0
 40
4.0
 40
4.0
 40
5.0
 40
5.0
 40
5.0
 40
6.0
 40
6.0
 40
6.0
 40
7.0
 40
7.0
 40
7.0
 40
8.0
 40
8.0
 40
8.0
 40
8.0
 10
107.0997504072528
 20
-138.8401041319567
 10
106.984339708497
 20
-139.0495659374598
 10
106.7989935713905
 20
-139.0685139626287
 10
106.674625624373
 20
-139.0685139626287
 10
106.5030598692076
 20
-139.0685139626287
 10
106.3514756678566
 20
-139.0220051735778
 10
106.2498453510417
 20
-138.8401041319567
 10
106.1389132764167
 20
-138.64545623704
 10
106.1185872130537
 20
-138.4087781772034
 10
106.1185872130537
 20
-138.2458251607511
 10
106.1185872130537
 20
-138.1018201694676
 10
106.136501709577
 20
-137.8499836894958
 10
106.2498453510417
 20
-137.6512016799969
 10
106.3649115402491
 20
-137.4482855559157
 10
106.536821804963
 20
-137.424858906616
 10
106.674625624373
 20
-137.424858906616
 10
106.8444688317958
 20
-137.424858906616
 10
106.998120090438
 20
-137.4693006383757
 10
107.0997504072528
 20
-137.6512016799969
 10
107.2062038577471
 20
-137.8437825176224
 10
107.2310085452409
 20
-138.0721923482945
 10
107.2310085452409
 20
-138.2458251607511
 10
107.2310085452409
 20
-138.417046406368
 10
107.2082709150382
 20
-138.6475232943312
 10
107.0997504072528
 20
-138.8401041319567
 97
        0
 97
        0
 92
        1
 93
        1
 72
     4
 94
        3
 73
     0
 74
     1
 95
       17
 96
       13
 40
0.0
 40
0.0
 40
0.0
 40
0.0
 40
1.0
 40
1.0
 40
1.0
 40
2.0
 40
2.0
 40
2.0
 40
3.0
 40
3.0
 40
3.0
 40
4.0
 40
4.0
 40
4.0
 40
4.0
 10
106.674625624373
 20
-137.6174397442415
 10
106.4079752338147
 20
-137.6174397442415
 10
106.3583658588271
 20
-137.9009711026775
 10
106.3583658588271
 20
-138.2458251607511
 10
106.3583658588271
 20
-138.5651855122337
 10
106.3966064187133
 20
-138.8738660677121
 10
106.674625624373
 20
-138.8738660677121
 10
106.9392089576402
 20
-138.8738660677121
 10
106.9912298994675
 20
-138.5927462761157
 10
106.9912298994675
 20
-138.2458251607511
 10
106.9912298994675
 20
-137.9261202997199
 10
106.9505777727415
 20
-137.6174397442415
 10
106.674625624373
 20
-137.6174397442415
 97
        0
 97
        0
 75
     2
 76
     1
 98
        0
  0
ENDBLK
  5
7F
330
7C
100
AcDbEntity
  8
0
100
AcDbBlockEnd
  0
BLOCK
  5
93
330
91
100
AcDbEntity
  8
0
100
AcDbBlockBegin
  2
block 4
 70
     0
 10
0.0
 20
0.0
 30
0.0
  3
block 4
  1

  0
POLYLINE
  5
95
330
91
100
AcDbEntity
  8
_U+30EC_U+30A4_U+30E4_U+30FC 1
370
     0
100
AcDb2dPolyline
 66
     1
 10
0.0
 20
0.0
 30
0.0
  0
VERTEX
  5
96
330
95
100
AcDbEntity
  8
_U+30EC_U+30A4_U+30E4_U+30FC 1
370
     0
100
AcDbVertex
100
AcDb2dVertex
 10
98.43826359301197
 20
-158.3706949473865
 30
0.0
  0
VERTEX
  5
97
330
95
100
AcDbEntity
  8
_U+30EC_U+30A4_U+30E4_U+30FC 1
370
     0
100
AcDbVertex
100
AcDb2dVertex
 10
98.43826359301197
 20
-158.7176160627511
 30
0.0
  0
VERTEX
  5
98
330
95
100
AcDbEntity
  8
_U+30EC_U+30A4_U+30E4_U+30FC 1
370
     0
100
AcDbVertex
100
AcDb2dVertex
 10
98.20554739298333
 20
-158.7176160627511
 30
0.0
  0
VERTEX
  5
99
330
95
100
AcDbEntity
  8
_U+30EC_U+30A4_U+30E4_U+30FC 1
370
     0
100
AcDbVertex
100
AcDb2dVertex
 10
98.20554739298333
 20
-158.3706949473865
 30
0.0
  0
VERTEX
  5
9A
330
95
100
AcDbEntity
  8
_U+30EC_U+30A4_U+30E4_U+30FC 1
370
     0
100
AcDbVertex
100
AcDb2dVertex
 10
97.50464271650927
 20
-158.3706949473865
 30
0.0
  0
VERTEX
  5
9B
330
95
100
AcDbEntity
  8
_U+30EC_U+30A4_U+30E4_U+30FC 1
370
     0
100
AcDbVertex
100
AcDb2dVertex
 10
97.50464271650927
 20
-158.1464192312967
 30
0.0
  0
VERTEX
  5
9C
330
95
100
AcDbEntity
  8
_U+30EC_U+30A4_U+30E4_U+30FC 1
370
     0
100
AcDbVertex
100
AcDb2dVertex
 10
98.23035208047713
 20
-157.1731797567137
 30
0.0
  0
VERTEX
  5
9D
330
95
100
AcDbEntity
  8
_U+30EC_U+30A4_U+30E4_U+30FC 1
370
     0
100
AcDbVertex
100
AcDb2dVertex
 10
98.43826359301197
 20
-157.1731797567137
 30
0.0
  0
VERTEX
  5
9E
330
95
100
AcDbEntity
  8
_U+30EC_U+30A4_U+30E4_U+30FC 1
370
     0
100
AcDbVertex
100
AcDb2dVertex
 10
98.43826359301197
 20
-158.1719129378876
 30
0.0
  0
VERTEX
  5
9F
330
95
100
AcDbEntity
  8
_U+30EC_U+30A4_U+30E4_U+30FC 1
370
     0
100
AcDbVertex
100
AcDb2dVertex
 10
98.65995548748779
 20
-158.1719129378876
 30
0.0
  0
VERTEX
  5
A0
330
95
100
AcDbEntity
  8
_U+30EC_U+30A4_U+30E4_U+30FC 1
370
     0
100
AcDbVertex
100
AcDb2dVertex
 10
98.65995548748779
 20
-158.3706949473865
 30
0.0
  0
VERTEX
  5
A1
330
95
100
AcDbEntity
  8
_U+30EC_U+30A4_U+30E4_U+30FC 1
370
     0
100
AcDbVertex
100
AcDb2dVertex
 10
98.43826359301197
 20
-158.3706949473865
 30
0.0
  0
SEQEND
  5
A2
330
95
100
AcDbEntity
  8
_U+30EC_U+30A4_U+30E4_U+30FC 1
370
     0
  0
POLYLINE
  5
A3
330
91
100
AcDbEntity
  8
_U+30EC_U+30A4_U+30E4_U+30FC 1
370
     0
100
AcDb2dPolyline
 66
     1
 10
0.0
 20
0.0
 30
0.0
  0
VERTEX
  5
A4
330
A3
100
AcDbEntity
  8
_U+30EC_U+30A4_U+30E4_U+30FC 1
370
     0
100
AcDbVertex
100
AcDb2dVertex
 10
98.20554739298333
 20
-157.515966757496
 30
0.0
  0
VERTEX
  5
A5
330
A3
100
AcDbEntity
  8
_U+30EC_U+30A4_U+30E4_U+30FC 1
370
     0
100
AcDbVertex
100
AcDb2dVertex
 10
97.71703285317491
 20
-158.1719129378876
 30
0.0
  0
VERTEX
  5
A6
330
A3
100
AcDbEntity
  8
_U+30EC_U+30A4_U+30E4_U+30FC 1
370
     0
100
AcDbVertex
100
AcDb2dVertex
 10
98.20554739298333
 20
-158.1719129378876
 30
0.0
  0
VERTEX
  5
A7
330
A3
100
AcDbEntity
  8
_U+30EC_U+30A4_U+30E4_U+30FC 1
370
     0
100
AcDbVertex
100
AcDb2dVertex
 10
98.20554739298333
 20
-157.515966757496
 30
0.0
  0
SEQEND
  5
A8
330
A3
100
AcDbEntity
  8
_U+30EC_U+30A4_U+30E4_U+30FC 1
370
     0
  0
HATCH
  5
A9
330
91
100
AcDbEntity
  8
_U+30EC_U+30A4_U+30E4_U+30FC 1
 62
   179
420
  2234388
100
AcDbHatch
 10
0.0
 20
0.0
 30
0.0
210
0.0
220
0.0
230
1.0
  2
SOLID
 70
     1
 71
     0
 91
        2
 92
        1
 93
       11
 72
     1
 10
98.43826359301197
 20
-158.3706949473865
 11
98.43826359301197
 21
-158.7176160627511
 72
     1
 10
98.43826359301197
 20
-158.7176160627511
 11
98.20554739298333
 21
-158.7176160627511
 72
     1
 10
98.20554739298333
 20
-158.7176160627511
 11
98.20554739298333
 21
-158.3706949473865
 72
     1
 10
98.20554739298333
 20
-158.3706949473865
 11
97.50464271650927
 21
-158.3706949473865
 72
     1
 10
97.50464271650927
 20
-158.3706949473865
 11
97.50464271650927
 21
-158.1464192312967
 72
     1
 10
97.50464271650927
 20
-158.1464192312967
 11
98.23035208047713
 21
-157.1731797567137
 72
     1
 10
98.23035208047713
 20
-157.1731797567137
 11
98.43826359301197
 21
-157.1731797567137
 72
     1
 10
98.43826359301197
 20
-157.1731797567137
 11
98.43826359301197
 21
-158.1719129378876
 72
     1
 10
98.43826359301197
 20
-158.1719129378876
 11
98.65995548748779
 21
-158.1719129378876
 72
     1
 10
98.65995548748779
 20
-158.1719129378876
 11
98.65995548748779
 21
-158.3706949473865
 72
     1
 10
98.65995548748779
 20
-158.3706949473865
 11
98.43826359301197
 21
-158.3706949473865
 97
        0
 92
        1
 93
        3
 72
     1
 10
98.20554739298333
 20
-157.515966757496
 11
97.71703285317491
 21
-158.1719129378876
 72
     1
 10
97.71703285317491
 20
-158.1719129378876
 11
98.20554739298333
 21
-158.1719129378876
 72
     1
 10
98.20554739298333
 20
-158.1719129378876
 11
98.20554739298333
 21
-157.515966757496
 97
        0
 75
     2
 76
     1
 98
        0
  0
ENDBLK
  5
94
330
91
100
AcDbEntity
  8
0
100
AcDbBlockEnd
  0
BLOCK
  5
BC
330
BA
100
AcDbEntity
  8
0
100
AcDbBlockBegin
  2
block 5
 70
     0
 10
0.0
 20
0.0
 30
0.0
  3
block 5
  1

  0
SPLINE
  5
BE
330
BA
100
AcDbEntity
  8
_U+30EC_U+30A4_U+30E4_U+30FC 1
370
     0
100
AcDbSpline
210
0.0
220
0.0
230
1.0
 70
    11
 71
     3
 72
    29
 73
    25
 74
     0
 42
0.0000000001
 43
0.0000000001
 12
1.0
 22
0.0
 32
0.0
 13
1.0
 23
0.0
 33
0.0
 40
0.0
 40
0.0
 40
0.0
 40
0.0
 40
1.0
 40
1.0
 40
1.0
 40
2.0
 40
2.0
 40
2.0
 40
3.0
 40
3.0
 40
3.0
 40
4.0
 40
4.0
 40
4.0
 40
5.0
 40
5.0
 40
5.0
 40
6.0
 40
6.0
 40
6.0
 40
7.0
 40
7.0
 40
7.0
 40
8.0
 40
8.0
 40
8.0
 40
8.0
 10
103.2667371703639
 20
-151.6641275662506
 30
0.0
 10
103.4761989758671
 20
-151.7795382650065
 30
0.0
 10
103.4951470010359
 20
-151.9648844021129
 30
0.0
 10
103.4951470010359
 20
-152.0892523491305
 30
0.0
 10
103.4951470010359
 20
-152.2608181042959
 30
0.0
 10
103.4486382119851
 20
-152.4124023056469
 30
0.0
 10
103.2667371703639
 20
-152.5140326224618
 30
0.0
 10
103.0720892754473
 20
-152.6249646970868
 30
0.0
 10
102.8354112156106
 20
-152.6452907604498
 30
0.0
 10
102.6724581991583
 20
-152.6452907604498
 30
0.0
 10
102.5284532078748
 20
-152.6452907604498
 30
0.0
 10
102.2766167279031
 20
-152.6273762639265
 30
0.0
 10
102.0778347184042
 20
-152.5140326224618
 30
0.0
 10
101.8749185943229
 20
-152.3989664332544
 30
0.0
 10
101.8514919450232
 20
-152.2270561685405
 30
0.0
 10
101.8514919450232
 20
-152.0892523491305
 30
0.0
 10
101.8514919450232
 20
-151.9194091417077
 30
0.0
 10
101.895933676783
 20
-151.7657578830655
 30
0.0
 10
102.0778347184042
 20
-151.6641275662506
 30
0.0
 10
102.2704155560296
 20
-151.5576741157564
 30
0.0
 10
102.4988253867017
 20
-151.5328694282626
 30
0.0
 10
102.6724581991583
 20
-151.5328694282626
 30
0.0
 10
102.8436794447752
 20
-151.5328694282626
 30
0.0
 10
103.0741563327384
 20
-151.5556070584653
 30
0.0
 10
103.2667371703639
 20
-151.6641275662506
 30
0.0
  0
SPLINE
  5
BF
330
BA
100
AcDbEntity
  8
_U+30EC_U+30A4_U+30E4_U+30FC 1
370
     0
100
AcDbSpline
210
0.0
220
0.0
230
1.0
 70
    11
 71
     3
 72
    17
 73
    13
 74
     0
 42
0.0000000001
 43
0.0000000001
 12
1.0
 22
0.0
 32
0.0
 13
1.0
 23
0.0
 33
0.0
 40
0.0
 40
0.0
 40
0.0
 40
0.0
 40
1.0
 40
1.0
 40
1.0
 40
2.0
 40
2.0
 40
2.0
 40
3.0
 40
3.0
 40
3.0
 40
4.0
 40
4.0
 40
4.0
 40
4.0
 10
102.0440727826487
 20
-152.0892523491305
 30
0.0
 10
102.0440727826487
 20
-152.3559027396888
 30
0.0
 10
102.3276041410848
 20
-152.4055121146764
 30
0.0
 10
102.6724581991583
 20
-152.4055121146764
 30
0.0
 10
102.9918185506409
 20
-152.4055121146764
 30
0.0
 10
103.3004991061193
 20
-152.3672715547901
 30
0.0
 10
103.3004991061193
 20
-152.0892523491305
 30
0.0
 10
103.3004991061193
 20
-151.8246690158633
 30
0.0
 10
103.0193793145229
 20
-151.772648074036
 30
0.0
 10
102.6724581991583
 20
-151.772648074036
 30
0.0
 10
102.3527533381271
 20
-151.772648074036
 30
0.0
 10
102.0440727826487
 20
-151.813300200762
 30
0.0
 10
102.0440727826487
 20
-152.0892523491305
 30
0.0
  0
HATCH
  5
C0
330
BA
100
AcDbEntity
  8
_U+30EC_U+30A4_U+30E4_U+30FC 1
 62
   179
420
  2234388
100
AcDbHatch
 10
0.0
 20
0.0
 30
0.0
210
0.0
220
0.0
230
1.0
  2
SOLID
 70
     1
 71
     0
 91
        2
 92
        1
 93
        1
 72
     4
 94
        3
 73
     0
 74
     1
 95
       29
 96
       25
 40
0.0
 40
0.0
 40
0.0
 40
0.0
 40
1.0
 40
1.0
 40
1.0
 40
2.0
 40
2.0
 40
2.0
 40
3.0
 40
3.0
 40
3.0
 40
4.0
 40
4.0
 40
4.0
 40
5.0
 40
5.0
 40
5.0
 40
6.0
 40
6.0
 40
6.0
 40
7.0
 40
7.0
 40
7.0
 40
8.0
 40
8.0
 40
8.0
 40
8.0
 10
103.2667371703639
 20
-151.6641275662506
 10
103.4761989758671
 20
-151.7795382650065
 10
103.4951470010359
 20
-151.9648844021129
 10
103.4951470010359
 20
-152.0892523491305
 10
103.4951470010359
 20
-152.2608181042959
 10
103.4486382119851
 20
-152.4124023056469
 10
103.2667371703639
 20
-152.5140326224618
 10
103.0720892754473
 20
-152.6249646970868
 10
102.8354112156106
 20
-152.6452907604498
 10
102.6724581991583
 20
-152.6452907604498
 10
102.5284532078748
 20
-152.6452907604498
 10
102.2766167279031
 20
-152.6273762639265
 10
102.0778347184042
 20
-152.5140326224618
 10
101.8749185943229
 20
-152.3989664332544
 10
101.8514919450232
 20
-152.2270561685405
 10
101.8514919450232
 20
-152.0892523491305
 10
101.8514919450232
 20
-151.9194091417077
 10
101.895933676783
 20
-151.7657578830655
 10
102.0778347184042
 20
-151.6641275662506
 10
102.2704155560296
 20
-151.5576741157564
 10
102.4988253867017
 20
-151.5328694282626
 10
102.6724581991583
 20
-151.5328694282626
 10
102.8436794447752
 20
-151.5328694282626
 10
103.0741563327384
 20
-151.5556070584653
 10
103.2667371703639
 20
-151.6641275662506
 97
        0
 97
        0
 92
        1
 93
        1
 72
     4
 94
        3
 73
     0
 74
     1
 95
       17
 96
       13
 40
0.0
 40
0.0
 40
0.0
 40
0.0
 40
1.0
 40
1.0
 40
1.0
 40
2.0
 40
2.0
 40
2.0
 40
3.0
 40
3.0
 40
3.0
 40
4.0
 40
4.0
 40
4.0
 40
4.0
 10
102.0440727826487
 20
-152.0892523491305
 10
102.0440727826487
 20
-152.3559027396888
 10
102.3276041410848
 20
-152.4055121146764
 10
102.6724581991583
 20
-152.4055121146764
 10
102.9918185506409
 20
-152.4055121146764
 10
103.3004991061193
 20
-152.3672715547901
 10
103.3004991061193
 20
-152.0892523491305
 10
103.3004991061193
 20
-151.8246690158633
 10
103.0193793145229
 20
-151.772648074036
 10
102.6724581991583
 20
-151.772648074036
 10
102.3527533381271
 20
-151.772648074036
 10
102.0440727826487
 20
-151.813300200762
 10
102.0440727826487
 20
-152.0892523491305
 97
        0
 97
        0
 75
     2
 76
     1
 98
        0
  0
POLYLINE
  5
C1
330
BA
100
AcDbEntity
  8
_U+30EC_U+30A4_U+30E4_U+30FC 1
370
     0
100
AcDb2dPolyline
 66
     1
 10
0.0
 20
0.0
 30
0.0
  0
VERTEX
  5
C2
330
C1
100
AcDbEntity
  8
_U+30EC_U+30A4_U+30E4_U+30FC 1
370
     0
100
AcDbVertex
100
AcDb2dVertex
 10
103.4445040974028
 20
-151.3017035212024
 30
0.0
  0
VERTEX
  5
C3
330
C1
100
AcDbEntity
  8
_U+30EC_U+30A4_U+30E4_U+30FC 1
370
     0
100
AcDbVertex
100
AcDb2dVertex
 10
103.192667617431
 20
-151.3017035212024
 30
0.0
  0
VERTEX
  5
C4
330
C1
100
AcDbEntity
  8
_U+30EC_U+30A4_U+30E4_U+30FC 1
370
     0
100
AcDbVertex
100
AcDb2dVertex
 10
103.192667617431
 20
-151.0326415638043
 30
0.0
  0
VERTEX
  5
C5
330
C1
100
AcDbEntity
  8
_U+30EC_U+30A4_U+30E4_U+30FC 1
370
     0
100
AcDbVertex
100
AcDb2dVertex
 10
103.4445040974028
 20
-151.0326415638043
 30
0.0
  0
VERTEX
  5
C6
330
C1
100
AcDbEntity
  8
_U+30EC_U+30A4_U+30E4_U+30FC 1
370
     0
100
AcDbVertex
100
AcDb2dVertex
 10
103.4445040974028
 20
-151.3017035212024
 30
0.0
  0
SEQEND
  5
C7
330
C1
100
AcDbEntity
  8
_U+30EC_U+30A4_U+30E4_U+30FC 1
370
     0
  0
HATCH
  5
C8
330
BA
100
AcDbEntity
  8
_U+30EC_U+30A4_U+30E4_U+30FC 1
 62
   179
420
  2234388
100
AcDbHatch
 10
0.0
 20
0.0
 30
0.0
210
0.0
220
0.0
230
1.0
  2
SOLID
 70
     1
 71
     0
 91
        1
 92
        1
 93
        4
 72
     1
 10
103.4445040974028
 20
-151.3017035212024
 11
103.192667617431
 21
-151.3017035212024
 72
     1
 10
103.192667617431
 20
-151.3017035212024
 11
103.192667617431
 21
-151.0326415638043
 72
     1
 10
103.192667617431
 20
-151.0326415638043
 11
103.4445040974028
 21
-151.0326415638043
 72
     1
 10
103.4445040974028
 20
-151.0326415638043
 11
103.4445040974028
 21
-151.3017035212024
 97
        0
 75
     2
 76
     1
 98
        0
  0
SPLINE
  5
C9
330
BA
100
AcDbEntity
  8
_U+30EC_U+30A4_U+30E4_U+30FC 1
370
     0
100
AcDbSpline
210
0.0
220
0.0
230
1.0
 70
    11
 71
     3
 72
    53
 73
    49
 74
     0
 42
0.0000000001
 43
0.0000000001
 12
1.0
 22
0.0
 32
0.0
 13
1.0
 23
0.0
 33
0.0
 40
0.0
 40
0.0
 40
0.0
 40
0.0
 40
1.0
 40
1.0
 40
1.0
 40
2.0
 40
2.0
 40
2.0
 40
3.0
 40
3.0
 40
3.0
 40
4.0
 40
4.0
 40
4.0
 40
5.0
 40
5.0
 40
5.0
 40
6.0
 40
6.0
 40
6.0
 40
7.0
 40
7.0
 40
7.0
 40
8.0
 40
8.0
 40
8.0
 40
9.0
 40
9.0
 40
9.0
 40
10.0
 40
10.0
 40
10.0
 40
11.0
 40
11.0
 40
11.0
 40
12.0
 40
12.0
 40
12.0
 40
13.0
 40
13.0
 40
13.0
 40
14.0
 40
14.0
 40
14.0
 40
15.0
 40
15.0
 40
15.0
 40
16.0
 40
16.0
 40
16.0
 40
16.0
 10
103.4951470010359
 20
-150.2657633087877
 30
0.0
 10
103.4951470010359
 20
-150.3494791290793
 30
0.0
 10
103.4782660331582
 20
-150.4576551273161
 30
0.0
 10
103.4148762762296
 20
-150.56652014465
 30
0.0
 10
103.3049777302501
 20
-150.7518662817565
 30
0.0
 10
103.1737195922621
 20
-150.7742594024106
 30
0.0
 10
103.0658881035738
 20
-150.7945854657736
 30
0.0
 10
103.0658881035738
 20
-150.7945854657736
 30
0.0
 10
103.0658881035738
 20
-150.5572183868399
 30
0.0
 10
103.0658881035738
 20
-150.5572183868399
 30
0.0
 10
103.2646701130727
 20
-150.4986517635906
 30
0.0
 10
103.2942979342459
 20
-150.3629150014718
 30
0.0
 10
103.2942979342459
 20
-150.2633517419481
 30
0.0
 10
103.2942979342459
 20
-150.1141791074367
 30
0.0
 10
103.1947346747222
 20
-149.9512260909844
 30
0.0
 10
102.9621907294678
 20
-149.9512260909844
 30
0.0
 10
102.7062201349137
 20
-149.9512260909844
 30
0.0
 10
102.6362846965632
 20
-150.1434624190614
 30
0.0
 10
102.6362846965632
 20
-150.2723089902097
 30
0.0
 10
102.6362846965632
 20
-150.3064154355137
 30
0.0
 10
102.6362846965632
 20
-150.4576551273161
 30
0.0
 10
102.76547577726
 20
-150.5527397627091
 30
0.0
 10
102.76547577726
 20
-150.5527397627091
 30
0.0
 10
102.7465277520912
 20
-150.7404974666552
 30
0.0
 10
102.7465277520912
 20
-150.7404974666552
 30
0.0
 10
102.7465277520912
 20
-150.7404974666552
 30
0.0
 10
101.9000677913653
 20
-150.6116508955068
 30
0.0
 10
101.9000677913653
 20
-150.6116508955068
 30
0.0
 10
101.9000677913653
 20
-150.6116508955068
 30
0.0
 10
101.9000677913653
 20
-149.779660335819
 30
0.0
 10
101.9000677913653
 20
-149.779660335819
 30
0.0
 10
101.9000677913653
 20
-149.779660335819
 30
0.0
 10
102.0947156862819
 20
-149.779660335819
 30
0.0
 10
102.0947156862819
 20
-149.779660335819
 30
0.0
 10
102.0947156862819
 20
-149.779660335819
 30
0.0
 10
102.0947156862819
 20
-150.4373290639532
 30
0.0
 10
102.0947156862819
 20
-150.4373290639532
 30
0.0
 10
102.0947156862819
 20
-150.4373290639532
 30
0.0
 10
102.5177734118706
 20
-150.5076090118523
 30
0.0
 10
102.5177734118706
 20
-150.5076090118523
 30
0.0
 10
102.4840114761151
 20
-150.4421521976325
 30
0.0
 10
102.4437038589377
 20
-150.3539577532101
 30
0.0
 10
102.4437038589377
 20
-150.2271782393529
 30
0.0
 10
102.4437038589377
 20
-149.9560492246638
 30
0.0
 10
102.6300835246897
 20
-149.7028347064979
 30
0.0
 10
102.9432427042989
 20
-149.7028347064979
 30
0.0
 10
103.2605359984904
 20
-149.7028347064979
 30
0.0
 10
103.4951470010359
 20
-149.9422688427228
 30
0.0
 10
103.4951470010359
 20
-150.2657633087877
 30
0.0
  0
HATCH
  5
CA
330
BA
100
AcDbEntity
  8
_U+30EC_U+30A4_U+30E4_U+30FC 1
 62
   179
420
  2234388
100
AcDbHatch
 10
0.0
 20
0.0
 30
0.0
210
0.0
220
0.0
230
1.0
  2
SOLID
 70
     1
 71
     0
 91
        1
 92
        1
 93
        1
 72
     4
 94
        3
 73
     0
 74
     1
 95
       53
 96
       49
 40
0.0
 40
0.0
 40
0.0
 40
0.0
 40
1.0
 40
1.0
 40
1.0
 40
2.0
 40
2.0
 40
2.0
 40
3.0
 40
3.0
 40
3.0
 40
4.0
 40
4.0
 40
4.0
 40
5.0
 40
5.0
 40
5.0
 40
6.0
 40
6.0
 40
6.0
 40
7.0
 40
7.0
 40
7.0
 40
8.0
 40
8.0
 40
8.0
 40
9.0
 40
9.0
 40
9.0
 40
10.0
 40
10.0
 40
10.0
 40
11.0
 40
11.0
 40
11.0
 40
12.0
 40
12.0
 40
12.0
 40
13.0
 40
13.0
 40
13.0
 40
14.0
 40
14.0
 40
14.0
 40
15.0
 40
15.0
 40
15.0
 40
16.0
 40
16.0
 40
16.0
 40
16.0
 10
103.4951470010359
 20
-150.2657633087877
 10
103.4951470010359
 20
-150.3494791290793
 10
103.4782660331582
 20
-150.4576551273161
 10
103.4148762762296
 20
-150.56652014465
 10
103.3049777302501
 20
-150.7518662817565
 10
103.1737195922621
 20
-150.7742594024106
 10
103.0658881035738
 20
-150.7945854657736
 10
103.0658881035738
 20
-150.7945854657736
 10
103.0658881035738
 20
-150.5572183868399
 10
103.0658881035738
 20
-150.5572183868399
 10
103.2646701130727
 20
-150.4986517635906
 10
103.2942979342459
 20
-150.3629150014718
 10
103.2942979342459
 20
-150.2633517419481
 10
103.2942979342459
 20
-150.1141791074367
 10
103.1947346747222
 20
-149.9512260909844
 10
102.9621907294678
 20
-149.9512260909844
 10
102.7062201349137
 20
-149.9512260909844
 10
102.6362846965632
 20
-150.1434624190614
 10
102.6362846965632
 20
-150.2723089902097
 10
102.6362846965632
 20
-150.3064154355137
 10
102.6362846965632
 20
-150.4576551273161
 10
102.76547577726
 20
-150.5527397627091
 10
102.76547577726
 20
-150.5527397627091
 10
102.7465277520912
 20
-150.7404974666552
 10
102.7465277520912
 20
-150.7404974666552
 10
102.7465277520912
 20
-150.7404974666552
 10
101.9000677913653
 20
-150.6116508955068
 10
101.9000677913653
 20
-150.6116508955068
 10
101.9000677913653
 20
-150.6116508955068
 10
101.9000677913653
 20
-149.779660335819
 10
101.9000677913653
 20
-149.779660335819
 10
101.9000677913653
 20
-149.779660335819
 10
102.0947156862819
 20
-149.779660335819
 10
102.0947156862819
 20
-149.779660335819
 10
102.0947156862819
 20
-149.779660335819
 10
102.0947156862819
 20
-150.4373290639532
 10
102.0947156862819
 20
-150.4373290639532
 10
102.0947156862819
 20
-150.4373290639532
 10
102.5177734118706
 20
-150.5076090118523
 10
102.5177734118706
 20
-150.5076090118523
 10
102.4840114761151
 20
-150.4421521976325
 10
102.4437038589377
 20
-150.3539577532101
 10
102.4437038589377
 20
-150.2271782393529
 10
102.4437038589377
 20
-149.9560492246638
 10
102.6300835246897
 20
-149.7028347064979
 10
102.9432427042989
 20
-149.7028347064979
 10
103.2605359984904
 20
-149.7028347064979
 10
103.4951470010359
 20
-149.9422688427228
 10
103.4951470010359
 20
-150.2657633087877
 97
        0
 97
        0
 75
     2
 76
     1
 98
        0
  0
ENDBLK
  5
BD
330
BA
100
AcDbEntity
  8
0
100
AcDbBlockEnd
  0
BLOCK
  5
DD
330
DB
100
AcDbEntity
  8
0
100
AcDbBlockBegin
  2
block 6
 70
     0
 10
0.0
 20
0.0
 30
0.0
  3
block 6
  1

  0
SPLINE
  5
DF
330
DB
100
AcDbEntity
  8
_U+30EC_U+30A4_U+30E4_U+30FC 1
370
     0
100
AcDbSpline
210
0.0
220
0.0
230
1.0
 70
    11
 71
     3
 72
    26
 73
    22
 74
     0
 42
0.0000000001
 43
0.0000000001
 12
1.0
 22
0.0
 32
0.0
 13
1.0
 23
0.0
 33
0.0
 40
0.0
 40
0.0
 40
0.0
 40
0.0
 40
1.0
 40
1.0
 40
1.0
 40
2.0
 40
2.0
 40
2.0
 40
3.0
 40
3.0
 40
3.0
 40
4.0
 40
4.0
 40
4.0
 40
5.0
 40
5.0
 40
5.0
 40
6.0
 40
6.0
 40
6.0
 40
7.0
 40
7.0
 40
7.0
 40
7.0
 10
119.4449055690971
 20
-140.623285555122
 30
0.0
 10
119.4449055690971
 20
-140.623285555122
 30
0.0
 10
118.3407524660745
 20
-140.623285555122
 30
0.0
 10
118.3407524660745
 20
-140.623285555122
 30
0.0
 10
118.3407524660745
 20
-140.623285555122
 30
0.0
 10
118.3407524660745
 20
-140.9760633328115
 30
0.0
 10
118.3407524660745
 20
-140.9760633328115
 30
0.0
 10
118.3407524660745
 20
-140.9760633328115
 30
0.0
 10
118.1926133602088
 20
-140.9760633328115
 30
0.0
 10
118.1926133602088
 20
-140.9760633328115
 30
0.0
 10
118.1777994496222
 20
-140.6210462430566
 30
0.0
 10
118.0148464331699
 20
-140.5712646132947
 30
0.0
 10
117.9004692630596
 20
-140.5395697348304
 30
0.0
 10
117.9004692630596
 20
-140.5395697348304
 30
0.0
 10
117.9004692630596
 20
-140.3836791641228
 30
0.0
 10
117.9004692630596
 20
-140.3836791641228
 30
0.0
 10
117.9004692630596
 20
-140.3836791641228
 30
0.0
 10
119.4449055690971
 20
-140.3836791641228
 30
0.0
 10
119.4449055690971
 20
-140.3836791641228
 30
0.0
 10
119.4449055690971
 20
-140.3836791641228
 30
0.0
 10
119.4449055690971
 20
-140.623285555122
 30
0.0
 10
119.4449055690971
 20
-140.623285555122
 30
0.0
  0
HATCH
  5
E0
330
DB
100
AcDbEntity
  8
_U+30EC_U+30A4_U+30E4_U+30FC 1
 62
   179
420
  2234388
100
AcDbHatch
 10
0.0
 20
0.0
 30
0.0
210
0.0
220
0.0
230
1.0
  2
SOLID
 70
     1
 71
     0
 91
        1
 92
        1
 93
        1
 72
     4
 94
        3
 73
     0
 74
     1
 95
       26
 96
       22
 40
0.0
 40
0.0
 40
0.0
 40
0.0
 40
1.0
 40
1.0
 40
1.0
 40
2.0
 40
2.0
 40
2.0
 40
3.0
 40
3.0
 40
3.0
 40
4.0
 40
4.0
 40
4.0
 40
5.0
 40
5.0
 40
5.0
 40
6.0
 40
6.0
 40
6.0
 40
7.0
 40
7.0
 40
7.0
 40
7.0
 10
119.4449055690971
 20
-140.623285555122
 10
119.4449055690971
 20
-140.623285555122
 10
118.3407524660745
 20
-140.623285555122
 10
118.3407524660745
 20
-140.623285555122
 10
118.3407524660745
 20
-140.623285555122
 10
118.3407524660745
 20
-140.9760633328115
 10
118.3407524660745
 20
-140.9760633328115
 10
118.3407524660745
 20
-140.9760633328115
 10
118.1926133602088
 20
-140.9760633328115
 10
118.1926133602088
 20
-140.9760633328115
 10
118.1777994496222
 20
-140.6210462430566
 10
118.0148464331699
 20
-140.5712646132947
 10
117.9004692630596
 20
-140.5395697348304
 10
117.9004692630596
 20
-140.5395697348304
 10
117.9004692630596
 20
-140.3836791641228
 10
117.9004692630596
 20
-140.3836791641228
 10
117.9004692630596
 20
-140.3836791641228
 10
119.4449055690971
 20
-140.3836791641228
 10
119.4449055690971
 20
-140.3836791641228
 10
119.4449055690971
 20
-140.3836791641228
 10
119.4449055690971
 20
-140.623285555122
 10
119.4449055690971
 20
-140.623285555122
 97
        0
 97
        0
 75
     2
 76
     1
 98
        0
  0
ENDBLK
  5
DE
330
DB
100
AcDbEntity
  8
0
100
AcDbBlockEnd
  0
BLOCK
  5
EF
330
ED
100
AcDbEntity
  8
0
100
AcDbBlockBegin
  2
block 7
 70
     0
 10
0.0
 20
0.0
 30
0.0
  3
block 7
  1

  0
SPLINE
  5
F1
330
ED
100
AcDbEntity
  8
_U+30EC_U+30A4_U+30E4_U+30FC 1
370
     0
100
AcDbSpline
210
0.0
220
0.0
230
1.0
 70
    11
 71
     3
 72
    32
 73
    28
 74
     0
 42
0.0000000001
 43
0.0000000001
 12
1.0
 22
0.0
 32
0.0
 13
1.0
 23
0.0
 33
0.0
 40
0.0
 40
0.0
 40
0.0
 40
0.0
 40
1.0
 40
1.0
 40
1.0
 40
2.0
 40
2.0
 40
2.0
 40
3.0
 40
3.0
 40
3.0
 40
4.0
 40
4.0
 40
4.0
 40
5.0
 40
5.0
 40
5.0
 40
6.0
 40
6.0
 40
6.0
 40
7.0
 40
7.0
 40
7.0
 40
8.0
 40
8.0
 40
8.0
 40
9.0
 40
9.0
 40
9.0
 40
9.0
 10
119.4955484727303
 20
-150.2843668244081
 30
0.0
 10
119.4955484727303
 20
-150.4697129615145
 30
0.0
 10
119.4259575439282
 20
-150.731884727942
 30
0.0
 10
119.0938503391502
 20
-150.772536854668
 30
0.0
 10
119.0938503391502
 20
-150.772536854668
 30
0.0
 10
119.0938503391502
 20
-150.5444715335445
 30
0.0
 10
119.0938503391502
 20
-150.5444715335445
 30
0.0
 10
119.1531059814965
 20
-150.5331027184431
 30
0.0
 10
119.3009005778137
 20
-150.4989962731391
 30
0.0
 10
119.3009005778137
 20
-150.2819552575684
 30
0.0
 10
119.3009005778137
 20
-149.9701741161533
 30
0.0
 10
118.9708604303267
 20
-149.9295219894273
 30
0.0
 10
118.7658772489544
 20
-149.9157416074864
 30
0.0
 10
118.8461479737607
 20
-150.0128933001704
 30
0.0
 10
118.9033365588158
 20
-150.0852403053606
 30
0.0
 10
118.9033365588158
 20
-150.2798882002773
 30
0.0
 10
118.9033365588158
 20
-150.4721245283542
 30
0.0
 10
118.7975721274187
 20
-150.7952744848706
 30
0.0
 10
118.3913953697077
 20
-150.7952744848706
 30
0.0
 10
118.0720350182251
 20
-150.7952744848706
 30
0.0
 10
117.8518934167176
 20
-150.5827120934307
 30
0.0
 10
117.8518934167176
 20
-150.2437146976821
 30
0.0
 10
117.8518934167176
 20
-149.6942219677848
 30
0.0
 10
118.4062092802943
 20
-149.6828531526835
 30
0.0
 10
118.6198052003798
 20
-149.6828531526835
 30
0.0
 10
118.850282088343
 20
-149.6828531526835
 30
0.0
 10
119.4955484727303
 20
-149.7031792160464
 30
0.0
 10
119.4955484727303
 20
-150.2843668244081
 30
0.0
  0
SPLINE
  5
F2
330
ED
100
AcDbEntity
  8
_U+30EC_U+30A4_U+30E4_U+30FC 1
370
     0
100
AcDbSpline
210
0.0
220
0.0
230
1.0
 70
    11
 71
     3
 72
    17
 73
    13
 74
     0
 42
0.0000000001
 43
0.0000000001
 12
1.0
 22
0.0
 32
0.0
 13
1.0
 23
0.0
 33
0.0
 40
0.0
 40
0.0
 40
0.0
 40
0.0
 40
1.0
 40
1.0
 40
1.0
 40
2.0
 40
2.0
 40
2.0
 40
3.0
 40
3.0
 40
3.0
 40
4.0
 40
4.0
 40
4.0
 40
4.0
 10
118.0444742543431
 20
-150.2413031308425
 30
0.0
 10
118.0444742543431
 20
-150.3680826446997
 30
0.0
 10
118.1016628393982
 20
-150.5554958390972
 30
0.0
 10
118.3872612551254
 20
-150.5554958390972
 30
0.0
 10
118.6136040285063
 20
-150.5554958390972
 30
0.0
 10
118.7086886638992
 20
-150.4063232045859
 30
0.0
 10
118.7086886638992
 20
-150.2616291942054
 30
0.0
 10
118.7086886638992
 20
-149.9815429312546
 30
0.0
 10
118.499226858396
 20
-149.9405462949802
 30
0.0
 10
118.3827826309946
 20
-149.9405462949802
 30
0.0
 10
118.2074272707954
 20
-149.9405462949802
 30
0.0
 10
118.0444742543431
 20
-150.0425211213436
 30
0.0
 10
118.0444742543431
 20
-150.2413031308425
 30
0.0
  0
HATCH
  5
F3
330
ED
100
AcDbEntity
  8
_U+30EC_U+30A4_U+30E4_U+30FC 1
 62
   179
420
  2234388
100
AcDbHatch
 10
0.0
 20
0.0
 30
0.0
210
0.0
220
0.0
230
1.0
  2
SOLID
 70
     1
 71
     0
 91
        2
 92
        1
 93
        1
 72
     4
 94
        3
 73
     0
 74
     1
 95
       32
 96
       28
 40
0.0
 40
0.0
 40
0.0
 40
0.0
 40
1.0
 40
1.0
 40
1.0
 40
2.0
 40
2.0
 40
2.0
 40
3.0
 40
3.0
 40
3.0
 40
4.0
 40
4.0
 40
4.0
 40
5.0
 40
5.0
 40
5.0
 40
6.0
 40
6.0
 40
6.0
 40
7.0
 40
7.0
 40
7.0
 40
8.0
 40
8.0
 40
8.0
 40
9.0
 40
9.0
 40
9.0
 40
9.0
 10
119.4955484727303
 20
-150.2843668244081
 10
119.4955484727303
 20
-150.4697129615145
 10
119.4259575439282
 20
-150.731884727942
 10
119.0938503391502
 20
-150.772536854668
 10
119.0938503391502
 20
-150.772536854668
 10
119.0938503391502
 20
-150.5444715335445
 10
119.0938503391502
 20
-150.5444715335445
 10
119.1531059814965
 20
-150.5331027184431
 10
119.3009005778137
 20
-150.4989962731391
 10
119.3009005778137
 20
-150.2819552575684
 10
119.3009005778137
 20
-149.9701741161533
 10
118.9708604303267
 20
-149.9295219894273
 10
118.7658772489544
 20
-149.9157416074864
 10
118.8461479737607
 20
-150.0128933001704
 10
118.9033365588158
 20
-150.0852403053606
 10
118.9033365588158
 20
-150.2798882002773
 10
118.9033365588158
 20
-150.4721245283542
 10
118.7975721274187
 20
-150.7952744848706
 10
118.3913953697077
 20
-150.7952744848706
 10
118.0720350182251
 20
-150.7952744848706
 10
117.8518934167176
 20
-150.5827120934307
 10
117.8518934167176
 20
-150.2437146976821
 10
117.8518934167176
 20
-149.6942219677848
 10
118.4062092802943
 20
-149.6828531526835
 10
118.6198052003798
 20
-149.6828531526835
 10
118.850282088343
 20
-149.6828531526835
 10
119.4955484727303
 20
-149.7031792160464
 10
119.4955484727303
 20
-150.2843668244081
 97
        0
 97
        0
 92
        1
 93
        1
 72
     4
 94
        3
 73
     0
 74
     1
 95
       17
 96
       13
 40
0.0
 40
0.0
 40
0.0
 40
0.0
 40
1.0
 40
1.0
 40
1.0
 40
2.0
 40
2.0
 40
2.0
 40
3.0
 40
3.0
 40
3.0
 40
4.0
 40
4.0
 40
4.0
 40
4.0
 10
118.0444742543431
 20
-150.2413031308425
 10
118.0444742543431
 20
-150.3680826446997
 10
118.1016628393982
 20
-150.5554958390972
 10
118.3872612551254
 20
-150.5554958390972
 10
118.6136040285063
 20
-150.5554958390972
 10
118.7086886638992
 20
-150.4063232045859
 10
118.7086886638992
 20
-150.2616291942054
 10
118.7086886638992
 20
-149.9815429312546
 10
118.499226858396
 20
-149.9405462949802
 10
118.3827826309946
 20
-149.9405462949802
 10
118.2074272707954
 20
-149.9405462949802
 10
118.0444742543431
 20
-150.0425211213436
 10
118.0444742543431
 20
-150.2413031308425
 97
        0
 97
        0
 75
     2
 76
     1
 98
        0
  0
POLYLINE
  5
F4
330
ED
100
AcDbEntity
  8
_U+30EC_U+30A4_U+30E4_U+30FC 1
370
     0
100
AcDb2dPolyline
 66
     1
 10
0.0
 20
0.0
 30
0.0
  0
VERTEX
  5
F5
330
F4
100
AcDbEntity
  8
_U+30EC_U+30A4_U+30E4_U+30FC 1
370
     0
100
AcDbVertex
100
AcDb2dVertex
 10
119.4449055690971
 20
-149.4516872456232
 30
0.0
  0
VERTEX
  5
F6
330
F4
100
AcDbEntity
  8
_U+30EC_U+30A4_U+30E4_U+30FC 1
370
     0
100
AcDbVertex
100
AcDb2dVertex
 10
119.1930690891253
 20
-149.4516872456232
 30
0.0
  0
VERTEX
  5
F7
330
F4
100
AcDbEntity
  8
_U+30EC_U+30A4_U+30E4_U+30FC 1
370
     0
100
AcDbVertex
100
AcDb2dVertex
 10
119.1930690891253
 20
-149.1826252882252
 30
0.0
  0
VERTEX
  5
F8
330
F4
100
AcDbEntity
  8
_U+30EC_U+30A4_U+30E4_U+30FC 1
370
     0
100
AcDbVertex
100
AcDb2dVertex
 10
119.4449055690971
 20
-149.1826252882252
 30
0.0
  0
VERTEX
  5
F9
330
F4
100
AcDbEntity
  8
_U+30EC_U+30A4_U+30E4_U+30FC 1
370
     0
100
AcDbVertex
100
AcDb2dVertex
 10
119.4449055690971
 20
-149.4516872456232
 30
0.0
  0
SEQEND
  5
FA
330
F4
100
AcDbEntity
  8
_U+30EC_U+30A4_U+30E4_U+30FC 1
370
     0
  0
HATCH
  5
FB
330
ED
100
AcDbEntity
  8
_U+30EC_U+30A4_U+30E4_U+30FC 1
 62
   179
420
  2234388
100
AcDbHatch
 10
0.0
 20
0.0
 30
0.0
210
0.0
220
0.0
230
1.0
  2
SOLID
 70
     1
 71
     0
 91
        1
 92
        1
 93
        4
 72
     1
 10
119.4449055690971
 20
-149.4516872456232
 11
119.1930690891253
 21
-149.4516872456232
 72
     1
 10
119.1930690891253
 20
-149.4516872456232
 11
119.1930690891253
 21
-149.1826252882252
 72
     1
 10
119.1930690891253
 20
-149.1826252882252
 11
119.4449055690971
 21
-149.1826252882252
 72
     1
 10
119.4449055690971
 20
-149.1826252882252
 11
119.4449055690971
 21
-149.4516872456232
 97
        0
 75
     2
 76
     1
 98
        0
  0
SPLINE
  5
FC
330
ED
100
AcDbEntity
  8
_U+30EC_U+30A4_U+30E4_U+30FC 1
370
     0
100
AcDbSpline
210
0.0
220
0.0
230
1.0
 70
    11
 71
     3
 72
    26
 73
    22
 74
     0
 42
0.0000000001
 43
0.0000000001
 12
1.0
 22
0.0
 32
0.0
 13
1.0
 23
0.0
 33
0.0
 40
0.0
 40
0.0
 40
0.0
 40
0.0
 40
1.0
 40
1.0
 40
1.0
 40
2.0
 40
2.0
 40
2.0
 40
3.0
 40
3.0
 40
3.0
 40
4.0
 40
4.0
 40
4.0
 40
5.0
 40
5.0
 40
5.0
 40
6.0
 40
6.0
 40
6.0
 40
7.0
 40
7.0
 40
7.0
 40
7.0
 10
119.4449055690971
 20
-148.49016109569
 30
0.0
 10
119.4449055690971
 20
-148.49016109569
 30
0.0
 10
119.4449055690971
 20
-148.7433756138558
 30
0.0
 10
119.4449055690971
 20
-148.7433756138558
 30
0.0
 10
119.1358805040702
 20
-148.7165038690709
 30
0.0
 10
118.6177381430886
 20
-148.5104871590529
 30
0.0
 10
118.1119981258539
 20
-148.0764051279115
 30
0.0
 10
118.1119981258539
 20
-148.0764051279115
 30
0.0
 10
118.1119981258539
 20
-148.9717854445279
 30
0.0
 10
118.1119981258539
 20
-148.9717854445279
 30
0.0
 10
118.1119981258539
 20
-148.9717854445279
 30
0.0
 10
117.9004692630596
 20
-148.9717854445279
 30
0.0
 10
117.9004692630596
 20
-148.9717854445279
 30
0.0
 10
117.9004692630596
 20
-148.9717854445279
 30
0.0
 10
117.9004692630596
 20
-147.8231906097456
 30
0.0
 10
117.9004692630596
 20
-147.8231906097456
 30
0.0
 10
117.9004692630596
 20
-147.8231906097456
 30
0.0
 10
118.1119981258539
 20
-147.8231906097456
 30
0.0
 10
118.1119981258539
 20
-147.8231906097456
 30
0.0
 10
118.402075165712
 20
-148.1690781964647
 30
0.0
 10
118.9942870796264
 20
-148.4539875930948
 30
0.0
 10
119.4449055690971
 20
-148.49016109569
 30
0.0
  0
HATCH
  5
FD
330
ED
100
AcDbEntity
  8
_U+30EC_U+30A4_U+30E4_U+30FC 1
 62
   179
420
  2234388
100
AcDbHatch
 10
0.0
 20
0.0
 30
0.0
210
0.0
220
0.0
230
1.0
  2
SOLID
 70
     1
 71
     0
 91
        1
 92
        1
 93
        1
 72
     4
 94
        3
 73
     0
 74
     1
 95
       26
 96
       22
 40
0.0
 40
0.0
 40
0.0
 40
0.0
 40
1.0
 40
1.0
 40
1.0
 40
2.0
 40
2.0
 40
2.0
 40
3.0
 40
3.0
 40
3.0
 40
4.0
 40
4.0
 40
4.0
 40
5.0
 40
5.0
 40
5.0
 40
6.0
 40
6.0
 40
6.0
 40
7.0
 40
7.0
 40
7.0
 40
7.0
 10
119.4449055690971
 20
-148.49016109569
 10
119.4449055690971
 20
-148.49016109569
 10
119.4449055690971
 20
-148.7433756138558
 10
119.4449055690971
 20
-148.7433756138558
 10
119.1358805040702
 20
-148.7165038690709
 10
118.6177381430886
 20
-148.5104871590529
 10
118.1119981258539
 20
-148.0764051279115
 10
118.1119981258539
 20
-148.0764051279115
 10
118.1119981258539
 20
-148.9717854445279
 10
118.1119981258539
 20
-148.9717854445279
 10
118.1119981258539
 20
-148.9717854445279
 10
117.9004692630596
 20
-148.9717854445279
 10
117.9004692630596
 20
-148.9717854445279
 10
117.9004692630596
 20
-148.9717854445279
 10
117.9004692630596
 20
-147.8231906097456
 10
117.9004692630596
 20
-147.8231906097456
 10
117.9004692630596
 20
-147.8231906097456
 10
118.1119981258539
 20
-147.8231906097456
 10
118.1119981258539
 20
-147.8231906097456
 10
118.402075165712
 20
-148.1690781964647
 10
118.9942870796264
 20
-148.4539875930948
 10
119.4449055690971
 20
-148.49016109569
 97
        0
 97
        0
 75
     2
 76
     1
 98
        0
  0
ENDBLK
  5
F0
330
ED
100
AcDbEntity
  8
0
100
AcDbBlockEnd
  0
BLOCK
  5
10C
330
10A
100
AcDbEntity
  8
0
100
AcDbBlockBegin
  2
block 8
 70
     0
 10
0.0
 20
0.0
 30
0.0
  3
block 8
  1

  0
SPLINE
  5
10E
330
10A
100
AcDbEntity
  8
_U+30EC_U+30A4_U+30E4_U+30FC 1
370
     0
100
AcDbSpline
210
0.0
220
0.0
230
1.0
 70
    11
 71
     3
 72
    26
 73
    22
 74
     0
 42
0.0000000001
 43
0.0000000001
 12
1.0
 22
0.0
 32
0.0
 13
1.0
 23
0.0
 33
0.0
 40
0.0
 40
0.0
 40
0.0
 40
0.0
 40
1.0
 40
1.0
 40
1.0
 40
2.0
 40
2.0
 40
2.0
 40
3.0
 40
3.0
 40
3.0
 40
4.0
 40
4.0
 40
4.0
 40
5.0
 40
5.0
 40
5.0
 40
6.0
 40
6.0
 40
6.0
 40
7.0
 40
7.0
 40
7.0
 40
7.0
 10
91.44454750318053
 20
-150.8087103572631
 30
0.0
 10
91.44454750318053
 20
-150.8087103572631
 30
0.0
 10
90.34039440015796
 20
-150.8087103572631
 30
0.0
 10
90.34039440015796
 20
-150.8087103572631
 30
0.0
 10
90.34039440015796
 20
-150.8087103572631
 30
0.0
 10
90.34039440015796
 20
-151.1611436254042
 30
0.0
 10
90.34039440015796
 20
-151.1611436254042
 30
0.0
 10
90.34039440015796
 20
-151.1611436254042
 30
0.0
 10
90.19225529429222
 20
-151.1611436254042
 30
0.0
 10
90.19225529429222
 20
-151.1611436254042
 30
0.0
 10
90.17744138370564
 20
-150.8062987904234
 30
0.0
 10
90.01448836725332
 20
-150.7566894154358
 30
0.0
 10
89.90028345191729
 20
-150.7249945369715
 30
0.0
 10
89.90028345191729
 20
-150.7249945369715
 30
0.0
 10
89.90028345191729
 20
-150.5689317114897
 30
0.0
 10
89.90028345191729
 20
-150.5689317114897
 30
0.0
 10
89.90028345191729
 20
-150.5689317114897
 30
0.0
 10
91.44454750318053
 20
-150.5689317114897
 30
0.0
 10
91.44454750318053
 20
-150.5689317114897
 30
0.0
 10
91.44454750318053
 20
-150.5689317114897
 30
0.0
 10
91.44454750318053
 20
-150.8087103572631
 30
0.0
 10
91.44454750318053
 20
-150.8087103572631
 30
0.0
  0
HATCH
  5
10F
330
10A
100
AcDbEntity
  8
_U+30EC_U+30A4_U+30E4_U+30FC 1
 62
   179
420
  2234388
100
AcDbHatch
 10
0.0
 20
0.0
 30
0.0
210
0.0
220
0.0
230
1.0
  2
SOLID
 70
     1
 71
     0
 91
        1
 92
        1
 93
        1
 72
     4
 94
        3
 73
     0
 74
     1
 95
       26
 96
       22
 40
0.0
 40
0.0
 40
0.0
 40
0.0
 40
1.0
 40
1.0
 40
1.0
 40
2.0
 40
2.0
 40
2.0
 40
3.0
 40
3.0
 40
3.0
 40
4.0
 40
4.0
 40
4.0
 40
5.0
 40
5.0
 40
5.0
 40
6.0
 40
6.0
 40
6.0
 40
7.0
 40
7.0
 40
7.0
 40
7.0
 10
91.44454750318053
 20
-150.8087103572631
 10
91.44454750318053
 20
-150.8087103572631
 10
90.34039440015796
 20
-150.8087103572631
 10
90.34039440015796
 20
-150.8087103572631
 10
90.34039440015796
 20
-150.8087103572631
 10
90.34039440015796
 20
-151.1611436254042
 10
90.34039440015796
 20
-151.1611436254042
 10
90.34039440015796
 20
-151.1611436254042
 10
90.19225529429222
 20
-151.1611436254042
 10
90.19225529429222
 20
-151.1611436254042
 10
90.17744138370564
 20
-150.8062987904234
 10
90.01448836725332
 20
-150.7566894154358
 10
89.90028345191729
 20
-150.7249945369715
 10
89.90028345191729
 20
-150.7249945369715
 10
89.90028345191729
 20
-150.5689317114897
 10
89.90028345191729
 20
-150.5689317114897
 10
89.90028345191729
 20
-150.5689317114897
 10
91.44454750318053
 20
-150.5689317114897
 10
91.44454750318053
 20
-150.5689317114897
 10
91.44454750318053
 20
-150.5689317114897
 10
91.44454750318053
 20
-150.8087103572631
 10
91.44454750318053
 20
-150.8087103572631
 97
        0
 97
        0
 75
     2
 76
     1
 98
        0
  0
SPLINE
  5
110
330
10A
100
AcDbEntity
  8
_U+30EC_U+30A4_U+30E4_U+30FC 1
370
     0
100
AcDbSpline
210
0.0
220
0.0
230
1.0
 70
    11
 71
     3
 72
    26
 73
    22
 74
     0
 42
0.0000000001
 43
0.0000000001
 12
1.0
 22
0.0
 32
0.0
 13
1.0
 23
0.0
 33
0.0
 40
0.0
 40
0.0
 40
0.0
 40
0.0
 40
1.0
 40
1.0
 40
1.0
 40
2.0
 40
2.0
 40
2.0
 40
3.0
 40
3.0
 40
3.0
 40
4.0
 40
4.0
 40
4.0
 40
5.0
 40
5.0
 40
5.0
 40
6.0
 40
6.0
 40
6.0
 40
7.0
 40
7.0
 40
7.0
 40
7.0
 10
91.44454750318053
 20
-149.5509059955984
 30
0.0
 10
91.44454750318053
 20
-149.5509059955984
 30
0.0
 10
90.34039440015796
 20
-149.5509059955984
 30
0.0
 10
90.34039440015796
 20
-149.5509059955984
 30
0.0
 10
90.34039440015796
 20
-149.5509059955984
 30
0.0
 10
90.34039440015796
 20
-149.9033392637394
 30
0.0
 10
90.34039440015796
 20
-149.9033392637394
 30
0.0
 10
90.34039440015796
 20
-149.9033392637394
 30
0.0
 10
90.19225529429222
 20
-149.9033392637394
 30
0.0
 10
90.19225529429222
 20
-149.9033392637394
 30
0.0
 10
90.17744138370564
 20
-149.5484944287587
 30
0.0
 10
90.01448836725332
 20
-149.4988850537711
 30
0.0
 10
89.90028345191729
 20
-149.4671901753068
 30
0.0
 10
89.90028345191729
 20
-149.4671901753068
 30
0.0
 10
89.90028345191729
 20
-149.311127349825
 30
0.0
 10
89.90028345191729
 20
-149.311127349825
 30
0.0
 10
89.90028345191729
 20
-149.311127349825
 30
0.0
 10
91.44454750318053
 20
-149.311127349825
 30
0.0
 10
91.44454750318053
 20
-149.311127349825
 30
0.0
 10
91.44454750318053
 20
-149.311127349825
 30
0.0
 10
91.44454750318053
 20
-149.5509059955984
 30
0.0
 10
91.44454750318053
 20
-149.5509059955984
 30
0.0
  0
HATCH
  5
111
330
10A
100
AcDbEntity
  8
_U+30EC_U+30A4_U+30E4_U+30FC 1
 62
   179
420
  2234388
100
AcDbHatch
 10
0.0
 20
0.0
 30
0.0
210
0.0
220
0.0
230
1.0
  2
SOLID
 70
     1
 71
     0
 91
        1
 92
        1
 93
        1
 72
     4
 94
        3
 73
     0
 74
     1
 95
       26
 96
       22
 40
0.0
 40
0.0
 40
0.0
 40
0.0
 40
1.0
 40
1.0
 40
1.0
 40
2.0
 40
2.0
 40
2.0
 40
3.0
 40
3.0
 40
3.0
 40
4.0
 40
4.0
 40
4.0
 40
5.0
 40
5.0
 40
5.0
 40
6.0
 40
6.0
 40
6.0
 40
7.0
 40
7.0
 40
7.0
 40
7.0
 10
91.44454750318053
 20
-149.5509059955984
 10
91.44454750318053
 20
-149.5509059955984
 10
90.34039440015796
 20
-149.5509059955984
 10
90.34039440015796
 20
-149.5509059955984
 10
90.34039440015796
 20
-149.5509059955984
 10
90.34039440015796
 20
-149.9033392637394
 10
90.34039440015796
 20
-149.9033392637394
 10
90.34039440015796
 20
-149.9033392637394
 10
90.19225529429222
 20
-149.9033392637394
 10
90.19225529429222
 20
-149.9033392637394
 10
90.17744138370564
 20
-149.5484944287587
 10
90.01448836725332
 20
-149.4988850537711
 10
89.90028345191729
 20
-149.4671901753068
 10
89.90028345191729
 20
-149.4671901753068
 10
89.90028345191729
 20
-149.311127349825
 10
89.90028345191729
 20
-149.311127349825
 10
89.90028345191729
 20
-149.311127349825
 10
91.44454750318053
 20
-149.311127349825
 10
91.44454750318053
 20
-149.311127349825
 10
91.44454750318053
 20
-149.311127349825
 10
91.44454750318053
 20
-149.5509059955984
 10
91.44454750318053
 20
-149.5509059955984
 97
        0
 97
        0
 75
     2
 76
     1
 98
        0
  0
POLYLINE
  5
112
330
10A
100
AcDbEntity
  8
_U+30EC_U+30A4_U+30E4_U+30FC 1
370
     0
100
AcDb2dPolyline
 66
     1
 10
0.0
 20
0.0
 30
0.0
  0
VERTEX
  5
113
330
112
100
AcDbEntity
  8
_U+30EC_U+30A4_U+30E4_U+30FC 1
370
     0
100
AcDbVertex
100
AcDb2dVertex
 10
91.44454750318053
 20
-148.711336225843
 30
0.0
  0
VERTEX
  5
114
330
112
100
AcDbEntity
  8
_U+30EC_U+30A4_U+30E4_U+30FC 1
370
     0
100
AcDbVertex
100
AcDb2dVertex
 10
91.19271102320877
 20
-148.711336225843
 30
0.0
  0
VERTEX
  5
115
330
112
100
AcDbEntity
  8
_U+30EC_U+30A4_U+30E4_U+30FC 1
370
     0
100
AcDbVertex
100
AcDb2dVertex
 10
91.19271102320877
 20
-148.442274268445
 30
0.0
  0
VERTEX
  5
116
330
112
100
AcDbEntity
  8
_U+30EC_U+30A4_U+30E4_U+30FC 1
370
     0
100
AcDbVertex
100
AcDb2dVertex
 10
91.44454750318053
 20
-148.442274268445
 30
0.0
  0
VERTEX
  5
117
330
112
100
AcDbEntity
  8
_U+30EC_U+30A4_U+30E4_U+30FC 1
370
     0
100
AcDbVertex
100
AcDb2dVertex
 10
91.44454750318053
 20
-148.711336225843
 30
0.0
  0
SEQEND
  5
118
330
112
100
AcDbEntity
  8
_U+30EC_U+30A4_U+30E4_U+30FC 1
370
     0
  0
HATCH
  5
119
330
10A
100
AcDbEntity
  8
_U+30EC_U+30A4_U+30E4_U+30FC 1
 62
   179
420
  2234388
100
AcDbHatch
 10
0.0
 20
0.0
 30
0.0
210
0.0
220
0.0
230
1.0
  2
SOLID
 70
     1
 71
     0
 91
        1
 92
        1
 93
        4
 72
     1
 10
91.44454750318053
 20
-148.711336225843
 11
91.19271102320877
 21
-148.711336225843
 72
     1
 10
91.19271102320877
 20
-148.711336225843
 11
91.19271102320877
 21
-148.442274268445
 72
     1
 10
91.19271102320877
 20
-148.442274268445
 11
91.44454750318053
 21
-148.442274268445
 72
     1
 10
91.44454750318053
 20
-148.442274268445
 11
91.44454750318053
 21
-148.711336225843
 97
        0
 75
     2
 76
     1
 98
        0
  0
SPLINE
  5
11A
330
10A
100
AcDbEntity
  8
_U+30EC_U+30A4_U+30E4_U+30FC 1
370
     0
100
AcDbSpline
210
0.0
220
0.0
230
1.0
 70
    11
 71
     3
 72
    26
 73
    22
 74
     0
 42
0.0000000001
 43
0.0000000001
 12
1.0
 22
0.0
 32
0.0
 13
1.0
 23
0.0
 33
0.0
 40
0.0
 40
0.0
 40
0.0
 40
0.0
 40
1.0
 40
1.0
 40
1.0
 40
2.0
 40
2.0
 40
2.0
 40
3.0
 40
3.0
 40
3.0
 40
4.0
 40
4.0
 40
4.0
 40
5.0
 40
5.0
 40
5.0
 40
6.0
 40
6.0
 40
6.0
 40
7.0
 40
7.0
 40
7.0
 40
7.0
 10
91.44454750318053
 20
-147.7498100759098
 30
0.0
 10
91.44454750318053
 20
-147.7498100759098
 30
0.0
 10
91.44454750318053
 20
-148.0030245940756
 30
0.0
 10
91.44454750318053
 20
-148.0030245940756
 30
0.0
 10
91.13552243815363
 20
-147.9758083397422
 30
0.0
 10
90.61738007717204
 20
-147.7701361392728
 30
0.0
 10
90.11164005993737
 20
-147.3360541081313
 30
0.0
 10
90.11164005993737
 20
-147.3360541081313
 30
0.0
 10
90.11164005993737
 20
-148.2314344247477
 30
0.0
 10
90.11164005993737
 20
-148.2314344247477
 30
0.0
 10
90.11164005993737
 20
-148.2314344247477
 30
0.0
 10
89.90028345191729
 20
-148.2314344247477
 30
0.0
 10
89.90028345191729
 20
-148.2314344247477
 30
0.0
 10
89.90028345191729
 20
-148.2314344247477
 30
0.0
 10
89.90028345191729
 20
-147.0828395899654
 30
0.0
 10
89.90028345191729
 20
-147.0828395899654
 30
0.0
 10
89.90028345191729
 20
-147.0828395899654
 30
0.0
 10
90.11164005993737
 20
-147.0828395899654
 30
0.0
 10
90.11164005993737
 20
-147.0828395899654
 30
0.0
 10
90.4017170997954
 20
-147.4287271766845
 30
0.0
 10
90.99392901370986
 20
-147.7136365733147
 30
0.0
 10
91.44454750318053
 20
-147.7498100759098
 30
0.0
  0
HATCH
  5
11B
330
10A
100
AcDbEntity
  8
_U+30EC_U+30A4_U+30E4_U+30FC 1
 62
   179
420
  2234388
100
AcDbHatch
 10
0.0
 20
0.0
 30
0.0
210
0.0
220
0.0
230
1.0
  2
SOLID
 70
     1
 71
     0
 91
        1
 92
        1
 93
        1
 72
     4
 94
        3
 73
     0
 74
     1
 95
       26
 96
       22
 40
0.0
 40
0.0
 40
0.0
 40
0.0
 40
1.0
 40
1.0
 40
1.0
 40
2.0
 40
2.0
 40
2.0
 40
3.0
 40
3.0
 40
3.0
 40
4.0
 40
4.0
 40
4.0
 40
5.0
 40
5.0
 40
5.0
 40
6.0
 40
6.0
 40
6.0
 40
7.0
 40
7.0
 40
7.0
 40
7.0
 10
91.44454750318053
 20
-147.7498100759098
 10
91.44454750318053
 20
-147.7498100759098
 10
91.44454750318053
 20
-148.0030245940756
 10
91.44454750318053
 20
-148.0030245940756
 10
91.13552243815363
 20
-147.9758083397422
 10
90.61738007717204
 20
-147.7701361392728
 10
90.11164005993737
 20
-147.3360541081313
 10
90.11164005993737
 20
-147.3360541081313
 10
90.11164005993737
 20
-148.2314344247477
 10
90.11164005993737
 20
-148.2314344247477
 10
90.11164005993737
 20
-148.2314344247477
 10
89.90028345191729
 20
-148.2314344247477
 10
89.90028345191729
 20
-148.2314344247477
 10
89.90028345191729
 20
-148.2314344247477
 10
89.90028345191729
 20
-147.0828395899654
 10
89.90028345191729
 20
-147.0828395899654
 10
89.90028345191729
 20
-147.0828395899654
 10
90.11164005993737
 20
-147.0828395899654
 10
90.11164005993737
 20
-147.0828395899654
 10
90.4017170997954
 20
-147.4287271766845
 10
90.99392901370986
 20
-147.7136365733147
 10
91.44454750318053
 20
-147.7498100759098
 97
        0
 97
        0
 75
     2
 76
     1
 98
        0
  0
ENDBLK
  5
10D
330
10A
100
AcDbEntity
  8
0
100
AcDbBlockEnd
  0
ENDSEC
  0
SECTION
  2
ENTITIES
  0
INSERT
  5
42
330
1F
100
AcDbEntity
  8
_U+30EC_U+30A4_U+30E4_U+30FC 1
100
AcDbBlockReference
  2
block 2
 10
0.0
 20
0.0
 30
0.0
  0
ENDSEC
  0
SECTION
  2
OBJECTS
  0
DICTIONARY
  5
C
330
0
100
AcDbDictionary
281
     1
  3
ACAD_GROUP
350
D
  3
ACAD_LAYOUT
350
1A
  3
ACAD_MATERIAL
350
3B
  3
ACAD_MLEADERSTYLE
350
11D
  3
ACAD_MLINESTYLE
350
17
  3
ACAD_PLOTSETTINGS
350
19
  3
ACAD_PLOTSTYLENAME
350
E
  3
ACAD_TABLESTYLE
350
11C
  3
ACAD_VISUALSTYLE
350
2A
  0
SUN
  5
3F
330
29
100
AcDbSun
 90
        1
290
     0
 63
     7
421
 16777215
 40
1.0
291
     1
 91
  2455826
 92
 54000000
292
     0
 70
     2
 71
   256
280
     1
  0
DICTIONARY
  5
D
102
{ACAD_REACTORS
330
C
102
}
330
C
100
AcDbDictionary
281
     1
  0
DICTIONARY
  5
1A
102
{ACAD_REACTORS
330
C
102
}
330
C
100
AcDbDictionary
281
     1
  3
Layout1
350
1E
  3
Layout2
350
26
  3
Model
350
22
  0
DICTIONARY
  5
3B
102
{ACAD_REACTORS
330
C
102
}
330
C
100
AcDbDictionary
281
     1
  3
ByBlock
350
3D
  3
ByLayer
350
3C
  3
Global
350
3E
  0
DICTIONARY
  5
11D
102
{ACAD_REACTORS
330
C
102
}
330
C
100
AcDbDictionary
281
     1
  0
DICTIONARY
  5
17
102
{ACAD_REACTORS
330
C
102
}
330
C
100
AcDbDictionary
281
     1
  3
Standard
350
18
  0
DICTIONARY
  5
19
102
{ACAD_REACTORS
330
C
102
}
330
C
100
AcDbDictionary
281
     1
  0
ACDBDICTIONARYWDFLT
  5
E
102
{ACAD_REACTORS
330
C
102
}
330
C
100
AcDbDictionary
281
     1
  3
Normal
350
F
100
AcDbDictionaryWithDefault
340
F
  0
DICTIONARY
  5
11C
102
{ACAD_REACTORS
330
C
102
}
330
C
100
AcDbDictionary
281
     1
  0
DICTIONARY
  5
2A
102
{ACAD_REACTORS
330
C
102
}
330
C
100
AcDbDictionary
281
     1
  3
2dWireframe
350
2F
  3
3D Hidden
350
31
  3
3dWireframe
350
30
  3
Basic
350
32
  3
Brighten
350
36
  3
ColorChange
350
3A
  3
Conceptual
350
34
  3
Dim
350
35
  3
Facepattern
350
39
  3
Flat
350
2B
  3
FlatWithEdges
350
2C
  3
Gouraud
350
2D
  3
GouraudWithEdges
350
2E
  3
Linepattern
350
38
  3
Realistic
350
33
  3
Thicken
350
37
  0
LAYOUT
  5
1E
102
{ACAD_REACTORS
330
1A
102
}
330
1A
100
AcDbPlotSettings
  1

  2
none_device
  4

  6

 40
0.0
 41
0.0
 42
0.0
 43
0.0
 44
0.0
 45
0.0
 46
0.0
 47
0.0
 48
0.0
 49
0.0
140
0.0
141
0.0
142
1.0
143
1.0
 70
   688
 72
     0
 73
     0
 74
     5
  7

 75
    16
 76
     0
 77
     2
 78
   300
147
1.0
148
0.0
149
0.0
100
AcDbLayout
  1
Layout1
 70
     1
 71
     1
 10
0.0
 20
0.0
 11
12.0
 21
9.0
 12
0.0
 22
0.0
 32
0.0
 14
1.000000000000000E+20
 24
1.000000000000000E+20
 34
1.000000000000000E+20
 15
-1.000000000000000E+20
 25
-1.000000000000000E+20
 35
-1.000000000000000E+20
146
0.0
 13
0.0
 23
0.0
 33
0.0
 16
1.0
 26
0.0
 36
0.0
 17
0.0
 27
1.0
 37
0.0
 76
     0
330
1B
  0
LAYOUT
  5
26
102
{ACAD_REACTORS
330
1A
102
}
330
1A
100
AcDbPlotSettings
  1

  2
none_device
  4

  6

 40
0.0
 41
0.0
 42
0.0
 43
0.0
 44
0.0
 45
0.0
 46
0.0
 47
0.0
 48
0.0
 49
0.0
140
0.0
141
0.0
142
1.0
143
1.0
 70
   688
 72
     0
 73
     0
 74
     5
  7

 75
    16
 76
     0
 77
     2
 78
   300
147
1.0
148
0.0
149
0.0
100
AcDbLayout
  1
Layout2
 70
     1
 71
     2
 10
0.0
 20
0.0
 11
0.0
 21
0.0
 12
0.0
 22
0.0
 32
0.0
 14
0.0
 24
0.0
 34
0.0
 15
0.0
 25
0.0
 35
0.0
146
0.0
 13
0.0
 23
0.0
 33
0.0
 16
1.0
 26
0.0
 36
0.0
 17
0.0
 27
1.0
 37
0.0
 76
     0
330
23
  0
LAYOUT
  5
22
102
{ACAD_REACTORS
330
1A
102
}
330
1A
100
AcDbPlotSettings
  1

  2
none_device
  4

  6

 40
0.0
 41
0.0
 42
0.0
 43
0.0
 44
0.0
 45
0.0
 46
0.0
 47
0.0
 48
0.0
 49
0.0
140
0.0
141
0.0
142
1.0
143
1.0
 70
  1712
 72
     0
 73
     0
 74
     0
  7

 75
     0
 76
     0
 77
     2
 78
   300
147
1.0
148
0.0
149
0.0
100
AcDbLayout
  1
Model
 70
     1
 71
     0
 10
0.0
 20
0.0
 11
12.0
 21
9.0
 12
0.0
 22
0.0
 32
0.0
 14
1.000000000000000E+20
 24
1.000000000000000E+20
 34
1.000000000000000E+20
 15
-1.000000000000000E+20
 25
-1.000000000000000E+20
 35
-1.000000000000000E+20
146
0.0
 13
0.0
 23
0.0
 33
0.0
 16
1.0
 26
0.0
 36
0.0
 17
0.0
 27
1.0
 37
0.0
 76
     0
330
1F
331
29
  0
MATERIAL
  5
3D
102
{ACAD_REACTORS
330
3B
102
}
330
3B
100
AcDbMaterial
  1
ByBlock
 72
     1
 94
      127
  0
MATERIAL
  5
3C
102
{ACAD_REACTORS
330
3B
102
}
330
3B
100
AcDbMaterial
  1
ByLayer
 72
     1
 94
      127
  0
MATERIAL
  5
3E
102
{ACAD_REACTORS
330
3B
102
}
330
3B
100
AcDbMaterial
  1
Global
 72
     1
 94
      127
  0
MLINESTYLE
  5
18
102
{ACAD_REACTORS
330
17
102
}
330
17
100
AcDbMlineStyle
  2
Standard
 70
     0
  3

 62
   256
 51
90.0
 52
90.0
 71
     2
 49
0.5
 62
   256
  6
BYLAYER
 49
-0.5
 62
   256
  6
BYLAYER
  0
ACDBPLACEHOLDER
  5
F
102
{ACAD_REACTORS
330
E
102
}
330
E
  0
VISUALSTYLE
  5
2F
102
{ACAD_REACTORS
330
2A
102
}
330
2A
100
AcDbVisualStyle
  2
2dWireframe
 70
     4
177
     2
291
     0
 71
     0
176
     1
 72
     2
176
     1
 73
     0
176
     1
 90
        0
176
     1
 40
-0.6
176
     1
 41
-30.0
176
     1
 62
     5
 63
     7
421
 16777215
176
     1
 74
     1
176
     1
 91
        4
176
     1
 64
     7
176
     1
 65
   257
176
     1
 75
     1
176
     1
175
     1
176
     1
 42
1.0
176
     1
 92
        0
176
     1
 66
   257
176
     1
 43
1.0
176
     1
 76
     1
176
     1
 77
     6
176
     1
 78
     2
176
     1
 67
     7
176
     1
 79
     5
176
     1
170
     0
176
     1
171
     0
176
     1
290
     0
176
     1
 93
        1
176
     1
 44
0.0
176
     1
173
     0
176
     1
  0
VISUALSTYLE
  5
31
102
{ACAD_REACTORS
330
2A
102
}
330
2A
100
AcDbVisualStyle
  2
3D Hidden
 70
     6
177
     2
291
     0
 71
     1
176
     1
 72
     2
176
     1
 73
     2
176
     1
 90
        0
176
     1
 40
-0.6
176
     1
 41
-30.0
176
     1
 62
     5
 63
     7
421
 16777215
176
     1
 74
     2
176
     1
 91
        2
176
     1
 64
     7
176
     1
 65
   257
176
     1
 75
     2
176
     1
175
     1
176
     1
 42
40.0
176
     1
 92
        0
176
     1
 66
   257
176
     1
 43
1.0
176
     1
 76
     1
176
     1
 77
     6
176
     1
 78
     2
176
     1
 67
     7
176
     1
 79
     3
176
     1
170
     0
176
     1
171
     0
176
     1
290
     0
176
     1
 93
        1
176
     1
 44
0.0
176
     1
173
     0
176
     1
  0
VISUALSTYLE
  5
30
102
{ACAD_REACTORS
330
2A
102
}
330
2A
100
AcDbVisualStyle
  2
3dWireframe
 70
     5
177
     2
291
     0
 71
     0
176
     1
 72
     2
176
     1
 73
     0
176
     1
 90
        0
176
     1
 40
-0.6
176
     1
 41
-30.0
176
     1
 62
     5
 63
     7
421
 16777215
176
     1
 74
     1
176
     1
 91
        4
176
     1
 64
     7
176
     1
 65
   257
176
     1
 75
     1
176
     1
175
     1
176
     1
 42
1.0
176
     1
 92
        0
176
     1
 66
   257
176
     1
 43
1.0
176
     1
 76
     1
176
     1
 77
     6
176
     1
 78
     2
176
     1
 67
     7
176
     1
 79
     5
176
     1
170
     0
176
     1
171
     0
176
     1
290
     0
176
     1
 93
        1
176
     1
 44
0.0
176
     1
173
     0
176
     1
  0
VISUALSTYLE
  5
32
102
{ACAD_REACTORS
330
2A
102
}
330
2A
100
AcDbVisualStyle
  2
Basic
 70
     7
177
     2
291
     1
 71
     1
176
     1
 72
     0
176
     1
 73
     1
176
     1
 90
        0
176
     1
 40
-0.6
176
     1
 41
-30.0
176
     1
 62
     5
 63
     7
421
 16777215
176
     1
 74
     0
176
     1
 91
        4
176
     1
 64
     7
176
     1
 65
   257
176
     1
 75
     1
176
     1
175
     1
176
     1
 42
1.0
176
     1
 92
        8
176
     1
 66
     7
176
     1
 43
1.0
176
     1
 76
     1
176
     1
 77
     6
176
     1
 78
     2
176
     1
 67
     7
176
     1
 79
     5
176
     1
170
     0
176
     1
171
     0
176
     1
290
     0
176
     1
 93
        1
176
     1
 44
0.0
176
     1
173
     0
176
     1
  0
VISUALSTYLE
  5
36
102
{ACAD_REACTORS
330
2A
102
}
330
2A
100
AcDbVisualStyle
  2
Brighten
 70
    12
177
     2
291
     1
 71
     2
176
     1
 72
     2
176
     1
 73
     0
176
     1
 90
        0
176
     1
 40
-0.6
176
     1
 41
-30.0
176
     1
 62
     5
 63
     7
421
 16777215
176
     1
 74
     1
176
     1
 91
        4
176
     1
 64
     7
176
     1
 65
   257
176
     1
 75
     1
176
     1
175
     1
176
     1
 42
1.0
176
     1
 92
        8
176
     1
 66
     7
176
     1
 43
1.0
176
     1
 76
     1
176
     1
 77
     6
176
     1
 78
     2
176
     1
 67
     7
176
     1
 79
     5
176
     1
170
     0
176
     1
171
     0
176
     1
290
     0
176
     1
 93
        1
176
     1
 44
50.0
176
     1
173
     0
176
     1
  0
VISUALSTYLE
  5
3A
102
{ACAD_REACTORS
330
2A
102
}
330
2A
100
AcDbVisualStyle
  2
ColorChange
 70
    16
177
     2
291
     1
 71
     2
176
     1
 72
     2
176
     1
 73
     3
176
     1
 90
        0
176
     1
 40
-0.6
176
     1
 41
-30.0
176
     1
 62
     5
 63
     8
421
  8421504
176
     1
 74
     1
176
     1
 91
        4
176
     1
 64
     7
176
     1
 65
   257
176
     1
 75
     1
176
     1
175
     1
176
     1
 42
1.0
176
     1
 92
        8
176
     1
 66
     8
424
  8421504
176
     1
 43
1.0
176
     1
 76
     1
176
     1
 77
     6
176
     1
 78
     2
176
     1
 67
     7
176
     1
 79
     5
176
     1
170
     0
176
     1
171
     0
176
     1
290
     0
176
     1
 93
        1
176
     1
 44
0.0
176
     1
173
     0
176
     1
  0
VISUALSTYLE
  5
34
102
{ACAD_REACTORS
330
2A
102
}
330
2A
100
AcDbVisualStyle
  2
Conceptual
 70
     9
177
     2
291
     0
 71
     3
176
     1
 72
     2
176
     1
 73
     0
176
     1
 90
        0
176
     1
 40
-0.6
176
     1
 41
-30.0
176
     1
 62
     5
 63
     7
421
 16777215
176
     1
 74
     2
176
     1
 91
        2
176
     1
 64
     7
176
     1
 65
   257
176
     1
 75
     1
176
     1
175
     1
176
     1
 42
40.0
176
     1
 92
        8
176
     1
 66
     7
176
     1
 43
1.0
176
     1
 76
     1
176
     1
 77
     6
176
     1
 78
     2
176
     1
 67
     7
176
     1
 79
     3
176
     1
170
     0
176
     1
171
     0
176
     1
290
     0
176
     1
 93
        1
176
     1
 44
0.0
176
     1
173
     0
176
     1
  0
VISUALSTYLE
  5
35
102
{ACAD_REACTORS
330
2A
102
}
330
2A
100
AcDbVisualStyle
  2
Dim
 70
    11
177
     2
291
     1
 71
     2
176
     1
 72
     2
176
     1
 73
     0
176
     1
 90
        0
176
     1
 40
-0.6
176
     1
 41
-30.0
176
     1
 62
     5
 63
     7
421
 16777215
176
     1
 74
     1
176
     1
 91
        4
176
     1
 64
     7
176
     1
 65
   257
176
     1
 75
     1
176
     1
175
     1
176
     1
 42
1.0
176
     1
 92
        8
176
     1
 66
     7
176
     1
 43
1.0
176
     1
 76
     1
176
     1
 77
     6
176
     1
 78
     2
176
     1
 67
     7
176
     1
 79
     5
176
     1
170
     0
176
     1
171
     0
176
     1
290
     0
176
     1
 93
        1
176
     1
 44
-50.0
176
     1
173
     0
176
     1
  0
VISUALSTYLE
  5
39
102
{ACAD_REACTORS
330
2A
102
}
330
2A
100
AcDbVisualStyle
  2
Facepattern
 70
    15
177
     2
291
     1
 71
     2
176
     1
 72
     2
176
     1
 73
     0
176
     1
 90
        0
176
     1
 40
-0.6
176
     1
 41
-30.0
176
     1
 62
     5
 63
     7
421
 16777215
176
     1
 74
     1
176
     1
 91
        4
176
     1
 64
     7
176
     1
 65
   257
176
     1
 75
     1
176
     1
175
     1
176
     1
 42
1.0
176
     1
 92
        8
176
     1
 66
     7
176
     1
 43
1.0
176
     1
 76
     1
176
     1
 77
     6
176
     1
 78
     2
176
     1
 67
     7
176
     1
 79
     5
176
     1
170
     0
176
     1
171
     0
176
     1
290
     0
176
     1
 93
        1
176
     1
 44
0.0
176
     1
173
     0
176
     1
  0
VISUALSTYLE
  5
2B
102
{ACAD_REACTORS
330
2A
102
}
330
2A
100
AcDbVisualStyle
  2
Flat
 70
     0
177
     2
291
     1
 71
     2
176
     1
 72
     1
176
     1
 73
     1
176
     1
 90
        2
176
     1
 40
-0.6
176
     1
 41
30.0
176
     1
 62
     5
 63
     7
421
 16777215
176
     1
 74
     0
176
     1
 91
        4
176
     1
 64
     7
176
     1
 65
   257
176
     1
 75
     1
176
     1
175
     1
176
     1
 42
1.0
176
     1
 92
        8
176
     1
 66
     7
176
     1
 43
1.0
176
     1
 76
     1
176
     1
 77
     6
176
     1
 78
     2
176
     1
 67
     7
176
     1
 79
     5
176
     1
170
     0
176
     1
171
     0
176
     1
290
     0
176
     1
 93
       13
176
     1
 44
0.0
176
     1
173
     0
176
     1
  0
VISUALSTYLE
  5
2C
102
{ACAD_REACTORS
330
2A
102
}
330
2A
100
AcDbVisualStyle
  2
FlatWithEdges
 70
     1
177
     2
291
     1
 71
     2
176
     1
 72
     1
176
     1
 73
     1
176
     1
 90
        2
176
     1
 40
-0.6
176
     1
 41
30.0
176
     1
 62
     5
 63
     7
421
 16777215
176
     1
 74
     1
176
     1
 91
        4
176
     1
 64
     7
176
     1
 65
   257
176
     1
 75
     1
176
     1
175
     1
176
     1
 42
1.0
176
     1
 92
        0
176
     1
 66
   257
176
     1
 43
1.0
176
     1
 76
     1
176
     1
 77
     6
176
     1
 78
     2
176
     1
 67
     7
176
     1
 79
     5
176
     1
170
     0
176
     1
171
     0
176
     1
290
     0
176
     1
 93
       13
176
     1
 44
0.0
176
     1
173
     0
176
     1
  0
VISUALSTYLE
  5
2D
102
{ACAD_REACTORS
330
2A
102
}
330
2A
100
AcDbVisualStyle
  2
Gouraud
 70
     2
177
     2
291
     1
 71
     2
176
     1
 72
     2
176
     1
 73
     1
176
     1
 90
        2
176
     1
 40
-0.6
176
     1
 41
30.0
176
     1
 62
     5
 63
     7
421
 16777215
176
     1
 74
     0
176
     1
 91
        4
176
     1
 64
     7
176
     1
 65
   257
176
     1
 75
     1
176
     1
175
     1
176
     1
 42
1.0
176
     1
 92
        0
176
     1
 66
     7
176
     1
 43
1.0
176
     1
 76
     1
176
     1
 77
     6
176
     1
 78
     2
176
     1
 67
     7
176
     1
 79
     5
176
     1
170
     0
176
     1
171
     0
176
     1
290
     0
176
     1
 93
       13
176
     1
 44
0.0
176
     1
173
     0
176
     1
  0
VISUALSTYLE
  5
2E
102
{ACAD_REACTORS
330
2A
102
}
330
2A
100
AcDbVisualStyle
  2
GouraudWithEdges
 70
     3
177
     2
291
     1
 71
     2
176
     1
 72
     2
176
     1
 73
     1
176
     1
 90
        2
176
     1
 40
-0.6
176
     1
 41
30.0
176
     1
 62
     5
 63
     7
421
 16777215
176
     1
 74
     1
176
     1
 91
        4
176
     1
 64
     7
176
     1
 65
   257
176
     1
 75
     1
176
     1
175
     1
176
     1
 42
1.0
176
     1
 92
        0
176
     1
 66
   257
176
     1
 43
1.0
176
     1
 76
     1
176
     1
 77
     6
176
     1
 78
     2
176
     1
 67
     7
176
     1
 79
     5
176
     1
170
     0
176
     1
171
     0
176
     1
290
     0
176
     1
 93
       13
176
     1
 44
0.0
176
     1
173
     0
176
     1
  0
VISUALSTYLE
  5
38
102
{ACAD_REACTORS
330
2A
102
}
330
2A
100
AcDbVisualStyle
  2
Linepattern
 70
    14
177
     2
291
     1
 71
     2
176
     1
 72
     2
176
     1
 73
     0
176
     1
 90
        0
176
     1
 40
-0.6
176
     1
 41
-30.0
176
     1
 62
     5
 63
     7
421
 16777215
176
     1
 74
     1
176
     1
 91
        4
176
     1
 64
     7
176
     1
 65
   257
176
     1
 75
     7
176
     1
175
     7
176
     1
 42
1.0
176
     1
 92
        8
176
     1
 66
     7
176
     1
 43
1.0
176
     1
 76
     1
176
     1
 77
     6
176
     1
 78
     2
176
     1
 67
     7
176
     1
 79
     5
176
     1
170
     0
176
     1
171
     0
176
     1
290
     0
176
     1
 93
        1
176
     1
 44
0.0
176
     1
173
     0
176
     1
  0
VISUALSTYLE
  5
33
102
{ACAD_REACTORS
330
2A
102
}
330
2A
100
AcDbVisualStyle
  2
Realistic
 70
     8
177
     2
291
     0
 71
     2
176
     1
 72
     2
176
     1
 73
     0
176
     1
 90
        0
176
     1
 40
-0.6
176
     1
 41
-30.0
176
     1
 62
     5
 63
     7
421
 16777215
176
     1
 74
     1
176
     1
 91
        0
176
     1
 64
     7
176
     1
 65
   257
176
     1
 75
     1
176
     1
175
     1
176
     1
 42
1.0
176
     1
 92
        8
176
     1
 66
     8
424
  7895160
176
     1
 43
1.0
176
     1
 76
     1
176
     1
 77
     6
176
     1
 78
     2
176
     1
 67
     7
176
     1
 79
     5
176
     1
170
     0
176
     1
171
     0
176
     1
290
     0
176
     1
 93
       13
176
     1
 44
0.0
176
     1
173
     0
176
     1
  0
VISUALSTYLE
  5
37
102
{ACAD_REACTORS
330
2A
102
}
330
2A
100
AcDbVisualStyle
  2
Thicken
 70
    13
177
     2
291
     1
 71
     2
176
     1
 72
     2
176
     1
 73
     0
176
     1
 90
        0
176
     1
 40
-0.6
176
     1
 41
-30.0
176
     1
 62
     5
 63
     7
421
 16777215
176
     1
 74
     1
176
     1
 91
        4
176
     1
 64
     7
176
     1
 65
   257
176
     1
 75
     1
176
     1
175
     1
176
     1
 42
1.0
176
     1
 92
       12
176
     1
 66
     7
176
     1
 43
1.0
176
     1
 76
     1
176
     1
 77
     6
176
     1
 78
     2
176
     1
 67
     7
176
     1
 79
     5
176
     1
170
     0
176
     1
171
     0
176
     1
290
     0
176
     1
 93
        1
176
     1
 44
0.0
176
     1
173
     0
176
     1
  0
ENDSEC
  0
EOF
