  0
SECTION
  2
HEADER
  9
$ACADVER
  1
AC1024
  9
$ACADMAINTVER
 70
     6
  9
$DWGCODEPAGE
  3
UNDEFINED
  9
$INSBASE
 10
0.0
 20
0.0
 30
0.0
  9
$EXTMIN
 10
1.000000000000000E+20
 20
1.000000000000000E+20
 30
1.000000000000000E+20
  9
$EXTMAX
 10
-1.000000000000000E+20
 20
-1.000000000000000E+20
 30
-1.000000000000000E+20
  9
$LIMMIN
 10
0.0
 20
0.0
  9
$LIMMAX
 10
12.0
 20
9.0
  9
$ORTHOMODE
 70
     0
  9
$REGENMODE
 70
     1
  9
$FILLMODE
 70
     1
  9
$QTEXTMODE
 70
     0
  9
$MIRRTEXT
 70
     1
  9
$LTSCALE
 40
1.0
  9
$ATTMODE
 70
     1
  9
$TEXTSIZE
 40
0.2
  9
$TRACEWID
 40
0.05
  9
$TEXTSTYLE
  7
Standard
  9
$CLAYER
  8
0
  9
$CELTYPE
  6
ByLayer
  9
$CECOLOR
 62
   256
  9
$CELTSCALE
 40
1.0
  9
$DISPSILH
 70
     0
  9
$DIMSCALE
 40
1.0
  9
$DIMASZ
 40
0.18
  9
$DIMEXO
 40
0.0625
  9
$DIMDLI
 40
0.38
  9
$DIMRND
 40
0.0
  9
$DIMDLE
 40
0.0
  9
$DIMEXE
 40
0.18
  9
$DIMTP
 40
0.0
  9
$DIMTM
 40
0.0
  9
$DIMTXT
 40
0.18
  9
$DIMCEN
 40
0.09
  9
$DIMTSZ
 40
0.0
  9
$DIMTOL
 70
     0
  9
$DIMLIM
 70
     0
  9
$DIMTIH
 70
     1
  9
$DIMTOH
 70
     1
  9
$DIMSE1
 70
     0
  9
$DIMSE2
 70
     0
  9
$DIMTAD
 70
     0
  9
$DIMZIN
 70
     0
  9
$DIMBLK
  1

  9
$DIMASO
 70
     1
  9
$DIMSHO
 70
     1
  9
$DIMPOST
  1

  9
$DIMAPOST
  1

  9
$DIMALT
 70
     0
  9
$DIMALTD
 70
     2
  9
$DIMALTF
 40
25.4
  9
$DIMLFAC
 40
1.0
  9
$DIMTOFL
 70
     0
  9
$DIMTVP
 40
0.0
  9
$DIMTIX
 70
     0
  9
$DIMSOXD
 70
     0
  9
$DIMSAH
 70
     0
  9
$DIMBLK1
  1

  9
$DIMBLK2
  1

  9
$DIMSTYLE
  2
Standard
  9
$DIMCLRD
 70
     0
  9
$DIMCLRE
 70
     0
  9
$DIMCLRT
 70
     0
  9
$DIMTFAC
 40
1.0
  9
$DIMGAP
 40
0.09
  9
$DIMJUST
 70
     0
  9
$DIMSD1
 70
     0
  9
$DIMSD2
 70
     0
  9
$DIMTOLJ
 70
     1
  9
$DIMTZIN
 70
     0
  9
$DIMALTZ
 70
     0
  9
$DIMALTTZ
 70
     0
  9
$DIMUPT
 70
     0
  9
$DIMDEC
 70
     4
  9
$DIMTDEC
 70
     4
  9
$DIMALTU
 70
     2
  9
$DIMALTTD
 70
     2
  9
$DIMTXSTY
  7
Standard
  9
$DIMAUNIT
 70
     0
  9
$DIMADEC
 70
     0
  9
$DIMALTRND
 40
0.0
  9
$DIMAZIN
 70
     0
  9
$DIMDSEP
 70
    46
  9
$DIMATFIT
 70
     3
  9
$DIMFRAC
 70
     0
  9
$DIMLDRBLK
  1

  9
$DIMLUNIT
 70
     2
  9
$DIMLWD
 70
    -2
  9
$DIMLWE
 70
    -2
  9
$DIMTMOVE
 70
     0
  9
$DIMFXL
 40
1.0
  9
$DIMFXLON
 70
     0
  9
$DIMJOGANG
 40
0.7853981633974483
  9
$DIMTFILL
 70
     0
  9
$DIMTFILLCLR
 70
     0
  9
$DIMARCSYM
 70
     0
  9
$DIMLTYPE
  6

  9
$DIMLTEX1
  6

  9
$DIMLTEX2
  6

  9
$DIMTXTDIRECTION
 70
     0
  9
$LUNITS
 70
     2
  9
$LUPREC
 70
     4
  9
$SKETCHINC
 40
0.1
  9
$FILLETRAD
 40
0.5
  9
$AUNITS
 70
     0
  9
$AUPREC
 70
     0
  9
$MENU
  1
.
  9
$ELEVATION
 40
0.0
  9
$PELEVATION
 40
0.0
  9
$THICKNESS
 40
0.0
  9
$LIMCHECK
 70
     0
  9
$CHAMFERA
 40
0.5
  9
$CHAMFERB
 40
0.5
  9
$CHAMFERC
 40
1.0
  9
$CHAMFERD
 40
0.0
  9
$SKPOLY
 70
     0
  9
$TDCREATE
 40
2457917.586354167
  9
$TDUCREATE
 40
2457917.211354167
  9
$TDUPDATE
 40
2457917.586354167
  9
$TDUUPDATE
 40
2457917.211354167
  9
$TDINDWG
 40
0.0000000116
  9
$TDUSRTIMER
 40
0.0000000116
  9
$USRTIMER
 70
     1
  9
$ANGBASE
 50
0.0
  9
$ANGDIR
 70
     0
  9
$PDMODE
 70
     0
  9
$PDSIZE
 40
0.0
  9
$PLINEWID
 40
0.0
  9
$SPLFRAME
 70
     0
  9
$SPLINETYPE
 70
     6
  9
$SPLINESEGS
 70
     8
  9
$HANDSEED
  5
11A
  9
$SURFTAB1
 70
     6
  9
$SURFTAB2
 70
     6
  9
$SURFTYPE
 70
     6
  9
$SURFU
 70
     6
  9
$SURFV
 70
     6
  9
$UCSBASE
  2

  9
$UCSNAME
  2

  9
$UCSORG
 10
0.0
 20
0.0
 30
0.0
  9
$UCSXDIR
 10
1.0
 20
0.0
 30
0.0
  9
$UCSYDIR
 10
0.0
 20
1.0
 30
0.0
  9
$UCSORTHOREF
  2

  9
$UCSORTHOVIEW
 70
     0
  9
$UCSORGTOP
 10
0.0
 20
0.0
 30
0.0
  9
$UCSORGBOTTOM
 10
0.0
 20
0.0
 30
0.0
  9
$UCSORGLEFT
 10
0.0
 20
0.0
 30
0.0
  9
$UCSORGRIGHT
 10
0.0
 20
0.0
 30
0.0
  9
$UCSORGFRONT
 10
0.0
 20
0.0
 30
0.0
  9
$UCSORGBACK
 10
0.0
 20
0.0
 30
0.0
  9
$PUCSBASE
  2

  9
$PUCSNAME
  2

  9
$PUCSORG
 10
0.0
 20
0.0
 30
0.0
  9
$PUCSXDIR
 10
1.0
 20
0.0
 30
0.0
  9
$PUCSYDIR
 10
0.0
 20
1.0
 30
0.0
  9
$PUCSORTHOREF
  2

  9
$PUCSORTHOVIEW
 70
     0
  9
$PUCSORGTOP
 10
0.0
 20
0.0
 30
0.0
  9
$PUCSORGBOTTOM
 10
0.0
 20
0.0
 30
0.0
  9
$PUCSORGLEFT
 10
0.0
 20
0.0
 30
0.0
  9
$PUCSORGRIGHT
 10
0.0
 20
0.0
 30
0.0
  9
$PUCSORGFRONT
 10
0.0
 20
0.0
 30
0.0
  9
$PUCSORGBACK
 10
0.0
 20
0.0
 30
0.0
  9
$USERI1
 70
     0
  9
$USERI2
 70
     0
  9
$USERI3
 70
     0
  9
$USERI4
 70
     0
  9
$USERI5
 70
     0
  9
$USERR1
 40
0.0
  9
$USERR2
 40
0.0
  9
$USERR3
 40
0.0
  9
$USERR4
 40
0.0
  9
$USERR5
 40
0.0
  9
$WORLDVIEW
 70
     1
  9
$SHADEDGE
 70
     3
  9
$SHADEDIF
 70
    70
  9
$TILEMODE
 70
     1
  9
$MAXACTVP
 70
    64
  9
$PINSBASE
 10
0.0
 20
0.0
 30
0.0
  9
$PLIMCHECK
 70
     0
  9
$PEXTMIN
 10
1.000000000000000E+20
 20
1.000000000000000E+20
 30
1.000000000000000E+20
  9
$PEXTMAX
 10
-1.000000000000000E+20
 20
-1.000000000000000E+20
 30
-1.000000000000000E+20
  9
$PLIMMIN
 10
0.0
 20
0.0
  9
$PLIMMAX
 10
12.0
 20
9.0
  9
$UNITMODE
 70
     0
  9
$VISRETAIN
 70
     1
  9
$PLINEGEN
 70
     0
  9
$PSLTSCALE
 70
     1
  9
$TREEDEPTH
 70
  3020
  9
$CMLSTYLE
  2
Standard
  9
$CMLJUST
 70
     0
  9
$CMLSCALE
 40
1.0
  9
$PROXYGRAPHICS
 70
     1
  9
$MEASUREMENT
 70
     0
  9
$CELWEIGHT
370
    -1
  9
$ENDCAPS
280
     0
  9
$JOINSTYLE
280
     0
  9
$LWDISPLAY
290
     1
  9
$INSUNITS
 70
     1
  9
$HYPERLINKBASE
  1

  9
$STYLESHEET
  1

  9
$XEDIT
290
     1
  9
$CEPSNTYPE
380
     0
  9
$PSTYLEMODE
290
     1
  9
$FINGERPRINTGUID
  2
{39EEE2F3-66FE-83AA-87DB-AA1D343DDCEB}
  9
$VERSIONGUID
  2
{FAEB1C32-E019-11D5-929B-00C0DF256EC4}
  9
$EXTNAMES
290
     1
  9
$PSVPSCALE
 40
0.0
  9
$OLESTARTUP
290
     0
  9
$SORTENTS
280
   127
  9
$INDEXCTL
280
     0
  9
$HIDETEXT
280
     1
  9
$XCLIPFRAME
280
     2
  9
$HALOGAP
280
     0
  9
$OBSCOLOR
 70
   257
  9
$OBSLTYPE
280
     0
  9
$INTERSECTIONDISPLAY
280
     0
  9
$INTERSECTIONCOLOR
 70
   257
  9
$DIMASSOC
280
     2
  9
$PROJECTNAME
  1

  9
$CAMERADISPLAY
290
     0
  9
$LENSLENGTH
 40
50.0
  9
$CAMERAHEIGHT
 40
0.0
  9
$STEPSPERSEC
 40
2.0
  9
$STEPSIZE
 40
6.0
  9
$3DDWFPREC
 40
2.0
  9
$PSOLWIDTH
 40
0.25
  9
$PSOLHEIGHT
 40
4.0
  9
$LOFTANG1
 40
1.570796326794897
  9
$LOFTANG2
 40
1.570796326794897
  9
$LOFTMAG1
 40
0.0
  9
$LOFTMAG2
 40
0.0
  9
$LOFTPARAM
 70
     7
  9
$LOFTNORMALS
280
     1
  9
$LATITUDE
 40
37.795
  9
$LONGITUDE
 40
-122.394
  9
$NORTHDIRECTION
 40
0.0
  9
$TIMEZONE
 70
 -8000
  9
$LIGHTGLYPHDISPLAY
280
     1
  9
$TILEMODELIGHTSYNCH
280
     1
  9
$CMATERIAL
347
3C
  9
$SOLIDHIST
280
     1
  9
$SHOWHIST
280
     1
  9
$DWFFRAME
280
     2
  9
$DGNFRAME
280
     2
  9
$REALWORLDSCALE
290
     1
  9
$INTERFERECOLOR
 62
   256
  9
$CSHADOW
280
     0
  9
$SHADOWPLANELOCATION
 40
0.0
  0
ENDSEC
  0
SECTION
  2
CLASSES
  0
CLASS
  1
ACDBDICTIONARYWDFLT
  2
AcDbDictionaryWithDefault
  3
ObjectDBX Classes
 90
        0
 91
        4
280
     0
281
     0
  0
CLASS
  1
VISUALSTYLE
  2
AcDbVisualStyle
  3
ObjectDBX Classes
 90
     4095
 91
        4
280
     0
281
     0
  0
CLASS
  1
MATERIAL
  2
AcDbMaterial
  3
ObjectDBX Classes
 90
     1153
 91
        4
280
     0
281
     0
  0
CLASS
  1
SUN
  2
AcDbSun
  3
SCENEOE
 90
     1024
 91
        4
280
     0
281
     0
  0
ENDSEC
  0
SECTION
  2
TABLES
  0
TABLE
  2
VPORT
  5
8
330
0
100
AcDbSymbolTable
 70
     1
  0
VPORT
  5
29
330
8
100
AcDbSymbolTableRecord
100
AcDbViewportTableRecord
  2
*Active
 70
     0
 10
0.0
 20
0.0
 11
1.0
 21
1.0
 12
0.0
 22
0.0
 13
0.0
 23
0.0
 14
0.5
 24
0.5
 15
0.5
 25
0.5
 16
0.0
 26
0.0
 36
1.0
 17
105.0008280156501
 27
-148.4999710739862
 37
0.0
 40
296.9999421479724
 41
0.7070764206636528
 42
50.0
 43
0.0
 44
0.0
 50
0.0
 51
0.0
 71
     0
 72
   100
 73
     1
 74
     3
 75
     0
 76
     0
 77
     0
 78
     0
281
     0
 65
     1
110
0.0
120
0.0
130
0.0
111
1.0
121
0.0
131
0.0
112
0.0
122
1.0
132
0.0
 79
     0
146
0.0
 60
     3
 61
     5
292
     1
282
     1
141
0.0
142
0.0
 63
   250
361
3F
  0
ENDTAB
  0
TABLE
  2
LTYPE
  5
5
330
0
100
AcDbSymbolTable
 70
     1
  0
LTYPE
  5
14
330
5
100
AcDbSymbolTableRecord
100
AcDbLinetypeTableRecord
  2
ByBlock
 70
     0
  3

 72
    65
 73
     0
 40
0.0
  0
LTYPE
  5
15
330
5
100
AcDbSymbolTableRecord
100
AcDbLinetypeTableRecord
  2
ByLayer
 70
     0
  3

 72
    65
 73
     0
 40
0.0
  0
LTYPE
  5
16
330
5
100
AcDbSymbolTableRecord
100
AcDbLinetypeTableRecord
  2
Continuous
 70
     0
  3
Solid line
 72
    65
 73
     0
 40
0.0
  0
ENDTAB
  0
TABLE
  2
LAYER
  5
2
330
0
100
AcDbSymbolTable
 70
     2
  0
LAYER
  5
10
330
2
100
AcDbSymbolTableRecord
100
AcDbLayerTableRecord
  2
0
 70
     0
 62
     7
  6
Continuous
370
    -3
390
F
347
3E
  0
LAYER
  5
40
330
2
100
AcDbSymbolTableRecord
100
AcDbLayerTableRecord
  2
_U+30EC_U+30A4_U+30E4_U+30FC 1
 70
     0
 62
     7
  6
Continuous
370
    -3
390
F
347
3E
  0
ENDTAB
  0
TABLE
  2
STYLE
  5
3
330
0
100
AcDbSymbolTable
 70
     1
  0
STYLE
  5
11
330
3
100
AcDbSymbolTableRecord
100
AcDbTextStyleTableRecord
  2
Standard
 70
     0
 40
0.0
 41
1.0
 50
0.0
 71
     0
 42
0.2
  3
txt
  4

  0
ENDTAB
  0
TABLE
  2
VIEW
  5
6
330
0
100
AcDbSymbolTable
 70
     0
  0
ENDTAB
  0
TABLE
  2
UCS
  5
7
330
0
100
AcDbSymbolTable
 70
     0
  0
ENDTAB
  0
TABLE
  2
APPID
  5
9
330
0
100
AcDbSymbolTable
 70
     1
  0
APPID
  5
12
330
9
100
AcDbSymbolTableRecord
100
AcDbRegAppTableRecord
  2
ACAD
 70
     0
  0
ENDTAB
  0
TABLE
  2
DIMSTYLE
  5
A
330
0
100
AcDbSymbolTable
 70
     1
100
AcDbDimStyleTable
  0
DIMSTYLE
105
27
330
A
100
AcDbSymbolTableRecord
100
AcDbDimStyleTableRecord
  2
Standard
 70
     0
178
     0
340
11
  0
ENDTAB
  0
TABLE
  2
BLOCK_RECORD
  5
1
330
0
100
AcDbSymbolTable
 70
     7
  0
BLOCK_RECORD
  5
1F
330
1
100
AcDbSymbolTableRecord
100
AcDbBlockTableRecord
  2
*Model_Space
340
22
 70
     0
280
     1
281
     0
  0
BLOCK_RECORD
  5
1B
330
1
100
AcDbSymbolTableRecord
100
AcDbBlockTableRecord
  2
*Paper_Space
340
1E
 70
     0
280
     1
281
     0
  0
BLOCK_RECORD
  5
23
330
1
100
AcDbSymbolTableRecord
100
AcDbBlockTableRecord
  2
*Paper_Space0
340
26
 70
     0
280
     1
281
     0
  0
BLOCK_RECORD
  5
78
330
1
100
AcDbSymbolTableRecord
100
AcDbBlockTableRecord
  2
block 2
340
0
102
{BLKREFS
331
79
102
}
 70
     0
280
     1
281
     0
  0
BLOCK_RECORD
  5
8D
330
1
100
AcDbSymbolTableRecord
100
AcDbBlockTableRecord
  2
block 3
340
0
102
{BLKREFS
331
8E
102
}
 70
     0
280
     1
281
     0
  0
BLOCK_RECORD
  5
B2
330
1
100
AcDbSymbolTableRecord
100
AcDbBlockTableRecord
  2
block 4
340
0
102
{BLKREFS
331
B3
102
}
 70
     0
280
     1
281
     0
  0
BLOCK_RECORD
  5
D4
330
1
100
AcDbSymbolTableRecord
100
AcDbBlockTableRecord
  2
block 5
340
0
102
{BLKREFS
331
D5
102
}
 70
     0
280
     1
281
     0
  0
BLOCK_RECORD
  5
F5
330
1
100
AcDbSymbolTableRecord
100
AcDbBlockTableRecord
  2
block 6
340
0
102
{BLKREFS
331
F6
102
}
 70
     0
280
     1
281
     0
  0
BLOCK_RECORD
  5
107
330
1
100
AcDbSymbolTableRecord
100
AcDbBlockTableRecord
  2
block 7
340
0
102
{BLKREFS
331
108
102
}
 70
     0
280
     1
281
     0
  0
ENDTAB
  0
ENDSEC
  0
SECTION
  2
BLOCKS
  0
BLOCK
  5
20
330
1F
100
AcDbEntity
  8
0
100
AcDbBlockBegin
  2
*Model_Space
 70
     0
 10
0.0
 20
0.0
 30
0.0
  3
*Model_Space
  1

  0
ENDBLK
  5
21
330
1F
100
AcDbEntity
  8
0
100
AcDbBlockEnd
  0
BLOCK
  5
1C
330
1B
100
AcDbEntity
 67
     1
  8
0
100
AcDbBlockBegin
  2
*Paper_Space
 70
     0
 10
0.0
 20
0.0
 30
0.0
  3
*Paper_Space
  1

  0
ENDBLK
  5
1D
330
1B
100
AcDbEntity
 67
     1
  8
0
100
AcDbBlockEnd
  0
BLOCK
  5
24
330
23
100
AcDbEntity
  8
0
100
AcDbBlockBegin
  2
*Paper_Space0
 70
     0
 10
0.0
 20
0.0
 30
0.0
  3
*Paper_Space0
  1

  0
ENDBLK
  5
25
330
23
100
AcDbEntity
  8
0
100
AcDbBlockEnd
  0
BLOCK
  5
7A
330
78
100
AcDbEntity
  8
0
100
AcDbBlockBegin
  2
block 2
 70
     0
 10
0.0
 20
0.0
 30
0.0
  3
block 2
  1

  0
SPLINE
  5
7C
330
78
100
AcDbEntity
  8
_U+30EC_U+30A4_U+30E4_U+30FC 1
370
     0
100
AcDbSpline
210
0.0
220
0.0
230
1.0
 70
    11
 71
     3
 72
    44
 73
    40
 74
     0
 42
0.0000000001
 43
0.0000000001
 12
1.0
 22
0.0
 32
0.0
 13
1.0
 23
0.0
 33
0.0
 40
0.0
 40
0.0
 40
0.0
 40
0.0
 40
1.0
 40
1.0
 40
1.0
 40
2.0
 40
2.0
 40
2.0
 40
3.0
 40
3.0
 40
3.0
 40
4.0
 40
4.0
 40
4.0
 40
5.0
 40
5.0
 40
5.0
 40
6.0
 40
6.0
 40
6.0
 40
7.0
 40
7.0
 40
7.0
 40
8.0
 40
8.0
 40
8.0
 40
9.0
 40
9.0
 40
9.0
 40
10.0
 40
10.0
 40
10.0
 40
11.0
 40
11.0
 40
11.0
 40
12.0
 40
12.0
 40
12.0
 40
13.0
 40
13.0
 40
13.0
 40
13.0
 10
105.4343912496831
 20
-140.1723225561028
 30
0.0
 10
105.2015027948802
 20
-140.3311414579728
 30
0.0
 10
105.1019395353565
 20
-140.4052110109056
 30
0.0
 10
105.0499185935292
 20
-140.5488714926406
 30
0.0
 10
105.0499185935292
 20
-140.5488714926406
 30
0.0
 10
105.8822536627655
 20
-140.5488714926406
 30
0.0
 10
105.8822536627655
 20
-140.5488714926406
 30
0.0
 10
105.8822536627655
 20
-140.5488714926406
 30
0.0
 10
105.8822536627655
 20
-140.7541991835615
 30
0.0
 10
105.8822536627655
 20
-140.7541991835615
 30
0.0
 10
105.8822536627655
 20
-140.7541991835615
 30
0.0
 10
104.7832682029709
 20
-140.7541991835615
 30
0.0
 10
104.7832682029709
 20
-140.7541991835615
 30
0.0
 10
104.8173746482748
 20
-140.3965982721925
 30
0.0
 10
104.8873100866254
 20
-140.3183946046774
 30
0.0
 10
105.2986544875642
 20
-140.0200493356547
 30
0.0
 10
105.5721950690931
 20
-139.8212673261558
 30
0.0
 10
105.6424750169922
 20
-139.7533989450964
 30
0.0
 10
105.6424750169922
 20
-139.6159396352349
 30
0.0
 10
105.6424750169922
 20
-139.4974283505423
 30
0.0
 10
105.5656493876711
 20
-139.3665147221028
 30
0.0
 10
105.3551540535223
 20
-139.3665147221028
 30
0.0
 10
105.0771348478627
 20
-139.3665147221028
 30
0.0
 10
105.068177599601
 20
-139.596991610066
 30
0.0
 10
105.0636989754702
 20
-139.7134358374675
 30
0.0
 10
105.0636989754702
 20
-139.7134358374675
 30
0.0
 10
104.8239203296968
 20
-139.7134358374675
 30
0.0
 10
104.8239203296968
 20
-139.7134358374675
 30
0.0
 10
104.8328775779585
 20
-139.5863118140618
 30
0.0
 10
104.8442463930598
 20
-139.4743462107911
 30
0.0
 10
104.930373780191
 20
-139.3558349260985
 30
0.0
 10
105.047851536238
 20
-139.1949489669374
 30
0.0
 10
105.246633545737
 20
-139.1611870311819
 30
0.0
 10
105.3710014927545
 20
-139.1611870311819
 30
0.0
 10
105.667279704486
 20
-139.1611870311819
 30
0.0
 10
105.8887993441875
 20
-139.3451551300943
 30
0.0
 10
105.8887993441875
 20
-139.6180066925261
 30
0.0
 10
105.8887993441875
 20
-139.8467610327467
 30
0.0
 10
105.76443139717
 20
-139.9459797827218
 30
0.0
 10
105.4343912496831
 20
-140.1723225561028
 30
0.0
  0
HATCH
  5
7D
330
78
100
AcDbEntity
  8
_U+30EC_U+30A4_U+30E4_U+30FC 1
 62
   179
420
  2234388
100
AcDbHatch
 10
0.0
 20
0.0
 30
0.0
210
0.0
220
0.0
230
1.0
  2
SOLID
 70
     1
 71
     0
 91
        1
 92
        1
 93
        1
 72
     4
 94
        3
 73
     0
 74
     1
 95
       44
 96
       40
 40
0.0
 40
0.0
 40
0.0
 40
0.0
 40
1.0
 40
1.0
 40
1.0
 40
2.0
 40
2.0
 40
2.0
 40
3.0
 40
3.0
 40
3.0
 40
4.0
 40
4.0
 40
4.0
 40
5.0
 40
5.0
 40
5.0
 40
6.0
 40
6.0
 40
6.0
 40
7.0
 40
7.0
 40
7.0
 40
8.0
 40
8.0
 40
8.0
 40
9.0
 40
9.0
 40
9.0
 40
10.0
 40
10.0
 40
10.0
 40
11.0
 40
11.0
 40
11.0
 40
12.0
 40
12.0
 40
12.0
 40
13.0
 40
13.0
 40
13.0
 40
13.0
 10
105.4343912496831
 20
-140.1723225561028
 10
105.2015027948802
 20
-140.3311414579728
 10
105.1019395353565
 20
-140.4052110109056
 10
105.0499185935292
 20
-140.5488714926406
 10
105.0499185935292
 20
-140.5488714926406
 10
105.8822536627655
 20
-140.5488714926406
 10
105.8822536627655
 20
-140.5488714926406
 10
105.8822536627655
 20
-140.5488714926406
 10
105.8822536627655
 20
-140.7541991835615
 10
105.8822536627655
 20
-140.7541991835615
 10
105.8822536627655
 20
-140.7541991835615
 10
104.7832682029709
 20
-140.7541991835615
 10
104.7832682029709
 20
-140.7541991835615
 10
104.8173746482748
 20
-140.3965982721925
 10
104.8873100866254
 20
-140.3183946046774
 10
105.2986544875642
 20
-140.0200493356547
 10
105.5721950690931
 20
-139.8212673261558
 10
105.6424750169922
 20
-139.7533989450964
 10
105.6424750169922
 20
-139.6159396352349
 10
105.6424750169922
 20
-139.4974283505423
 10
105.5656493876711
 20
-139.3665147221028
 10
105.3551540535223
 20
-139.3665147221028
 10
105.0771348478627
 20
-139.3665147221028
 10
105.068177599601
 20
-139.596991610066
 10
105.0636989754702
 20
-139.7134358374675
 10
105.0636989754702
 20
-139.7134358374675
 10
104.8239203296968
 20
-139.7134358374675
 10
104.8239203296968
 20
-139.7134358374675
 10
104.8328775779585
 20
-139.5863118140618
 10
104.8442463930598
 20
-139.4743462107911
 10
104.930373780191
 20
-139.3558349260985
 10
105.047851536238
 20
-139.1949489669374
 10
105.246633545737
 20
-139.1611870311819
 10
105.3710014927545
 20
-139.1611870311819
 10
105.667279704486
 20
-139.1611870311819
 10
105.8887993441875
 20
-139.3451551300943
 10
105.8887993441875
 20
-139.6180066925261
 10
105.8887993441875
 20
-139.8467610327467
 10
105.76443139717
 20
-139.9459797827218
 10
105.4343912496831
 20
-140.1723225561028
 97
        0
 97
        0
 75
     2
 76
     1
 98
        0
  0
SPLINE
  5
7E
330
78
100
AcDbEntity
  8
_U+30EC_U+30A4_U+30E4_U+30FC 1
370
     0
100
AcDbSpline
210
0.0
220
0.0
230
1.0
 70
    11
 71
     3
 72
    29
 73
    25
 74
     0
 42
0.0000000001
 43
0.0000000001
 12
1.0
 22
0.0
 32
0.0
 13
1.0
 23
0.0
 33
0.0
 40
0.0
 40
0.0
 40
0.0
 40
0.0
 40
1.0
 40
1.0
 40
1.0
 40
2.0
 40
2.0
 40
2.0
 40
3.0
 40
3.0
 40
3.0
 40
4.0
 40
4.0
 40
4.0
 40
5.0
 40
5.0
 40
5.0
 40
6.0
 40
6.0
 40
6.0
 40
7.0
 40
7.0
 40
7.0
 40
8.0
 40
8.0
 40
8.0
 40
8.0
 10
107.0177571347039
 20
-140.5764322565226
 30
0.0
 10
106.902346435948
 20
-140.7858940620258
 30
0.0
 10
106.7170002988416
 20
-140.8048420871946
 30
0.0
 10
106.5926323518241
 20
-140.8048420871946
 30
0.0
 10
106.4210665966586
 20
-140.8048420871946
 30
0.0
 10
106.2694823953076
 20
-140.7583332981438
 30
0.0
 10
106.1678520784928
 20
-140.5764322565226
 30
0.0
 10
106.0569200038677
 20
-140.381784361606
 30
0.0
 10
106.0365939405047
 20
-140.1451063017693
 30
0.0
 10
106.0365939405047
 20
-139.982153285317
 30
0.0
 10
106.0365939405047
 20
-139.8381482940335
 30
0.0
 10
106.054508437028
 20
-139.5863118140618
 30
0.0
 10
106.1678520784928
 20
-139.3875298045629
 30
0.0
 10
106.2829182677001
 20
-139.1846136804816
 30
0.0
 10
106.4548285324141
 20
-139.1611870311819
 30
0.0
 10
106.5926323518241
 20
-139.1611870311819
 30
0.0
 10
106.7624755592469
 20
-139.1611870311819
 30
0.0
 10
106.916126817889
 20
-139.2056287629416
 30
0.0
 10
107.0177571347039
 20
-139.3875298045629
 30
0.0
 10
107.1242105851981
 20
-139.5801106421883
 30
0.0
 10
107.1490152726919
 20
-139.8085204728604
 30
0.0
 10
107.1490152726919
 20
-139.982153285317
 30
0.0
 10
107.1490152726919
 20
-140.1533745309339
 30
0.0
 10
107.1262776424893
 20
-140.3838514188971
 30
0.0
 10
107.0177571347039
 20
-140.5764322565226
 30
0.0
  0
SPLINE
  5
7F
330
78
100
AcDbEntity
  8
_U+30EC_U+30A4_U+30E4_U+30FC 1
370
     0
100
AcDbSpline
210
0.0
220
0.0
230
1.0
 70
    11
 71
     3
 72
    17
 73
    13
 74
     0
 42
0.0000000001
 43
0.0000000001
 12
1.0
 22
0.0
 32
0.0
 13
1.0
 23
0.0
 33
0.0
 40
0.0
 40
0.0
 40
0.0
 40
0.0
 40
1.0
 40
1.0
 40
1.0
 40
2.0
 40
2.0
 40
2.0
 40
3.0
 40
3.0
 40
3.0
 40
4.0
 40
4.0
 40
4.0
 40
4.0
 10
106.5926323518241
 20
-139.3537678688074
 30
0.0
 10
106.3259819612657
 20
-139.3537678688074
 30
0.0
 10
106.2763725862781
 20
-139.6372992272435
 30
0.0
 10
106.2763725862781
 20
-139.982153285317
 30
0.0
 10
106.2763725862781
 20
-140.3015136367996
 30
0.0
 10
106.3146131461644
 20
-140.610194192278
 30
0.0
 10
106.5926323518241
 20
-140.610194192278
 30
0.0
 10
106.8572156850913
 20
-140.610194192278
 30
0.0
 10
106.9092366269185
 20
-140.3290744006816
 30
0.0
 10
106.9092366269185
 20
-139.982153285317
 30
0.0
 10
106.9092366269185
 20
-139.6624484242858
 30
0.0
 10
106.8685845001926
 20
-139.3537678688074
 30
0.0
 10
106.5926323518241
 20
-139.3537678688074
 30
0.0
  0
HATCH
  5
80
330
78
100
AcDbEntity
  8
_U+30EC_U+30A4_U+30E4_U+30FC 1
 62
   179
420
  2234388
100
AcDbHatch
 10
0.0
 20
0.0
 30
0.0
210
0.0
220
0.0
230
1.0
  2
SOLID
 70
     1
 71
     0
 91
        2
 92
        1
 93
        1
 72
     4
 94
        3
 73
     0
 74
     1
 95
       29
 96
       25
 40
0.0
 40
0.0
 40
0.0
 40
0.0
 40
1.0
 40
1.0
 40
1.0
 40
2.0
 40
2.0
 40
2.0
 40
3.0
 40
3.0
 40
3.0
 40
4.0
 40
4.0
 40
4.0
 40
5.0
 40
5.0
 40
5.0
 40
6.0
 40
6.0
 40
6.0
 40
7.0
 40
7.0
 40
7.0
 40
8.0
 40
8.0
 40
8.0
 40
8.0
 10
107.0177571347039
 20
-140.5764322565226
 10
106.902346435948
 20
-140.7858940620258
 10
106.7170002988416
 20
-140.8048420871946
 10
106.5926323518241
 20
-140.8048420871946
 10
106.4210665966586
 20
-140.8048420871946
 10
106.2694823953076
 20
-140.7583332981438
 10
106.1678520784928
 20
-140.5764322565226
 10
106.0569200038677
 20
-140.381784361606
 10
106.0365939405047
 20
-140.1451063017693
 10
106.0365939405047
 20
-139.982153285317
 10
106.0365939405047
 20
-139.8381482940335
 10
106.054508437028
 20
-139.5863118140618
 10
106.1678520784928
 20
-139.3875298045629
 10
106.2829182677001
 20
-139.1846136804816
 10
106.4548285324141
 20
-139.1611870311819
 10
106.5926323518241
 20
-139.1611870311819
 10
106.7624755592469
 20
-139.1611870311819
 10
106.916126817889
 20
-139.2056287629416
 10
107.0177571347039
 20
-139.3875298045629
 10
107.1242105851981
 20
-139.5801106421883
 10
107.1490152726919
 20
-139.8085204728604
 10
107.1490152726919
 20
-139.982153285317
 10
107.1490152726919
 20
-140.1533745309339
 10
107.1262776424893
 20
-140.3838514188971
 10
107.0177571347039
 20
-140.5764322565226
 97
        0
 97
        0
 92
        1
 93
        1
 72
     4
 94
        3
 73
     0
 74
     1
 95
       17
 96
       13
 40
0.0
 40
0.0
 40
0.0
 40
0.0
 40
1.0
 40
1.0
 40
1.0
 40
2.0
 40
2.0
 40
2.0
 40
3.0
 40
3.0
 40
3.0
 40
4.0
 40
4.0
 40
4.0
 40
4.0
 10
106.5926323518241
 20
-139.3537678688074
 10
106.3259819612657
 20
-139.3537678688074
 10
106.2763725862781
 20
-139.6372992272435
 10
106.2763725862781
 20
-139.982153285317
 10
106.2763725862781
 20
-140.3015136367996
 10
106.3146131461644
 20
-140.610194192278
 10
106.5926323518241
 20
-140.610194192278
 10
106.8572156850913
 20
-140.610194192278
 10
106.9092366269185
 20
-140.3290744006816
 10
106.9092366269185
 20
-139.982153285317
 10
106.9092366269185
 20
-139.6624484242858
 10
106.8685845001926
 20
-139.3537678688074
 10
106.5926323518241
 20
-139.3537678688074
 97
        0
 97
        0
 75
     2
 76
     1
 98
        0
  0
ENDBLK
  5
7B
330
78
100
AcDbEntity
  8
0
100
AcDbBlockEnd
  0
BLOCK
  5
8F
330
8D
100
AcDbEntity
  8
0
100
AcDbBlockBegin
  2
block 3
 70
     0
 10
0.0
 20
0.0
 30
0.0
  3
block 3
  1

  0
POLYLINE
  5
91
330
8D
100
AcDbEntity
  8
_U+30EC_U+30A4_U+30E4_U+30FC 1
370
     0
100
AcDb2dPolyline
 66
     1
 10
0.0
 20
0.0
 30
0.0
  0
VERTEX
  5
92
330
91
100
AcDbEntity
  8
_U+30EC_U+30A4_U+30E4_U+30FC 1
370
     0
100
AcDbVertex
100
AcDb2dVertex
 10
98.35627032046303
 20
-156.6068060589386
 30
0.0
  0
VERTEX
  5
93
330
91
100
AcDbEntity
  8
_U+30EC_U+30A4_U+30E4_U+30FC 1
370
     0
100
AcDbVertex
100
AcDb2dVertex
 10
98.35627032046303
 20
-156.9537271743033
 30
0.0
  0
VERTEX
  5
94
330
91
100
AcDbEntity
  8
_U+30EC_U+30A4_U+30E4_U+30FC 1
370
     0
100
AcDbVertex
100
AcDb2dVertex
 10
98.12355412043439
 20
-156.9537271743033
 30
0.0
  0
VERTEX
  5
95
330
91
100
AcDbEntity
  8
_U+30EC_U+30A4_U+30E4_U+30FC 1
370
     0
100
AcDbVertex
100
AcDb2dVertex
 10
98.12355412043439
 20
-156.6068060589386
 30
0.0
  0
VERTEX
  5
96
330
91
100
AcDbEntity
  8
_U+30EC_U+30A4_U+30E4_U+30FC 1
370
     0
100
AcDbVertex
100
AcDb2dVertex
 10
97.42264944396031
 20
-156.6068060589386
 30
0.0
  0
VERTEX
  5
97
330
91
100
AcDbEntity
  8
_U+30EC_U+30A4_U+30E4_U+30FC 1
370
     0
100
AcDbVertex
100
AcDb2dVertex
 10
97.42264944396031
 20
-156.3825303428488
 30
0.0
  0
VERTEX
  5
98
330
91
100
AcDbEntity
  8
_U+30EC_U+30A4_U+30E4_U+30FC 1
370
     0
100
AcDbVertex
100
AcDb2dVertex
 10
98.14835880792819
 20
-155.4092908682657
 30
0.0
  0
VERTEX
  5
99
330
91
100
AcDbEntity
  8
_U+30EC_U+30A4_U+30E4_U+30FC 1
370
     0
100
AcDbVertex
100
AcDb2dVertex
 10
98.35627032046303
 20
-155.4092908682657
 30
0.0
  0
VERTEX
  5
9A
330
91
100
AcDbEntity
  8
_U+30EC_U+30A4_U+30E4_U+30FC 1
370
     0
100
AcDbVertex
100
AcDb2dVertex
 10
98.35627032046303
 20
-156.4080240494397
 30
0.0
  0
VERTEX
  5
9B
330
91
100
AcDbEntity
  8
_U+30EC_U+30A4_U+30E4_U+30FC 1
370
     0
100
AcDbVertex
100
AcDb2dVertex
 10
98.57796221493885
 20
-156.4080240494397
 30
0.0
  0
VERTEX
  5
9C
330
91
100
AcDbEntity
  8
_U+30EC_U+30A4_U+30E4_U+30FC 1
370
     0
100
AcDbVertex
100
AcDb2dVertex
 10
98.57796221493885
 20
-156.6068060589386
 30
0.0
  0
VERTEX
  5
9D
330
91
100
AcDbEntity
  8
_U+30EC_U+30A4_U+30E4_U+30FC 1
370
     0
100
AcDbVertex
100
AcDb2dVertex
 10
98.35627032046303
 20
-156.6068060589386
 30
0.0
  0
SEQEND
  5
9E
330
91
100
AcDbEntity
  8
_U+30EC_U+30A4_U+30E4_U+30FC 1
370
     0
  0
POLYLINE
  5
9F
330
8D
100
AcDbEntity
  8
_U+30EC_U+30A4_U+30E4_U+30FC 1
370
     0
100
AcDb2dPolyline
 66
     1
 10
0.0
 20
0.0
 30
0.0
  0
VERTEX
  5
A0
330
9F
100
AcDbEntity
  8
_U+30EC_U+30A4_U+30E4_U+30FC 1
370
     0
100
AcDbVertex
100
AcDb2dVertex
 10
98.12355412043439
 20
-155.7520778690481
 30
0.0
  0
VERTEX
  5
A1
330
9F
100
AcDbEntity
  8
_U+30EC_U+30A4_U+30E4_U+30FC 1
370
     0
100
AcDbVertex
100
AcDb2dVertex
 10
97.63503958062597
 20
-156.4080240494397
 30
0.0
  0
VERTEX
  5
A2
330
9F
100
AcDbEntity
  8
_U+30EC_U+30A4_U+30E4_U+30FC 1
370
     0
100
AcDbVertex
100
AcDb2dVertex
 10
98.12355412043439
 20
-156.4080240494397
 30
0.0
  0
VERTEX
  5
A3
330
9F
100
AcDbEntity
  8
_U+30EC_U+30A4_U+30E4_U+30FC 1
370
     0
100
AcDbVertex
100
AcDb2dVertex
 10
98.12355412043439
 20
-155.7520778690481
 30
0.0
  0
SEQEND
  5
A4
330
9F
100
AcDbEntity
  8
_U+30EC_U+30A4_U+30E4_U+30FC 1
370
     0
  0
HATCH
  5
A5
330
8D
100
AcDbEntity
  8
_U+30EC_U+30A4_U+30E4_U+30FC 1
 62
   179
420
  2234388
100
AcDbHatch
 10
0.0
 20
0.0
 30
0.0
210
0.0
220
0.0
230
1.0
  2
SOLID
 70
     1
 71
     0
 91
        2
 92
        1
 93
       11
 72
     1
 10
98.35627032046303
 20
-156.6068060589386
 11
98.35627032046303
 21
-156.9537271743033
 72
     1
 10
98.35627032046303
 20
-156.9537271743033
 11
98.12355412043439
 21
-156.9537271743033
 72
     1
 10
98.12355412043439
 20
-156.9537271743033
 11
98.12355412043439
 21
-156.6068060589386
 72
     1
 10
98.12355412043439
 20
-156.6068060589386
 11
97.42264944396031
 21
-156.6068060589386
 72
     1
 10
97.42264944396031
 20
-156.6068060589386
 11
97.42264944396031
 21
-156.3825303428488
 72
     1
 10
97.42264944396031
 20
-156.3825303428488
 11
98.14835880792819
 21
-155.4092908682657
 72
     1
 10
98.14835880792819
 20
-155.4092908682657
 11
98.35627032046303
 21
-155.4092908682657
 72
     1
 10
98.35627032046303
 20
-155.4092908682657
 11
98.35627032046303
 21
-156.4080240494397
 72
     1
 10
98.35627032046303
 20
-156.4080240494397
 11
98.57796221493885
 21
-156.4080240494397
 72
     1
 10
98.57796221493885
 20
-156.4080240494397
 11
98.57796221493885
 21
-156.6068060589386
 72
     1
 10
98.57796221493885
 20
-156.6068060589386
 11
98.35627032046303
 21
-156.6068060589386
 97
        0
 92
        1
 93
        3
 72
     1
 10
98.12355412043439
 20
-155.7520778690481
 11
97.63503958062597
 21
-156.4080240494397
 72
     1
 10
97.63503958062597
 20
-156.4080240494397
 11
98.12355412043439
 21
-156.4080240494397
 72
     1
 10
98.12355412043439
 20
-156.4080240494397
 11
98.12355412043439
 21
-155.7520778690481
 97
        0
 75
     2
 76
     1
 98
        0
  0
ENDBLK
  5
90
330
8D
100
AcDbEntity
  8
0
100
AcDbBlockEnd
  0
BLOCK
  5
B4
330
B2
100
AcDbEntity
  8
0
100
AcDbBlockBegin
  2
block 4
 70
     0
 10
0.0
 20
0.0
 30
0.0
  3
block 4
  1

  0
SPLINE
  5
B6
330
B2
100
AcDbEntity
  8
_U+30EC_U+30A4_U+30E4_U+30FC 1
370
     0
100
AcDbSpline
210
0.0
220
0.0
230
1.0
 70
    11
 71
     3
 72
    29
 73
    25
 74
     0
 42
0.0000000001
 43
0.0000000001
 12
1.0
 22
0.0
 32
0.0
 13
1.0
 23
0.0
 33
0.0
 40
0.0
 40
0.0
 40
0.0
 40
0.0
 40
1.0
 40
1.0
 40
1.0
 40
2.0
 40
2.0
 40
2.0
 40
3.0
 40
3.0
 40
3.0
 40
4.0
 40
4.0
 40
4.0
 40
5.0
 40
5.0
 40
5.0
 40
6.0
 40
6.0
 40
6.0
 40
7.0
 40
7.0
 40
7.0
 40
8.0
 40
8.0
 40
8.0
 40
8.0
 10
91.41319713426476
 20
-150.2251111820618
 30
0.0
 10
91.41319713426476
 20
-150.510020578692
 30
0.0
 10
91.2757378244033
 20
-150.7811495933811
 30
0.0
 10
90.92674965174749
 20
-150.7811495933811
 30
0.0
 10
90.67077905719341
 20
-150.7811495933811
 30
0.0
 10
90.57569442180052
 20
-150.6295653920301
 30
0.0
 10
90.51437172216308
 20
-150.5165662601139
 30
0.0
 10
90.45511607981678
 20
-150.6498914553931
 30
0.0
 10
90.34073890970649
 20
-150.7315402183935
 30
0.0
 10
90.17985295054532
 20
-150.7315402183935
 30
0.0
 10
89.90493433082239
 20
-150.7315402183935
 30
0.0
 10
89.76954207825206
 20
-150.5189778269536
 30
0.0
 10
89.76954207825206
 20
-150.2251111820618
 30
0.0
 10
89.76954207825206
 20
-149.9219427793598
 30
0.0
 10
89.91354706953551
 20
-149.7186821457301
 30
0.0
 10
90.17985295054532
 20
-149.7186821457301
 30
0.0
 10
90.34073890970649
 20
-149.7186821457301
 30
0.0
 10
90.45511607981678
 20
-149.8020534564731
 30
0.0
 10
90.51437172216308
 20
-149.9357231613008
 30
0.0
 10
90.56501462579625
 20
-149.8406385259079
 30
0.0
 10
90.66009926118915
 20
-149.6711398280336
 30
0.0
 10
90.92261553716519
 20
-149.6711398280336
 30
0.0
 10
91.29709741641184
 20
-149.6711398280336
 30
0.0
 10
91.41319713426476
 20
-149.9694850970562
 30
0.0
 10
91.41319713426476
 20
-150.2251111820618
 30
0.0
  0
SPLINE
  5
B7
330
B2
100
AcDbEntity
  8
_U+30EC_U+30A4_U+30E4_U+30FC 1
370
     0
100
AcDbSpline
210
0.0
220
0.0
230
1.0
 70
    11
 71
     3
 72
    17
 73
    13
 74
     0
 42
0.0000000001
 43
0.0000000001
 12
1.0
 22
0.0
 32
0.0
 13
1.0
 23
0.0
 33
0.0
 40
0.0
 40
0.0
 40
0.0
 40
0.0
 40
1.0
 40
1.0
 40
1.0
 40
2.0
 40
2.0
 40
2.0
 40
3.0
 40
3.0
 40
3.0
 40
4.0
 40
4.0
 40
4.0
 40
4.0
 10
89.96212291587753
 20
-150.2251111820618
 30
0.0
 10
89.96212291587753
 20
-150.4011555613581
 30
0.0
 10
90.05720755127042
 20
-150.4917615726201
 30
0.0
 10
90.19259980384075
 20
-150.4917615726201
 30
0.0
 10
90.31524520311564
 20
-150.4917615726201
 30
0.0
 10
90.43375648780822
 20
-150.414935943299
 30
0.0
 10
90.43375648780822
 20
-150.2251111820618
 30
0.0
 10
90.43375648780822
 20
-150.034941911276
 30
0.0
 10
90.31524520311564
 20
-149.9581162819549
 30
0.0
 10
90.19259980384075
 20
-149.9581162819549
 30
0.0
 10
90.05720755127042
 20
-149.9581162819549
 30
0.0
 10
89.96212291587753
 20
-150.0507893505082
 30
0.0
 10
89.96212291587753
 20
-150.2251111820618
 30
0.0
  0
SPLINE
  5
B8
330
B2
100
AcDbEntity
  8
_U+30EC_U+30A4_U+30E4_U+30FC 1
370
     0
100
AcDbSpline
210
0.0
220
0.0
230
1.0
 70
    11
 71
     3
 72
    17
 73
    13
 74
     0
 42
0.0000000001
 43
0.0000000001
 12
1.0
 22
0.0
 32
0.0
 13
1.0
 23
0.0
 33
0.0
 40
0.0
 40
0.0
 40
0.0
 40
0.0
 40
1.0
 40
1.0
 40
1.0
 40
2.0
 40
2.0
 40
2.0
 40
3.0
 40
3.0
 40
3.0
 40
4.0
 40
4.0
 40
4.0
 40
4.0
 10
90.6222032108514
 20
-150.2251111820618
 30
0.0
 10
90.6222032108514
 20
-150.3787624407039
 30
0.0
 10
90.70901961707969
 20
-150.5413709476077
 30
0.0
 10
90.9119357411609
 20
-150.5413709476077
 30
0.0
 10
91.1172634320818
 20
-150.5413709476077
 30
0.0
 10
91.21854923934815
 20
-150.4059786950374
 30
0.0
 10
91.21854923934815
 20
-150.2251111820618
 30
0.0
 10
91.21854923934815
 20
-150.0259846630144
 30
0.0
 10
91.09590384007325
 20
-149.9085069069673
 30
0.0
 10
90.91813691303436
 20
-149.9085069069673
 30
0.0
 10
90.69627276378426
 20
-149.9085069069673
 30
0.0
 10
90.6222032108514
 20
-150.0824842289724
 30
0.0
 10
90.6222032108514
 20
-150.2251111820618
 30
0.0
  0
HATCH
  5
B9
330
B2
100
AcDbEntity
  8
_U+30EC_U+30A4_U+30E4_U+30FC 1
 62
   179
420
  2234388
100
AcDbHatch
 10
0.0
 20
0.0
 30
0.0
210
0.0
220
0.0
230
1.0
  2
SOLID
 70
     1
 71
     0
 91
        3
 92
        1
 93
        1
 72
     4
 94
        3
 73
     0
 74
     1
 95
       29
 96
       25
 40
0.0
 40
0.0
 40
0.0
 40
0.0
 40
1.0
 40
1.0
 40
1.0
 40
2.0
 40
2.0
 40
2.0
 40
3.0
 40
3.0
 40
3.0
 40
4.0
 40
4.0
 40
4.0
 40
5.0
 40
5.0
 40
5.0
 40
6.0
 40
6.0
 40
6.0
 40
7.0
 40
7.0
 40
7.0
 40
8.0
 40
8.0
 40
8.0
 40
8.0
 10
91.41319713426476
 20
-150.2251111820618
 10
91.41319713426476
 20
-150.510020578692
 10
91.2757378244033
 20
-150.7811495933811
 10
90.92674965174749
 20
-150.7811495933811
 10
90.67077905719341
 20
-150.7811495933811
 10
90.57569442180052
 20
-150.6295653920301
 10
90.51437172216308
 20
-150.5165662601139
 10
90.45511607981678
 20
-150.6498914553931
 10
90.34073890970649
 20
-150.7315402183935
 10
90.17985295054532
 20
-150.7315402183935
 10
89.90493433082239
 20
-150.7315402183935
 10
89.76954207825206
 20
-150.5189778269536
 10
89.76954207825206
 20
-150.2251111820618
 10
89.76954207825206
 20
-149.9219427793598
 10
89.91354706953551
 20
-149.7186821457301
 10
90.17985295054532
 20
-149.7186821457301
 10
90.34073890970649
 20
-149.7186821457301
 10
90.45511607981678
 20
-149.8020534564731
 10
90.51437172216308
 20
-149.9357231613008
 10
90.56501462579625
 20
-149.8406385259079
 10
90.66009926118915
 20
-149.6711398280336
 10
90.92261553716519
 20
-149.6711398280336
 10
91.29709741641184
 20
-149.6711398280336
 10
91.41319713426476
 20
-149.9694850970562
 10
91.41319713426476
 20
-150.2251111820618
 97
        0
 97
        0
 92
        1
 93
        1
 72
     4
 94
        3
 73
     0
 74
     1
 95
       17
 96
       13
 40
0.0
 40
0.0
 40
0.0
 40
0.0
 40
1.0
 40
1.0
 40
1.0
 40
2.0
 40
2.0
 40
2.0
 40
3.0
 40
3.0
 40
3.0
 40
4.0
 40
4.0
 40
4.0
 40
4.0
 10
89.96212291587753
 20
-150.2251111820618
 10
89.96212291587753
 20
-150.4011555613581
 10
90.05720755127042
 20
-150.4917615726201
 10
90.19259980384075
 20
-150.4917615726201
 10
90.31524520311564
 20
-150.4917615726201
 10
90.43375648780822
 20
-150.414935943299
 10
90.43375648780822
 20
-150.2251111820618
 10
90.43375648780822
 20
-150.034941911276
 10
90.31524520311564
 20
-149.9581162819549
 10
90.19259980384075
 20
-149.9581162819549
 10
90.05720755127042
 20
-149.9581162819549
 10
89.96212291587753
 20
-150.0507893505082
 10
89.96212291587753
 20
-150.2251111820618
 97
        0
 97
        0
 92
        1
 93
        1
 72
     4
 94
        3
 73
     0
 74
     1
 95
       17
 96
       13
 40
0.0
 40
0.0
 40
0.0
 40
0.0
 40
1.0
 40
1.0
 40
1.0
 40
2.0
 40
2.0
 40
2.0
 40
3.0
 40
3.0
 40
3.0
 40
4.0
 40
4.0
 40
4.0
 40
4.0
 10
90.6222032108514
 20
-150.2251111820618
 10
90.6222032108514
 20
-150.3787624407039
 10
90.70901961707969
 20
-150.5413709476077
 10
90.9119357411609
 20
-150.5413709476077
 10
91.1172634320818
 20
-150.5413709476077
 10
91.21854923934815
 20
-150.4059786950374
 10
91.21854923934815
 20
-150.2251111820618
 10
91.21854923934815
 20
-150.0259846630144
 10
91.09590384007325
 20
-149.9085069069673
 10
90.91813691303436
 20
-149.9085069069673
 10
90.69627276378426
 20
-149.9085069069673
 10
90.6222032108514
 20
-150.0824842289724
 10
90.6222032108514
 20
-150.2251111820618
 97
        0
 97
        0
 75
     2
 76
     1
 98
        0
  0
POLYLINE
  5
BA
330
B2
100
AcDbEntity
  8
_U+30EC_U+30A4_U+30E4_U+30FC 1
370
     0
100
AcDb2dPolyline
 66
     1
 10
0.0
 20
0.0
 30
0.0
  0
VERTEX
  5
BB
330
BA
100
AcDbEntity
  8
_U+30EC_U+30A4_U+30E4_U+30FC 1
370
     0
100
AcDbVertex
100
AcDb2dVertex
 10
91.36255423063159
 20
-149.4375623541337
 30
0.0
  0
VERTEX
  5
BC
330
BA
100
AcDbEntity
  8
_U+30EC_U+30A4_U+30E4_U+30FC 1
370
     0
100
AcDbVertex
100
AcDb2dVertex
 10
91.11071775065983
 20
-149.4375623541337
 30
0.0
  0
VERTEX
  5
BD
330
BA
100
AcDbEntity
  8
_U+30EC_U+30A4_U+30E4_U+30FC 1
370
     0
100
AcDbVertex
100
AcDb2dVertex
 10
91.11071775065983
 20
-149.1685003967357
 30
0.0
  0
VERTEX
  5
BE
330
BA
100
AcDbEntity
  8
_U+30EC_U+30A4_U+30E4_U+30FC 1
370
     0
100
AcDbVertex
100
AcDb2dVertex
 10
91.36255423063159
 20
-149.1685003967357
 30
0.0
  0
VERTEX
  5
BF
330
BA
100
AcDbEntity
  8
_U+30EC_U+30A4_U+30E4_U+30FC 1
370
     0
100
AcDbVertex
100
AcDb2dVertex
 10
91.36255423063159
 20
-149.4375623541337
 30
0.0
  0
SEQEND
  5
C0
330
BA
100
AcDbEntity
  8
_U+30EC_U+30A4_U+30E4_U+30FC 1
370
     0
  0
HATCH
  5
C1
330
B2
100
AcDbEntity
  8
_U+30EC_U+30A4_U+30E4_U+30FC 1
 62
   179
420
  2234388
100
AcDbHatch
 10
0.0
 20
0.0
 30
0.0
210
0.0
220
0.0
230
1.0
  2
SOLID
 70
     1
 71
     0
 91
        1
 92
        1
 93
        4
 72
     1
 10
91.36255423063159
 20
-149.4375623541337
 11
91.11071775065983
 21
-149.4375623541337
 72
     1
 10
91.11071775065983
 20
-149.4375623541337
 11
91.11071775065983
 21
-149.1685003967357
 72
     1
 10
91.11071775065983
 20
-149.1685003967357
 11
91.36255423063159
 21
-149.1685003967357
 72
     1
 10
91.36255423063159
 20
-149.1685003967357
 11
91.36255423063159
 21
-149.4375623541337
 97
        0
 75
     2
 76
     1
 98
        0
  0
SPLINE
  5
C2
330
B2
100
AcDbEntity
  8
_U+30EC_U+30A4_U+30E4_U+30FC 1
370
     0
100
AcDbSpline
210
0.0
220
0.0
230
1.0
 70
    11
 71
     3
 72
    44
 73
    40
 74
     0
 42
0.0000000001
 43
0.0000000001
 12
1.0
 22
0.0
 32
0.0
 13
1.0
 23
0.0
 33
0.0
 40
0.0
 40
0.0
 40
0.0
 40
0.0
 40
1.0
 40
1.0
 40
1.0
 40
2.0
 40
2.0
 40
2.0
 40
3.0
 40
3.0
 40
3.0
 40
4.0
 40
4.0
 40
4.0
 40
5.0
 40
5.0
 40
5.0
 40
6.0
 40
6.0
 40
6.0
 40
7.0
 40
7.0
 40
7.0
 40
8.0
 40
8.0
 40
8.0
 40
9.0
 40
9.0
 40
9.0
 40
10.0
 40
10.0
 40
10.0
 40
11.0
 40
11.0
 40
11.0
 40
12.0
 40
12.0
 40
12.0
 40
13.0
 40
13.0
 40
13.0
 40
13.0
 10
90.78067760317289
 20
-148.2817328188324
 30
0.0
 10
90.93949650504291
 20
-148.5146212736352
 30
0.0
 10
91.01356605797578
 20
-148.6141845331589
 30
0.0
 10
91.15722653971069
 20
-148.6662054749862
 30
0.0
 10
91.15722653971069
 20
-148.6662054749862
 30
0.0
 10
91.15722653971069
 20
-147.8338704057499
 30
0.0
 10
91.15722653971069
 20
-147.8338704057499
 30
0.0
 10
91.15722653971069
 20
-147.8338704057499
 30
0.0
 10
91.36255423063159
 20
-147.8338704057499
 30
0.0
 10
91.36255423063159
 20
-147.8338704057499
 30
0.0
 10
91.36255423063159
 20
-147.8338704057499
 30
0.0
 10
91.36255423063159
 20
-148.9328558655446
 30
0.0
 10
91.36255423063159
 20
-148.9328558655446
 30
0.0
 10
91.00495331926265
 20
-148.8987494202406
 30
0.0
 10
90.92674965174749
 20
-148.82881398189
 30
0.0
 10
90.62840438272485
 20
-148.4174695809512
 30
0.0
 10
90.42962237322593
 20
-148.1439289994224
 30
0.0
 10
90.36175399216651
 20
-148.0736490515233
 30
0.0
 10
90.22429468230504
 20
-148.0736490515233
 30
0.0
 10
90.10578339761244
 20
-148.0736490515233
 30
0.0
 10
89.97486976917295
 20
-148.1504746808443
 30
0.0
 10
89.97486976917295
 20
-148.3609700149931
 30
0.0
 10
89.97486976917295
 20
-148.6389892206527
 30
0.0
 10
90.20534665713616
 20
-148.6479464689144
 30
0.0
 10
90.3217908845376
 20
-148.6524250930452
 30
0.0
 10
90.3217908845376
 20
-148.6524250930452
 30
0.0
 10
90.3217908845376
 20
-148.8922037388186
 30
0.0
 10
90.3217908845376
 20
-148.8922037388186
 30
0.0
 10
90.19466686113189
 20
-148.883246490557
 30
0.0
 10
90.08270125786127
 20
-148.8718776754556
 30
0.0
 10
89.96418997316867
 20
-148.7857502883244
 30
0.0
 10
89.80347626878178
 20
-148.6682725322774
 30
0.0
 10
89.76954207825206
 20
-148.4694905227785
 30
0.0
 10
89.76954207825206
 20
-148.3451225757609
 30
0.0
 10
89.76954207825206
 20
-148.0488443640295
 30
0.0
 10
89.9535101771644
 20
-147.8273247243279
 30
0.0
 10
90.22636173959619
 20
-147.8273247243279
 30
0.0
 10
90.45511607981678
 20
-147.8273247243279
 30
0.0
 10
90.55433482979197
 20
-147.9516926713454
 30
0.0
 10
90.78067760317289
 20
-148.2817328188324
 30
0.0
  0
HATCH
  5
C3
330
B2
100
AcDbEntity
  8
_U+30EC_U+30A4_U+30E4_U+30FC 1
 62
   179
420
  2234388
100
AcDbHatch
 10
0.0
 20
0.0
 30
0.0
210
0.0
220
0.0
230
1.0
  2
SOLID
 70
     1
 71
     0
 91
        1
 92
        1
 93
        1
 72
     4
 94
        3
 73
     0
 74
     1
 95
       44
 96
       40
 40
0.0
 40
0.0
 40
0.0
 40
0.0
 40
1.0
 40
1.0
 40
1.0
 40
2.0
 40
2.0
 40
2.0
 40
3.0
 40
3.0
 40
3.0
 40
4.0
 40
4.0
 40
4.0
 40
5.0
 40
5.0
 40
5.0
 40
6.0
 40
6.0
 40
6.0
 40
7.0
 40
7.0
 40
7.0
 40
8.0
 40
8.0
 40
8.0
 40
9.0
 40
9.0
 40
9.0
 40
10.0
 40
10.0
 40
10.0
 40
11.0
 40
11.0
 40
11.0
 40
12.0
 40
12.0
 40
12.0
 40
13.0
 40
13.0
 40
13.0
 40
13.0
 10
90.78067760317289
 20
-148.2817328188324
 10
90.93949650504291
 20
-148.5146212736352
 10
91.01356605797578
 20
-148.6141845331589
 10
91.15722653971069
 20
-148.6662054749862
 10
91.15722653971069
 20
-148.6662054749862
 10
91.15722653971069
 20
-147.8338704057499
 10
91.15722653971069
 20
-147.8338704057499
 10
91.15722653971069
 20
-147.8338704057499
 10
91.36255423063159
 20
-147.8338704057499
 10
91.36255423063159
 20
-147.8338704057499
 10
91.36255423063159
 20
-147.8338704057499
 10
91.36255423063159
 20
-148.9328558655446
 10
91.36255423063159
 20
-148.9328558655446
 10
91.00495331926265
 20
-148.8987494202406
 10
90.92674965174749
 20
-148.82881398189
 10
90.62840438272485
 20
-148.4174695809512
 10
90.42962237322593
 20
-148.1439289994224
 10
90.36175399216651
 20
-148.0736490515233
 10
90.22429468230504
 20
-148.0736490515233
 10
90.10578339761244
 20
-148.0736490515233
 10
89.97486976917295
 20
-148.1504746808443
 10
89.97486976917295
 20
-148.3609700149931
 10
89.97486976917295
 20
-148.6389892206527
 10
90.20534665713616
 20
-148.6479464689144
 10
90.3217908845376
 20
-148.6524250930452
 10
90.3217908845376
 20
-148.6524250930452
 10
90.3217908845376
 20
-148.8922037388186
 10
90.3217908845376
 20
-148.8922037388186
 10
90.19466686113189
 20
-148.883246490557
 10
90.08270125786127
 20
-148.8718776754556
 10
89.96418997316867
 20
-148.7857502883244
 10
89.80347626878178
 20
-148.6682725322774
 10
89.76954207825206
 20
-148.4694905227785
 10
89.76954207825206
 20
-148.3451225757609
 10
89.76954207825206
 20
-148.0488443640295
 10
89.9535101771644
 20
-147.8273247243279
 10
90.22636173959619
 20
-147.8273247243279
 10
90.45511607981678
 20
-147.8273247243279
 10
90.55433482979197
 20
-147.9516926713454
 10
90.78067760317289
 20
-148.2817328188324
 97
        0
 97
        0
 75
     2
 76
     1
 98
        0
  0
ENDBLK
  5
B5
330
B2
100
AcDbEntity
  8
0
100
AcDbBlockEnd
  0
BLOCK
  5
D6
330
D4
100
AcDbEntity
  8
0
100
AcDbBlockBegin
  2
block 5
 70
     0
 10
0.0
 20
0.0
 30
0.0
  3
block 5
  1

  0
SPLINE
  5
D8
330
D4
100
AcDbEntity
  8
_U+30EC_U+30A4_U+30E4_U+30FC 1
370
     0
100
AcDbSpline
210
0.0
220
0.0
230
1.0
 70
    11
 71
     3
 72
    29
 73
    25
 74
     0
 42
0.0000000001
 43
0.0000000001
 12
1.0
 22
0.0
 32
0.0
 13
1.0
 23
0.0
 33
0.0
 40
0.0
 40
0.0
 40
0.0
 40
0.0
 40
1.0
 40
1.0
 40
1.0
 40
2.0
 40
2.0
 40
2.0
 40
3.0
 40
3.0
 40
3.0
 40
4.0
 40
4.0
 40
4.0
 40
5.0
 40
5.0
 40
5.0
 40
6.0
 40
6.0
 40
6.0
 40
7.0
 40
7.0
 40
7.0
 40
8.0
 40
8.0
 40
8.0
 40
8.0
 10
103.1847438978149
 20
-149.9002386778027
 30
0.0
 10
103.3942057033181
 20
-150.0156493765586
 30
0.0
 10
103.413153728487
 20
-150.200995513665
 30
0.0
 10
103.413153728487
 20
-150.3253634606826
 30
0.0
 10
103.413153728487
 20
-150.496929215848
 30
0.0
 10
103.3666449394361
 20
-150.648513417199
 30
0.0
 10
103.1847438978149
 20
-150.7501437340138
 30
0.0
 10
102.9900960028983
 20
-150.8610758086389
 30
0.0
 10
102.7534179430616
 20
-150.8814018720019
 30
0.0
 10
102.5904649266093
 20
-150.8814018720019
 30
0.0
 10
102.4464599353259
 20
-150.8814018720019
 30
0.0
 10
102.1946234553541
 20
-150.8634873754786
 30
0.0
 10
101.9958414458552
 20
-150.7501437340138
 30
0.0
 10
101.792925321774
 20
-150.6350775448065
 30
0.0
 10
101.7694986724743
 20
-150.4631672800925
 30
0.0
 10
101.7694986724743
 20
-150.3253634606826
 30
0.0
 10
101.7694986724743
 20
-150.1555202532597
 30
0.0
 10
101.813940404234
 20
-150.0018689946176
 30
0.0
 10
101.9958414458552
 20
-149.9002386778027
 30
0.0
 10
102.1884222834807
 20
-149.7937852273085
 30
0.0
 10
102.4168321141527
 20
-149.7689805398147
 30
0.0
 10
102.5904649266093
 20
-149.7689805398147
 30
0.0
 10
102.7616861722262
 20
-149.7689805398147
 30
0.0
 10
102.9921630601895
 20
-149.7917181700174
 30
0.0
 10
103.1847438978149
 20
-149.9002386778027
 30
0.0
  0
SPLINE
  5
D9
330
D4
100
AcDbEntity
  8
_U+30EC_U+30A4_U+30E4_U+30FC 1
370
     0
100
AcDbSpline
210
0.0
220
0.0
230
1.0
 70
    11
 71
     3
 72
    17
 73
    13
 74
     0
 42
0.0000000001
 43
0.0000000001
 12
1.0
 22
0.0
 32
0.0
 13
1.0
 23
0.0
 33
0.0
 40
0.0
 40
0.0
 40
0.0
 40
0.0
 40
1.0
 40
1.0
 40
1.0
 40
2.0
 40
2.0
 40
2.0
 40
3.0
 40
3.0
 40
3.0
 40
4.0
 40
4.0
 40
4.0
 40
4.0
 10
101.9620795100998
 20
-150.3253634606826
 30
0.0
 10
101.9620795100998
 20
-150.5920138512409
 30
0.0
 10
102.2456108685358
 20
-150.6416232262285
 30
0.0
 10
102.5904649266093
 20
-150.6416232262285
 30
0.0
 10
102.909825278092
 20
-150.6416232262285
 30
0.0
 10
103.2185058335704
 20
-150.6033826663422
 30
0.0
 10
103.2185058335704
 20
-150.3253634606826
 30
0.0
 10
103.2185058335704
 20
-150.0607801274154
 30
0.0
 10
102.937386041974
 20
-150.0087591855881
 30
0.0
 10
102.5904649266093
 20
-150.0087591855881
 30
0.0
 10
102.2707600655781
 20
-150.0087591855881
 30
0.0
 10
101.9620795100998
 20
-150.049411312314
 30
0.0
 10
101.9620795100998
 20
-150.3253634606826
 30
0.0
  0
HATCH
  5
DA
330
D4
100
AcDbEntity
  8
_U+30EC_U+30A4_U+30E4_U+30FC 1
 62
   179
420
  2234388
100
AcDbHatch
 10
0.0
 20
0.0
 30
0.0
210
0.0
220
0.0
230
1.0
  2
SOLID
 70
     1
 71
     0
 91
        2
 92
        1
 93
        1
 72
     4
 94
        3
 73
     0
 74
     1
 95
       29
 96
       25
 40
0.0
 40
0.0
 40
0.0
 40
0.0
 40
1.0
 40
1.0
 40
1.0
 40
2.0
 40
2.0
 40
2.0
 40
3.0
 40
3.0
 40
3.0
 40
4.0
 40
4.0
 40
4.0
 40
5.0
 40
5.0
 40
5.0
 40
6.0
 40
6.0
 40
6.0
 40
7.0
 40
7.0
 40
7.0
 40
8.0
 40
8.0
 40
8.0
 40
8.0
 10
103.1847438978149
 20
-149.9002386778027
 10
103.3942057033181
 20
-150.0156493765586
 10
103.413153728487
 20
-150.200995513665
 10
103.413153728487
 20
-150.3253634606826
 10
103.413153728487
 20
-150.496929215848
 10
103.3666449394361
 20
-150.648513417199
 10
103.1847438978149
 20
-150.7501437340138
 10
102.9900960028983
 20
-150.8610758086389
 10
102.7534179430616
 20
-150.8814018720019
 10
102.5904649266093
 20
-150.8814018720019
 10
102.4464599353259
 20
-150.8814018720019
 10
102.1946234553541
 20
-150.8634873754786
 10
101.9958414458552
 20
-150.7501437340138
 10
101.792925321774
 20
-150.6350775448065
 10
101.7694986724743
 20
-150.4631672800925
 10
101.7694986724743
 20
-150.3253634606826
 10
101.7694986724743
 20
-150.1555202532597
 10
101.813940404234
 20
-150.0018689946176
 10
101.9958414458552
 20
-149.9002386778027
 10
102.1884222834807
 20
-149.7937852273085
 10
102.4168321141527
 20
-149.7689805398147
 10
102.5904649266093
 20
-149.7689805398147
 10
102.7616861722262
 20
-149.7689805398147
 10
102.9921630601895
 20
-149.7917181700174
 10
103.1847438978149
 20
-149.9002386778027
 97
        0
 97
        0
 92
        1
 93
        1
 72
     4
 94
        3
 73
     0
 74
     1
 95
       17
 96
       13
 40
0.0
 40
0.0
 40
0.0
 40
0.0
 40
1.0
 40
1.0
 40
1.0
 40
2.0
 40
2.0
 40
2.0
 40
3.0
 40
3.0
 40
3.0
 40
4.0
 40
4.0
 40
4.0
 40
4.0
 10
101.9620795100998
 20
-150.3253634606826
 10
101.9620795100998
 20
-150.5920138512409
 10
102.2456108685358
 20
-150.6416232262285
 10
102.5904649266093
 20
-150.6416232262285
 10
102.909825278092
 20
-150.6416232262285
 10
103.2185058335704
 20
-150.6033826663422
 10
103.2185058335704
 20
-150.3253634606826
 10
103.2185058335704
 20
-150.0607801274154
 10
102.937386041974
 20
-150.0087591855881
 10
102.5904649266093
 20
-150.0087591855881
 10
102.2707600655781
 20
-150.0087591855881
 10
101.9620795100998
 20
-150.049411312314
 10
101.9620795100998
 20
-150.3253634606826
 97
        0
 97
        0
 75
     2
 76
     1
 98
        0
  0
POLYLINE
  5
DB
330
D4
100
AcDbEntity
  8
_U+30EC_U+30A4_U+30E4_U+30FC 1
370
     0
100
AcDb2dPolyline
 66
     1
 10
0.0
 20
0.0
 30
0.0
  0
VERTEX
  5
DC
330
DB
100
AcDbEntity
  8
_U+30EC_U+30A4_U+30E4_U+30FC 1
370
     0
100
AcDbVertex
100
AcDb2dVertex
 10
103.3625108248538
 20
-149.5378146327544
 30
0.0
  0
VERTEX
  5
DD
330
DB
100
AcDbEntity
  8
_U+30EC_U+30A4_U+30E4_U+30FC 1
370
     0
100
AcDbVertex
100
AcDb2dVertex
 10
103.1106743448821
 20
-149.5378146327544
 30
0.0
  0
VERTEX
  5
DE
330
DB
100
AcDbEntity
  8
_U+30EC_U+30A4_U+30E4_U+30FC 1
370
     0
100
AcDbVertex
100
AcDb2dVertex
 10
103.1106743448821
 20
-149.2687526753564
 30
0.0
  0
VERTEX
  5
DF
330
DB
100
AcDbEntity
  8
_U+30EC_U+30A4_U+30E4_U+30FC 1
370
     0
100
AcDbVertex
100
AcDb2dVertex
 10
103.3625108248538
 20
-149.2687526753564
 30
0.0
  0
VERTEX
  5
E0
330
DB
100
AcDbEntity
  8
_U+30EC_U+30A4_U+30E4_U+30FC 1
370
     0
100
AcDbVertex
100
AcDb2dVertex
 10
103.3625108248538
 20
-149.5378146327544
 30
0.0
  0
SEQEND
  5
E1
330
DB
100
AcDbEntity
  8
_U+30EC_U+30A4_U+30E4_U+30FC 1
370
     0
  0
HATCH
  5
E2
330
D4
100
AcDbEntity
  8
_U+30EC_U+30A4_U+30E4_U+30FC 1
 62
   179
420
  2234388
100
AcDbHatch
 10
0.0
 20
0.0
 30
0.0
210
0.0
220
0.0
230
1.0
  2
SOLID
 70
     1
 71
     0
 91
        1
 92
        1
 93
        4
 72
     1
 10
103.3625108248538
 20
-149.5378146327544
 11
103.1106743448821
 21
-149.5378146327544
 72
     1
 10
103.1106743448821
 20
-149.5378146327544
 11
103.1106743448821
 21
-149.2687526753564
 72
     1
 10
103.1106743448821
 20
-149.2687526753564
 11
103.3625108248538
 21
-149.2687526753564
 72
     1
 10
103.3625108248538
 20
-149.2687526753564
 11
103.3625108248538
 21
-149.5378146327544
 97
        0
 75
     2
 76
     1
 98
        0
  0
SPLINE
  5
E3
330
D4
100
AcDbEntity
  8
_U+30EC_U+30A4_U+30E4_U+30FC 1
370
     0
100
AcDbSpline
210
0.0
220
0.0
230
1.0
 70
    11
 71
     3
 72
    53
 73
    49
 74
     0
 42
0.0000000001
 43
0.0000000001
 12
1.0
 22
0.0
 32
0.0
 13
1.0
 23
0.0
 33
0.0
 40
0.0
 40
0.0
 40
0.0
 40
0.0
 40
1.0
 40
1.0
 40
1.0
 40
2.0
 40
2.0
 40
2.0
 40
3.0
 40
3.0
 40
3.0
 40
4.0
 40
4.0
 40
4.0
 40
5.0
 40
5.0
 40
5.0
 40
6.0
 40
6.0
 40
6.0
 40
7.0
 40
7.0
 40
7.0
 40
8.0
 40
8.0
 40
8.0
 40
9.0
 40
9.0
 40
9.0
 40
10.0
 40
10.0
 40
10.0
 40
11.0
 40
11.0
 40
11.0
 40
12.0
 40
12.0
 40
12.0
 40
13.0
 40
13.0
 40
13.0
 40
14.0
 40
14.0
 40
14.0
 40
15.0
 40
15.0
 40
15.0
 40
16.0
 40
16.0
 40
16.0
 40
16.0
 10
103.413153728487
 20
-148.5018744203398
 30
0.0
 10
103.413153728487
 20
-148.5855902406314
 30
0.0
 10
103.3962727606093
 20
-148.6937662388682
 30
0.0
 10
103.3328830036807
 20
-148.8026312562021
 30
0.0
 10
103.2229844577012
 20
-148.9879773933086
 30
0.0
 10
103.0917263197132
 20
-149.0103705139627
 30
0.0
 10
102.9838948310249
 20
-149.0306965773257
 30
0.0
 10
102.9838948310249
 20
-149.0306965773257
 30
0.0
 10
102.9838948310249
 20
-148.793329498392
 30
0.0
 10
102.9838948310249
 20
-148.793329498392
 30
0.0
 10
103.1826768405238
 20
-148.7347628751427
 30
0.0
 10
103.2123046616969
 20
-148.5990261130239
 30
0.0
 10
103.2123046616969
 20
-148.4994628535001
 30
0.0
 10
103.2123046616969
 20
-148.3502902189888
 30
0.0
 10
103.1127414021732
 20
-148.1873372025365
 30
0.0
 10
102.8801974569189
 20
-148.1873372025365
 30
0.0
 10
102.6242268623648
 20
-148.1873372025365
 30
0.0
 10
102.5542914240142
 20
-148.3795735306134
 30
0.0
 10
102.5542914240142
 20
-148.5084201017618
 30
0.0
 10
102.5542914240142
 20
-148.5425265470658
 30
0.0
 10
102.5542914240142
 20
-148.6937662388682
 30
0.0
 10
102.6834825047111
 20
-148.7888508742611
 30
0.0
 10
102.6834825047111
 20
-148.7888508742611
 30
0.0
 10
102.6645344795422
 20
-148.9766085782072
 30
0.0
 10
102.6645344795422
 20
-148.9766085782072
 30
0.0
 10
102.6645344795422
 20
-148.9766085782072
 30
0.0
 10
101.8180745188163
 20
-148.8477620070589
 30
0.0
 10
101.8180745188163
 20
-148.8477620070589
 30
0.0
 10
101.8180745188163
 20
-148.8477620070589
 30
0.0
 10
101.8180745188163
 20
-148.0157714473711
 30
0.0
 10
101.8180745188163
 20
-148.0157714473711
 30
0.0
 10
101.8180745188163
 20
-148.0157714473711
 30
0.0
 10
102.0127224137329
 20
-148.0157714473711
 30
0.0
 10
102.0127224137329
 20
-148.0157714473711
 30
0.0
 10
102.0127224137329
 20
-148.0157714473711
 30
0.0
 10
102.0127224137329
 20
-148.6734401755052
 30
0.0
 10
102.0127224137329
 20
-148.6734401755052
 30
0.0
 10
102.0127224137329
 20
-148.6734401755052
 30
0.0
 10
102.4357801393216
 20
-148.7437201234044
 30
0.0
 10
102.4357801393216
 20
-148.7437201234044
 30
0.0
 10
102.4020182035662
 20
-148.6782633091846
 30
0.0
 10
102.3617105863887
 20
-148.5900688647622
 30
0.0
 10
102.3617105863887
 20
-148.463289350905
 30
0.0
 10
102.3617105863887
 20
-148.1921603362159
 30
0.0
 10
102.5480902521408
 20
-147.93894581805
 30
0.0
 10
102.86124943175
 20
-147.93894581805
 30
0.0
 10
103.1785427259415
 20
-147.93894581805
 30
0.0
 10
103.413153728487
 20
-148.1783799542748
 30
0.0
 10
103.413153728487
 20
-148.5018744203398
 30
0.0
  0
HATCH
  5
E4
330
D4
100
AcDbEntity
  8
_U+30EC_U+30A4_U+30E4_U+30FC 1
 62
   179
420
  2234388
100
AcDbHatch
 10
0.0
 20
0.0
 30
0.0
210
0.0
220
0.0
230
1.0
  2
SOLID
 70
     1
 71
     0
 91
        1
 92
        1
 93
        1
 72
     4
 94
        3
 73
     0
 74
     1
 95
       53
 96
       49
 40
0.0
 40
0.0
 40
0.0
 40
0.0
 40
1.0
 40
1.0
 40
1.0
 40
2.0
 40
2.0
 40
2.0
 40
3.0
 40
3.0
 40
3.0
 40
4.0
 40
4.0
 40
4.0
 40
5.0
 40
5.0
 40
5.0
 40
6.0
 40
6.0
 40
6.0
 40
7.0
 40
7.0
 40
7.0
 40
8.0
 40
8.0
 40
8.0
 40
9.0
 40
9.0
 40
9.0
 40
10.0
 40
10.0
 40
10.0
 40
11.0
 40
11.0
 40
11.0
 40
12.0
 40
12.0
 40
12.0
 40
13.0
 40
13.0
 40
13.0
 40
14.0
 40
14.0
 40
14.0
 40
15.0
 40
15.0
 40
15.0
 40
16.0
 40
16.0
 40
16.0
 40
16.0
 10
103.413153728487
 20
-148.5018744203398
 10
103.413153728487
 20
-148.5855902406314
 10
103.3962727606093
 20
-148.6937662388682
 10
103.3328830036807
 20
-148.8026312562021
 10
103.2229844577012
 20
-148.9879773933086
 10
103.0917263197132
 20
-149.0103705139627
 10
102.9838948310249
 20
-149.0306965773257
 10
102.9838948310249
 20
-149.0306965773257
 10
102.9838948310249
 20
-148.793329498392
 10
102.9838948310249
 20
-148.793329498392
 10
103.1826768405238
 20
-148.7347628751427
 10
103.2123046616969
 20
-148.5990261130239
 10
103.2123046616969
 20
-148.4994628535001
 10
103.2123046616969
 20
-148.3502902189888
 10
103.1127414021732
 20
-148.1873372025365
 10
102.8801974569189
 20
-148.1873372025365
 10
102.6242268623648
 20
-148.1873372025365
 10
102.5542914240142
 20
-148.3795735306134
 10
102.5542914240142
 20
-148.5084201017618
 10
102.5542914240142
 20
-148.5425265470658
 10
102.5542914240142
 20
-148.6937662388682
 10
102.6834825047111
 20
-148.7888508742611
 10
102.6834825047111
 20
-148.7888508742611
 10
102.6645344795422
 20
-148.9766085782072
 10
102.6645344795422
 20
-148.9766085782072
 10
102.6645344795422
 20
-148.9766085782072
 10
101.8180745188163
 20
-148.8477620070589
 10
101.8180745188163
 20
-148.8477620070589
 10
101.8180745188163
 20
-148.8477620070589
 10
101.8180745188163
 20
-148.0157714473711
 10
101.8180745188163
 20
-148.0157714473711
 10
101.8180745188163
 20
-148.0157714473711
 10
102.0127224137329
 20
-148.0157714473711
 10
102.0127224137329
 20
-148.0157714473711
 10
102.0127224137329
 20
-148.0157714473711
 10
102.0127224137329
 20
-148.6734401755052
 10
102.0127224137329
 20
-148.6734401755052
 10
102.0127224137329
 20
-148.6734401755052
 10
102.4357801393216
 20
-148.7437201234044
 10
102.4357801393216
 20
-148.7437201234044
 10
102.4020182035662
 20
-148.6782633091846
 10
102.3617105863887
 20
-148.5900688647622
 10
102.3617105863887
 20
-148.463289350905
 10
102.3617105863887
 20
-148.1921603362159
 10
102.5480902521408
 20
-147.93894581805
 10
102.86124943175
 20
-147.93894581805
 10
103.1785427259415
 20
-147.93894581805
 10
103.413153728487
 20
-148.1783799542748
 10
103.413153728487
 20
-148.5018744203398
 97
        0
 97
        0
 75
     2
 76
     1
 98
        0
  0
ENDBLK
  5
D7
330
D4
100
AcDbEntity
  8
0
100
AcDbBlockEnd
  0
BLOCK
  5
F7
330
F5
100
AcDbEntity
  8
0
100
AcDbBlockBegin
  2
block 6
 70
     0
 10
0.0
 20
0.0
 30
0.0
  3
block 6
  1

  0
SPLINE
  5
F9
330
F5
100
AcDbEntity
  8
_U+30EC_U+30A4_U+30E4_U+30FC 1
370
     0
100
AcDbSpline
210
0.0
220
0.0
230
1.0
 70
    11
 71
     3
 72
    26
 73
    22
 74
     0
 42
0.0000000001
 43
0.0000000001
 12
1.0
 22
0.0
 32
0.0
 13
1.0
 23
0.0
 33
0.0
 40
0.0
 40
0.0
 40
0.0
 40
0.0
 40
1.0
 40
1.0
 40
1.0
 40
2.0
 40
2.0
 40
2.0
 40
3.0
 40
3.0
 40
3.0
 40
4.0
 40
4.0
 40
4.0
 40
5.0
 40
5.0
 40
5.0
 40
6.0
 40
6.0
 40
6.0
 40
7.0
 40
7.0
 40
7.0
 40
7.0
 10
119.3629122965482
 20
-142.3596136796879
 30
0.0
 10
119.3629122965482
 20
-142.3596136796879
 30
0.0
 10
118.2587591935256
 20
-142.3596136796879
 30
0.0
 10
118.2587591935256
 20
-142.3596136796879
 30
0.0
 10
118.2587591935256
 20
-142.3596136796879
 30
0.0
 10
118.2587591935256
 20
-142.7123914573775
 30
0.0
 10
118.2587591935256
 20
-142.7123914573775
 30
0.0
 10
118.2587591935256
 20
-142.7123914573775
 30
0.0
 10
118.1106200876599
 20
-142.7123914573775
 30
0.0
 10
118.1106200876599
 20
-142.7123914573775
 30
0.0
 10
118.0958061770733
 20
-142.3573743676225
 30
0.0
 10
117.932853160621
 20
-142.3075927378606
 30
0.0
 10
117.8184759905107
 20
-142.2758978593963
 30
0.0
 10
117.8184759905107
 20
-142.2758978593963
 30
0.0
 10
117.8184759905107
 20
-142.1200072886888
 30
0.0
 10
117.8184759905107
 20
-142.1200072886888
 30
0.0
 10
117.8184759905107
 20
-142.1200072886888
 30
0.0
 10
119.3629122965482
 20
-142.1200072886888
 30
0.0
 10
119.3629122965482
 20
-142.1200072886888
 30
0.0
 10
119.3629122965482
 20
-142.1200072886888
 30
0.0
 10
119.3629122965482
 20
-142.3596136796879
 30
0.0
 10
119.3629122965482
 20
-142.3596136796879
 30
0.0
  0
HATCH
  5
FA
330
F5
100
AcDbEntity
  8
_U+30EC_U+30A4_U+30E4_U+30FC 1
 62
   179
420
  2234388
100
AcDbHatch
 10
0.0
 20
0.0
 30
0.0
210
0.0
220
0.0
230
1.0
  2
SOLID
 70
     1
 71
     0
 91
        1
 92
        1
 93
        1
 72
     4
 94
        3
 73
     0
 74
     1
 95
       26
 96
       22
 40
0.0
 40
0.0
 40
0.0
 40
0.0
 40
1.0
 40
1.0
 40
1.0
 40
2.0
 40
2.0
 40
2.0
 40
3.0
 40
3.0
 40
3.0
 40
4.0
 40
4.0
 40
4.0
 40
5.0
 40
5.0
 40
5.0
 40
6.0
 40
6.0
 40
6.0
 40
7.0
 40
7.0
 40
7.0
 40
7.0
 10
119.3629122965482
 20
-142.3596136796879
 10
119.3629122965482
 20
-142.3596136796879
 10
118.2587591935256
 20
-142.3596136796879
 10
118.2587591935256
 20
-142.3596136796879
 10
118.2587591935256
 20
-142.3596136796879
 10
118.2587591935256
 20
-142.7123914573775
 10
118.2587591935256
 20
-142.7123914573775
 10
118.2587591935256
 20
-142.7123914573775
 10
118.1106200876599
 20
-142.7123914573775
 10
118.1106200876599
 20
-142.7123914573775
 10
118.0958061770733
 20
-142.3573743676225
 10
117.932853160621
 20
-142.3075927378606
 10
117.8184759905107
 20
-142.2758978593963
 10
117.8184759905107
 20
-142.2758978593963
 10
117.8184759905107
 20
-142.1200072886888
 10
117.8184759905107
 20
-142.1200072886888
 10
117.8184759905107
 20
-142.1200072886888
 10
119.3629122965482
 20
-142.1200072886888
 10
119.3629122965482
 20
-142.1200072886888
 10
119.3629122965482
 20
-142.1200072886888
 10
119.3629122965482
 20
-142.3596136796879
 10
119.3629122965482
 20
-142.3596136796879
 97
        0
 97
        0
 75
     2
 76
     1
 98
        0
  0
ENDBLK
  5
F8
330
F5
100
AcDbEntity
  8
0
100
AcDbBlockEnd
  0
BLOCK
  5
109
330
107
100
AcDbEntity
  8
0
100
AcDbBlockBegin
  2
block 7
 70
     0
 10
0.0
 20
0.0
 30
0.0
  3
block 7
  1

  0
SPLINE
  5
10B
330
107
100
AcDbEntity
  8
_U+30EC_U+30A4_U+30E4_U+30FC 1
370
     0
100
AcDbSpline
210
0.0
220
0.0
230
1.0
 70
    11
 71
     3
 72
    32
 73
    28
 74
     0
 42
0.0000000001
 43
0.0000000001
 12
1.0
 22
0.0
 32
0.0
 13
1.0
 23
0.0
 33
0.0
 40
0.0
 40
0.0
 40
0.0
 40
0.0
 40
1.0
 40
1.0
 40
1.0
 40
2.0
 40
2.0
 40
2.0
 40
3.0
 40
3.0
 40
3.0
 40
4.0
 40
4.0
 40
4.0
 40
5.0
 40
5.0
 40
5.0
 40
6.0
 40
6.0
 40
6.0
 40
7.0
 40
7.0
 40
7.0
 40
8.0
 40
8.0
 40
8.0
 40
9.0
 40
9.0
 40
9.0
 40
9.0
 10
119.4135552001813
 20
-150.220632557931
 30
0.0
 10
119.4135552001813
 20
-150.7721923451195
 30
0.0
 10
118.8595838461532
 20
-150.7811495933811
 30
0.0
 10
118.6456434165191
 20
-150.7811495933811
 30
0.0
 10
118.4151665285559
 20
-150.7811495933811
 30
0.0
 10
117.7678330868775
 20
-150.7608235300181
 30
0.0
 10
117.7678330868775
 20
-150.1796359216565
 30
0.0
 10
117.7678330868775
 20
-149.99428978455
 30
0.0
 10
117.8377685252281
 20
-149.7321180181225
 30
0.0
 10
118.1698757300062
 20
-149.6914658913966
 30
0.0
 10
118.1698757300062
 20
-149.6914658913966
 30
0.0
 10
118.1698757300062
 20
-149.9198757220686
 30
0.0
 10
118.1698757300062
 20
-149.9198757220686
 30
0.0
 10
118.112687144951
 20
-149.93124453717
 30
0.0
 10
117.9645480390853
 20
-149.9650064729254
 30
0.0
 10
117.9645480390853
 20
-150.1820474884962
 30
0.0
 10
117.9645480390853
 20
-150.4941731394598
 30
0.0
 10
118.292521129281
 20
-150.5368923234769
 30
0.0
 10
118.4975043106534
 20
-150.5506727054179
 30
0.0
 10
118.4193006431382
 20
-150.4511094458942
 30
0.0
 10
118.3600450007919
 20
-150.3787624407039
 30
0.0
 10
118.3600450007919
 20
-150.1841145457873
 30
0.0
 10
118.3600450007919
 20
-149.9922227272589
 30
0.0
 10
118.4682209990288
 20
-149.6687282611939
 30
0.0
 10
118.8743977567397
 20
-149.6687282611939
 30
0.0
 10
119.1937581082224
 20
-149.6687282611939
 30
0.0
 10
119.4135552001813
 20
-149.8812906526339
 30
0.0
 10
119.4135552001813
 20
-150.220632557931
 30
0.0
  0
SPLINE
  5
10C
330
107
100
AcDbEntity
  8
_U+30EC_U+30A4_U+30E4_U+30FC 1
370
     0
100
AcDbSpline
210
0.0
220
0.0
230
1.0
 70
    11
 71
     3
 72
    17
 73
    13
 74
     0
 42
0.0000000001
 43
0.0000000001
 12
1.0
 22
0.0
 32
0.0
 13
1.0
 23
0.0
 33
0.0
 40
0.0
 40
0.0
 40
0.0
 40
0.0
 40
1.0
 40
1.0
 40
1.0
 40
2.0
 40
2.0
 40
2.0
 40
3.0
 40
3.0
 40
3.0
 40
4.0
 40
4.0
 40
4.0
 40
4.0
 10
118.5546928957086
 20
-150.2023735518591
 30
0.0
 10
118.5546928957086
 20
-150.4828043243585
 30
0.0
 10
118.7662217585029
 20
-150.5234564510844
 30
0.0
 10
118.8826659859043
 20
-150.5234564510844
 30
0.0
 10
119.0583658556521
 20
-150.5234564510844
 30
0.0
 10
119.2213188721044
 20
-150.4218261342695
 30
0.0
 10
119.2213188721044
 20
-150.2251111820618
 30
0.0
 10
119.2213188721044
 20
-150.0962646109134
 30
0.0
 10
119.1620632297581
 20
-149.9085069069673
 30
0.0
 10
118.8764648140309
 20
-149.9085069069673
 30
0.0
 10
118.6521890979411
 20
-149.9085069069673
 30
0.0
 10
118.5546928957086
 20
-150.0576795414786
 30
0.0
 10
118.5546928957086
 20
-150.2023735518591
 30
0.0
  0
HATCH
  5
10D
330
107
100
AcDbEntity
  8
_U+30EC_U+30A4_U+30E4_U+30FC 1
 62
   179
420
  2234388
100
AcDbHatch
 10
0.0
 20
0.0
 30
0.0
210
0.0
220
0.0
230
1.0
  2
SOLID
 70
     1
 71
     0
 91
        2
 92
        1
 93
        1
 72
     4
 94
        3
 73
     0
 74
     1
 95
       32
 96
       28
 40
0.0
 40
0.0
 40
0.0
 40
0.0
 40
1.0
 40
1.0
 40
1.0
 40
2.0
 40
2.0
 40
2.0
 40
3.0
 40
3.0
 40
3.0
 40
4.0
 40
4.0
 40
4.0
 40
5.0
 40
5.0
 40
5.0
 40
6.0
 40
6.0
 40
6.0
 40
7.0
 40
7.0
 40
7.0
 40
8.0
 40
8.0
 40
8.0
 40
9.0
 40
9.0
 40
9.0
 40
9.0
 10
119.4135552001813
 20
-150.220632557931
 10
119.4135552001813
 20
-150.7721923451195
 10
118.8595838461532
 20
-150.7811495933811
 10
118.6456434165191
 20
-150.7811495933811
 10
118.4151665285559
 20
-150.7811495933811
 10
117.7678330868775
 20
-150.7608235300181
 10
117.7678330868775
 20
-150.1796359216565
 10
117.7678330868775
 20
-149.99428978455
 10
117.8377685252281
 20
-149.7321180181225
 10
118.1698757300062
 20
-149.6914658913966
 10
118.1698757300062
 20
-149.6914658913966
 10
118.1698757300062
 20
-149.9198757220686
 10
118.1698757300062
 20
-149.9198757220686
 10
118.112687144951
 20
-149.93124453717
 10
117.9645480390853
 20
-149.9650064729254
 10
117.9645480390853
 20
-150.1820474884962
 10
117.9645480390853
 20
-150.4941731394598
 10
118.292521129281
 20
-150.5368923234769
 10
118.4975043106534
 20
-150.5506727054179
 10
118.4193006431382
 20
-150.4511094458942
 10
118.3600450007919
 20
-150.3787624407039
 10
118.3600450007919
 20
-150.1841145457873
 10
118.3600450007919
 20
-149.9922227272589
 10
118.4682209990288
 20
-149.6687282611939
 10
118.8743977567397
 20
-149.6687282611939
 10
119.1937581082224
 20
-149.6687282611939
 10
119.4135552001813
 20
-149.8812906526339
 10
119.4135552001813
 20
-150.220632557931
 97
        0
 97
        0
 92
        1
 93
        1
 72
     4
 94
        3
 73
     0
 74
     1
 95
       17
 96
       13
 40
0.0
 40
0.0
 40
0.0
 40
0.0
 40
1.0
 40
1.0
 40
1.0
 40
2.0
 40
2.0
 40
2.0
 40
3.0
 40
3.0
 40
3.0
 40
4.0
 40
4.0
 40
4.0
 40
4.0
 10
118.5546928957086
 20
-150.2023735518591
 10
118.5546928957086
 20
-150.4828043243585
 10
118.7662217585029
 20
-150.5234564510844
 10
118.8826659859043
 20
-150.5234564510844
 10
119.0583658556521
 20
-150.5234564510844
 10
119.2213188721044
 20
-150.4218261342695
 10
119.2213188721044
 20
-150.2251111820618
 10
119.2213188721044
 20
-150.0962646109134
 10
119.1620632297581
 20
-149.9085069069673
 10
118.8764648140309
 20
-149.9085069069673
 10
118.6521890979411
 20
-149.9085069069673
 10
118.5546928957086
 20
-150.0576795414786
 10
118.5546928957086
 20
-150.2023735518591
 97
        0
 97
        0
 75
     2
 76
     1
 98
        0
  0
POLYLINE
  5
10E
330
107
100
AcDbEntity
  8
_U+30EC_U+30A4_U+30E4_U+30FC 1
370
     0
100
AcDb2dPolyline
 66
     1
 10
0.0
 20
0.0
 30
0.0
  0
VERTEX
  5
10F
330
10E
100
AcDbEntity
  8
_U+30EC_U+30A4_U+30E4_U+30FC 1
370
     0
100
AcDbVertex
100
AcDb2dVertex
 10
119.3629122965482
 20
-149.4375623541337
 30
0.0
  0
VERTEX
  5
110
330
10E
100
AcDbEntity
  8
_U+30EC_U+30A4_U+30E4_U+30FC 1
370
     0
100
AcDbVertex
100
AcDb2dVertex
 10
119.1110758165764
 20
-149.4375623541337
 30
0.0
  0
VERTEX
  5
111
330
10E
100
AcDbEntity
  8
_U+30EC_U+30A4_U+30E4_U+30FC 1
370
     0
100
AcDbVertex
100
AcDb2dVertex
 10
119.1110758165764
 20
-149.1685003967357
 30
0.0
  0
VERTEX
  5
112
330
10E
100
AcDbEntity
  8
_U+30EC_U+30A4_U+30E4_U+30FC 1
370
     0
100
AcDbVertex
100
AcDb2dVertex
 10
119.3629122965482
 20
-149.1685003967357
 30
0.0
  0
VERTEX
  5
113
330
10E
100
AcDbEntity
  8
_U+30EC_U+30A4_U+30E4_U+30FC 1
370
     0
100
AcDbVertex
100
AcDb2dVertex
 10
119.3629122965482
 20
-149.4375623541337
 30
0.0
  0
SEQEND
  5
114
330
10E
100
AcDbEntity
  8
_U+30EC_U+30A4_U+30E4_U+30FC 1
370
     0
  0
HATCH
  5
115
330
107
100
AcDbEntity
  8
_U+30EC_U+30A4_U+30E4_U+30FC 1
 62
   179
420
  2234388
100
AcDbHatch
 10
0.0
 20
0.0
 30
0.0
210
0.0
220
0.0
230
1.0
  2
SOLID
 70
     1
 71
     0
 91
        1
 92
        1
 93
        4
 72
     1
 10
119.3629122965482
 20
-149.4375623541337
 11
119.1110758165764
 21
-149.4375623541337
 72
     1
 10
119.1110758165764
 20
-149.4375623541337
 11
119.1110758165764
 21
-149.1685003967357
 72
     1
 10
119.1110758165764
 20
-149.1685003967357
 11
119.3629122965482
 21
-149.1685003967357
 72
     1
 10
119.3629122965482
 20
-149.1685003967357
 11
119.3629122965482
 21
-149.4375623541337
 97
        0
 75
     2
 76
     1
 98
        0
  0
SPLINE
  5
116
330
107
100
AcDbEntity
  8
_U+30EC_U+30A4_U+30E4_U+30FC 1
370
     0
100
AcDbSpline
210
0.0
220
0.0
230
1.0
 70
    11
 71
     3
 72
    44
 73
    40
 74
     0
 42
0.0000000001
 43
0.0000000001
 12
1.0
 22
0.0
 32
0.0
 13
1.0
 23
0.0
 33
0.0
 40
0.0
 40
0.0
 40
0.0
 40
0.0
 40
1.0
 40
1.0
 40
1.0
 40
2.0
 40
2.0
 40
2.0
 40
3.0
 40
3.0
 40
3.0
 40
4.0
 40
4.0
 40
4.0
 40
5.0
 40
5.0
 40
5.0
 40
6.0
 40
6.0
 40
6.0
 40
7.0
 40
7.0
 40
7.0
 40
8.0
 40
8.0
 40
8.0
 40
9.0
 40
9.0
 40
9.0
 40
10.0
 40
10.0
 40
10.0
 40
11.0
 40
11.0
 40
11.0
 40
12.0
 40
12.0
 40
12.0
 40
13.0
 40
13.0
 40
13.0
 40
13.0
 10
118.7810356690895
 20
-148.2817328188324
 30
0.0
 10
118.9398545709595
 20
-148.5146212736352
 30
0.0
 10
119.0139241238924
 20
-148.6141845331589
 30
0.0
 10
119.1575846056273
 20
-148.6662054749862
 30
0.0
 10
119.1575846056273
 20
-148.6662054749862
 30
0.0
 10
119.1575846056273
 20
-147.8338704057499
 30
0.0
 10
119.1575846056273
 20
-147.8338704057499
 30
0.0
 10
119.1575846056273
 20
-147.8338704057499
 30
0.0
 10
119.3629122965482
 20
-147.8338704057499
 30
0.0
 10
119.3629122965482
 20
-147.8338704057499
 30
0.0
 10
119.3629122965482
 20
-147.8338704057499
 30
0.0
 10
119.3629122965482
 20
-148.9328558655446
 30
0.0
 10
119.3629122965482
 20
-148.9328558655446
 30
0.0
 10
119.0053113851792
 20
-148.8987494202406
 30
0.0
 10
118.9271077176641
 20
-148.82881398189
 30
0.0
 10
118.6287624486414
 20
-148.4174695809512
 30
0.0
 10
118.4299804391425
 20
-148.1439289994224
 30
0.0
 10
118.3621120580831
 20
-148.0736490515233
 30
0.0
 10
118.2246527482216
 20
-148.0736490515233
 30
0.0
 10
118.106141463529
 20
-148.0736490515233
 30
0.0
 10
117.9752278350895
 20
-148.1504746808443
 30
0.0
 10
117.9752278350895
 20
-148.3609700149931
 30
0.0
 10
117.9752278350895
 20
-148.6389892206527
 30
0.0
 10
118.2057047230527
 20
-148.6479464689144
 30
0.0
 10
118.3221489504542
 20
-148.6524250930452
 30
0.0
 10
118.3221489504542
 20
-148.6524250930452
 30
0.0
 10
118.3221489504542
 20
-148.8922037388186
 30
0.0
 10
118.3221489504542
 20
-148.8922037388186
 30
0.0
 10
118.1950249270485
 20
-148.883246490557
 30
0.0
 10
118.0830593237778
 20
-148.8718776754556
 30
0.0
 10
117.9645480390853
 20
-148.7857502883244
 30
0.0
 10
117.8036620799241
 20
-148.6682725322774
 30
0.0
 10
117.7699001441686
 20
-148.4694905227785
 30
0.0
 10
117.7699001441686
 20
-148.3451225757609
 30
0.0
 10
117.7699001441686
 20
-148.0488443640295
 30
0.0
 10
117.953868243081
 20
-147.8273247243279
 30
0.0
 10
118.2267198055128
 20
-147.8273247243279
 30
0.0
 10
118.4554741457334
 20
-147.8273247243279
 30
0.0
 10
118.5546928957086
 20
-147.9516926713454
 30
0.0
 10
118.7810356690895
 20
-148.2817328188324
 30
0.0
  0
HATCH
  5
117
330
107
100
AcDbEntity
  8
_U+30EC_U+30A4_U+30E4_U+30FC 1
 62
   179
420
  2234388
100
AcDbHatch
 10
0.0
 20
0.0
 30
0.0
210
0.0
220
0.0
230
1.0
  2
SOLID
 70
     1
 71
     0
 91
        1
 92
        1
 93
        1
 72
     4
 94
        3
 73
     0
 74
     1
 95
       44
 96
       40
 40
0.0
 40
0.0
 40
0.0
 40
0.0
 40
1.0
 40
1.0
 40
1.0
 40
2.0
 40
2.0
 40
2.0
 40
3.0
 40
3.0
 40
3.0
 40
4.0
 40
4.0
 40
4.0
 40
5.0
 40
5.0
 40
5.0
 40
6.0
 40
6.0
 40
6.0
 40
7.0
 40
7.0
 40
7.0
 40
8.0
 40
8.0
 40
8.0
 40
9.0
 40
9.0
 40
9.0
 40
10.0
 40
10.0
 40
10.0
 40
11.0
 40
11.0
 40
11.0
 40
12.0
 40
12.0
 40
12.0
 40
13.0
 40
13.0
 40
13.0
 40
13.0
 10
118.7810356690895
 20
-148.2817328188324
 10
118.9398545709595
 20
-148.5146212736352
 10
119.0139241238924
 20
-148.6141845331589
 10
119.1575846056273
 20
-148.6662054749862
 10
119.1575846056273
 20
-148.6662054749862
 10
119.1575846056273
 20
-147.8338704057499
 10
119.1575846056273
 20
-147.8338704057499
 10
119.1575846056273
 20
-147.8338704057499
 10
119.3629122965482
 20
-147.8338704057499
 10
119.3629122965482
 20
-147.8338704057499
 10
119.3629122965482
 20
-147.8338704057499
 10
119.3629122965482
 20
-148.9328558655446
 10
119.3629122965482
 20
-148.9328558655446
 10
119.0053113851792
 20
-148.8987494202406
 10
118.9271077176641
 20
-148.82881398189
 10
118.6287624486414
 20
-148.4174695809512
 10
118.4299804391425
 20
-148.1439289994224
 10
118.3621120580831
 20
-148.0736490515233
 10
118.2246527482216
 20
-148.0736490515233
 10
118.106141463529
 20
-148.0736490515233
 10
117.9752278350895
 20
-148.1504746808443
 10
117.9752278350895
 20
-148.3609700149931
 10
117.9752278350895
 20
-148.6389892206527
 10
118.2057047230527
 20
-148.6479464689144
 10
118.3221489504542
 20
-148.6524250930452
 10
118.3221489504542
 20
-148.6524250930452
 10
118.3221489504542
 20
-148.8922037388186
 10
118.3221489504542
 20
-148.8922037388186
 10
118.1950249270485
 20
-148.883246490557
 10
118.0830593237778
 20
-148.8718776754556
 10
117.9645480390853
 20
-148.7857502883244
 10
117.8036620799241
 20
-148.6682725322774
 10
117.7699001441686
 20
-148.4694905227785
 10
117.7699001441686
 20
-148.3451225757609
 10
117.7699001441686
 20
-148.0488443640295
 10
117.953868243081
 20
-147.8273247243279
 10
118.2267198055128
 20
-147.8273247243279
 10
118.4554741457334
 20
-147.8273247243279
 10
118.5546928957086
 20
-147.9516926713454
 10
118.7810356690895
 20
-148.2817328188324
 97
        0
 97
        0
 75
     2
 76
     1
 98
        0
  0
ENDBLK
  5
10A
330
107
100
AcDbEntity
  8
0
100
AcDbBlockEnd
  0
ENDSEC
  0
SECTION
  2
ENTITIES
  0
POLYLINE
  5
41
330
1F
100
AcDbEntity
  8
_U+30EC_U+30A4_U+30E4_U+30FC 1
 62
   179
420
  2234388
370
    25
100
AcDb2dPolyline
 66
     1
 10
0.0
 20
0.0
 30
0.0
  0
VERTEX
  5
42
330
41
100
AcDbEntity
  8
_U+30EC_U+30A4_U+30E4_U+30FC 1
 62
   179
420
  2234388
370
    25
100
AcDbVertex
100
AcDb2dVertex
 10
95.95901032965946
 20
-145.3504769081068
 30
0.0
  0
VERTEX
  5
43
330
41
100
AcDbEntity
  8
_U+30EC_U+30A4_U+30E4_U+30FC 1
 62
   179
420
  2234388
370
    25
100
AcDbVertex
100
AcDb2dVertex
 10
115.9591462083024
 20
-145.3504769081068
 30
0.0
  0
SEQEND
  5
44
330
41
100
AcDbEntity
  8
_U+30EC_U+30A4_U+30E4_U+30FC 1
 62
   179
420
  2234388
370
    25
  0
POLYLINE
  5
45
330
1F
100
AcDbEntity
  8
_U+30EC_U+30A4_U+30E4_U+30FC 1
 62
   179
420
  2234388
370
    25
100
AcDb2dPolyline
 66
     1
 10
0.0
 20
0.0
 30
0.0
  0
VERTEX
  5
46
330
45
100
AcDbEntity
  8
_U+30EC_U+30A4_U+30E4_U+30FC 1
 62
   179
420
  2234388
370
    25
100
AcDbVertex
100
AcDb2dVertex
 10
95.95901032965946
 20
-145.3504769081068
 30
0.0
  0
VERTEX
  5
47
330
45
100
AcDbEntity
  8
_U+30EC_U+30A4_U+30E4_U+30FC 1
 62
   179
420
  2234388
370
    25
100
AcDbVertex
100
AcDb2dVertex
 10
95.95901032965946
 20
-153.5499849616124
 30
0.0
  0
SEQEND
  5
48
330
45
100
AcDbEntity
  8
_U+30EC_U+30A4_U+30E4_U+30FC 1
 62
   179
420
  2234388
370
    25
  0
POLYLINE
  5
49
330
1F
100
AcDbEntity
  8
_U+30EC_U+30A4_U+30E4_U+30FC 1
 62
   179
420
  2234388
370
    25
100
AcDb2dPolyline
 66
     1
 10
0.0
 20
0.0
 30
0.0
  0
VERTEX
  5
4A
330
49
100
AcDbEntity
  8
_U+30EC_U+30A4_U+30E4_U+30FC 1
 62
   179
420
  2234388
370
    25
100
AcDbVertex
100
AcDb2dVertex
 10
115.9591462083024
 20
-145.3504769081068
 30
0.0
  0
VERTEX
  5
4B
330
49
100
AcDbEntity
  8
_U+30EC_U+30A4_U+30E4_U+30FC 1
 62
   179
420
  2234388
370
    25
100
AcDbVertex
100
AcDb2dVertex
 10
115.9591462083024
 20
-146.350249130079
 30
0.0
  0
SEQEND
  5
4C
330
49
100
AcDbEntity
  8
_U+30EC_U+30A4_U+30E4_U+30FC 1
 62
   179
420
  2234388
370
    25
  0
POLYLINE
  5
4D
330
1F
100
AcDbEntity
  8
_U+30EC_U+30A4_U+30E4_U+30FC 1
 62
   179
420
  2234388
370
    25
100
AcDb2dPolyline
 66
     1
 10
0.0
 20
0.0
 30
0.0
  0
VERTEX
  5
4E
330
4D
100
AcDbEntity
  8
_U+30EC_U+30A4_U+30E4_U+30FC 1
 62
   179
420
  2234388
370
    25
100
AcDbVertex
100
AcDb2dVertex
 10
96.95910002636728
 20
-146.350249130079
 30
0.0
  0
VERTEX
  5
4F
330
4D
100
AcDbEntity
  8
_U+30EC_U+30A4_U+30E4_U+30FC 1
 62
   179
420
  2234388
370
    25
100
AcDbVertex
100
AcDb2dVertex
 10
115.9591462083024
 20
-146.350249130079
 30
0.0
  0
SEQEND
  5
50
330
4D
100
AcDbEntity
  8
_U+30EC_U+30A4_U+30E4_U+30FC 1
 62
   179
420
  2234388
370
    25
  0
POLYLINE
  5
51
330
1F
100
AcDbEntity
  8
_U+30EC_U+30A4_U+30E4_U+30FC 1
 62
   179
420
  2234388
370
    25
100
AcDb2dPolyline
 66
     1
 10
0.0
 20
0.0
 30
0.0
  0
VERTEX
  5
52
330
51
100
AcDbEntity
  8
_U+30EC_U+30A4_U+30E4_U+30FC 1
 62
   179
420
  2234388
370
    25
100
AcDbVertex
100
AcDb2dVertex
 10
99.95908689427569
 20
-152.5502127396406
 30
0.0
  0
VERTEX
  5
53
330
51
100
AcDbEntity
  8
_U+30EC_U+30A4_U+30E4_U+30FC 1
 62
   179
420
  2234388
370
    25
100
AcDbVertex
100
AcDb2dVertex
 10
99.95908689427569
 20
-153.0504516284043
 30
0.0
  0
SEQEND
  5
54
330
51
100
AcDbEntity
  8
_U+30EC_U+30A4_U+30E4_U+30FC 1
 62
   179
420
  2234388
370
    25
  0
POLYLINE
  5
55
330
1F
100
AcDbEntity
  8
_U+30EC_U+30A4_U+30E4_U+30FC 1
 62
   179
420
  2234388
370
    25
100
AcDb2dPolyline
 66
     1
 10
0.0
 20
0.0
 30
0.0
  0
VERTEX
  5
56
330
55
100
AcDbEntity
  8
_U+30EC_U+30A4_U+30E4_U+30FC 1
 62
   179
420
  2234388
370
    25
100
AcDbVertex
100
AcDb2dVertex
 10
96.95910002636728
 20
-152.5502127396406
 30
0.0
  0
VERTEX
  5
57
330
55
100
AcDbEntity
  8
_U+30EC_U+30A4_U+30E4_U+30FC 1
 62
   179
420
  2234388
370
    25
100
AcDbVertex
100
AcDb2dVertex
 10
99.95908689427569
 20
-152.5502127396406
 30
0.0
  0
SEQEND
  5
58
330
55
100
AcDbEntity
  8
_U+30EC_U+30A4_U+30E4_U+30FC 1
 62
   179
420
  2234388
370
    25
  0
POLYLINE
  5
59
330
1F
100
AcDbEntity
  8
_U+30EC_U+30A4_U+30E4_U+30FC 1
 62
   179
420
  2234388
370
    25
100
AcDb2dPolyline
 66
     1
 10
0.0
 20
0.0
 30
0.0
  0
VERTEX
  5
5A
330
59
100
AcDbEntity
  8
_U+30EC_U+30A4_U+30E4_U+30FC 1
 62
   179
420
  2234388
370
    25
100
AcDbVertex
100
AcDb2dVertex
 10
95.95901032965946
 20
-153.5499849616124
 30
0.0
  0
VERTEX
  5
5B
330
59
100
AcDbEntity
  8
_U+30EC_U+30A4_U+30E4_U+30FC 1
 62
   179
420
  2234388
370
    25
100
AcDbVertex
100
AcDb2dVertex
 10
99.95908689427569
 20
-153.0504516284043
 30
0.0
  0
SEQEND
  5
5C
330
59
100
AcDbEntity
  8
_U+30EC_U+30A4_U+30E4_U+30FC 1
 62
   179
420
  2234388
370
    25
  0
POLYLINE
  5
5D
330
1F
100
AcDbEntity
  8
_U+30EC_U+30A4_U+30E4_U+30FC 1
 62
   179
420
  2234388
370
    25
100
AcDb2dPolyline
 66
     1
 10
0.0
 20
0.0
 30
0.0
  0
VERTEX
  5
5E
330
5D
100
AcDbEntity
  8
_U+30EC_U+30A4_U+30E4_U+30FC 1
 62
   179
420
  2234388
370
    25
100
AcDbVertex
100
AcDb2dVertex
 10
96.95910002636728
 20
-146.350249130079
 30
0.0
  0
VERTEX
  5
5F
330
5D
100
AcDbEntity
  8
_U+30EC_U+30A4_U+30E4_U+30FC 1
 62
   179
420
  2234388
370
    25
100
AcDbVertex
100
AcDb2dVertex
 10
96.95910002636728
 20
-152.5502127396406
 30
0.0
  0
SEQEND
  5
60
330
5D
100
AcDbEntity
  8
_U+30EC_U+30A4_U+30E4_U+30FC 1
 62
   179
420
  2234388
370
    25
  0
SPLINE
  5
61
330
1F
100
AcDbEntity
  8
_U+30EC_U+30A4_U+30E4_U+30FC 1
 62
   179
420
  2234388
370
     9
100
AcDbSpline
210
0.0
220
0.0
230
1.0
 70
    11
 71
     3
 72
    17
 73
    13
 74
     0
 42
0.0000000001
 43
0.0000000001
 12
1.0
 22
0.0
 32
0.0
 13
1.0
 23
0.0
 33
0.0
 40
0.0
 40
0.0
 40
0.0
 40
0.0
 40
1.0
 40
1.0
 40
1.0
 40
2.0
 40
2.0
 40
2.0
 40
3.0
 40
3.0
 40
3.0
 40
4.0
 40
4.0
 40
4.0
 40
4.0
 10
96.0589194204296
 20
-141.3500121868848
 30
0.0
 10
96.0589194204296
 20
-141.2949082980095
 30
0.0
 10
96.0141166426632
 20
-141.2501055202431
 30
0.0
 10
95.95901032965946
 20
-141.2501055202431
 30
0.0
 10
95.90387116439952
 20
-141.2501055202431
 30
0.0
 10
95.85910366554164
 20
-141.2949082980095
 30
0.0
 10
95.85910366554164
 20
-141.3500121868848
 30
0.0
 10
95.85910366554164
 20
-141.4055041313153
 30
0.0
 10
95.90387116439952
 20
-141.4502716313042
 30
0.0
 10
95.95901032965946
 20
-141.4502716313042
 30
0.0
 10
96.0141166426632
 20
-141.4502716313042
 30
0.0
 10
96.0589194204296
 20
-141.4055041313153
 30
0.0
 10
96.0589194204296
 20
-141.3500121868848
 30
0.0
  0
SPLINE
  5
62
330
1F
100
AcDbEntity
  8
_U+30EC_U+30A4_U+30E4_U+30FC 1
 62
   179
420
  2234388
370
     9
100
AcDbSpline
210
0.0
220
0.0
230
1.0
 70
    11
 71
     3
 72
    17
 73
    13
 74
     0
 42
0.0000000001
 43
0.0000000001
 12
1.0
 22
0.0
 32
0.0
 13
1.0
 23
0.0
 33
0.0
 40
0.0
 40
0.0
 40
0.0
 40
0.0
 40
1.0
 40
1.0
 40
1.0
 40
2.0
 40
2.0
 40
2.0
 40
3.0
 40
3.0
 40
3.0
 40
4.0
 40
4.0
 40
4.0
 40
4.0
 10
116.0590528724202
 20
-141.3500121868848
 30
0.0
 10
116.0590528724202
 20
-141.2949082980095
 30
0.0
 10
116.0142853735623
 20
-141.2501055202431
 30
0.0
 10
115.9591462083024
 20
-141.2501055202431
 30
0.0
 10
115.9040423208193
 20
-141.2501055202431
 30
0.0
 10
115.8592395441845
 20
-141.2949082980095
 30
0.0
 10
115.8592395441845
 20
-141.3500121868848
 30
0.0
 10
115.8592395441845
 20
-141.4055041313153
 30
0.0
 10
115.9040423208193
 20
-141.4502716313042
 30
0.0
 10
115.9591462083024
 20
-141.4502716313042
 30
0.0
 10
116.0142853735623
 20
-141.4502716313042
 30
0.0
 10
116.0590528724202
 20
-141.4055041313153
 30
0.0
 10
116.0590528724202
 20
-141.3500121868848
 30
0.0
  0
SPLINE
  5
63
330
1F
100
AcDbEntity
  8
_U+30EC_U+30A4_U+30E4_U+30FC 1
 62
   179
420
  2234388
370
     9
100
AcDbSpline
210
0.0
220
0.0
230
1.0
 70
    11
 71
     3
 72
    17
 73
    13
 74
     0
 42
0.0000000001
 43
0.0000000001
 12
1.0
 22
0.0
 32
0.0
 13
1.0
 23
0.0
 33
0.0
 40
0.0
 40
0.0
 40
0.0
 40
0.0
 40
1.0
 40
1.0
 40
1.0
 40
2.0
 40
2.0
 40
2.0
 40
3.0
 40
3.0
 40
3.0
 40
4.0
 40
4.0
 40
4.0
 40
4.0
 10
120.0591647148133
 20
-145.3504769081068
 30
0.0
 10
120.0591647148133
 20
-145.2950202414542
 30
0.0
 10
120.0143619381785
 20
-145.2502174636874
 30
0.0
 10
119.9592610811211
 20
-145.2502174636874
 30
0.0
 10
119.9038013854436
 20
-145.2502174636874
 30
0.0
 10
119.8589986088089
 20
-145.2950202414542
 30
0.0
 10
119.8589986088089
 20
-145.3504769081068
 30
0.0
 10
119.8589986088089
 20
-145.4055807969821
 30
0.0
 10
119.9038013854436
 20
-145.4503835747485
 30
0.0
 10
119.9592610811211
 20
-145.4503835747485
 30
0.0
 10
120.0143619381785
 20
-145.4503835747485
 30
0.0
 10
120.0591647148133
 20
-145.4055807969821
 30
0.0
 10
120.0591647148133
 20
-145.3504769081068
 30
0.0
  0
SPLINE
  5
64
330
1F
100
AcDbEntity
  8
_U+30EC_U+30A4_U+30E4_U+30FC 1
 62
   179
420
  2234388
370
     9
100
AcDbSpline
210
0.0
220
0.0
230
1.0
 70
    11
 71
     3
 72
    17
 73
    13
 74
     0
 42
0.0000000001
 43
0.0000000001
 12
1.0
 22
0.0
 32
0.0
 13
1.0
 23
0.0
 33
0.0
 40
0.0
 40
0.0
 40
0.0
 40
0.0
 40
1.0
 40
1.0
 40
1.0
 40
2.0
 40
2.0
 40
2.0
 40
3.0
 40
3.0
 40
3.0
 40
4.0
 40
4.0
 40
4.0
 40
4.0
 10
120.0591647148133
 20
-146.350249130079
 30
0.0
 10
120.0591647148133
 20
-146.2951099634263
 30
0.0
 10
120.0143619381785
 20
-146.2503424634374
 30
0.0
 10
119.9592610811211
 20
-146.2503424634374
 30
0.0
 10
119.9038013854436
 20
-146.2503424634374
 30
0.0
 10
119.8589986088089
 20
-146.2951099634263
 30
0.0
 10
119.8589986088089
 20
-146.350249130079
 30
0.0
 10
119.8589986088089
 20
-146.4053530189543
 30
0.0
 10
119.9038013854436
 20
-146.4501557967207
 30
0.0
 10
119.9592610811211
 20
-146.4501557967207
 30
0.0
 10
120.0143619381785
 20
-146.4501557967207
 30
0.0
 10
120.0591647148133
 20
-146.4053530189543
 30
0.0
 10
120.0591647148133
 20
-146.350249130079
 30
0.0
  0
SPLINE
  5
65
330
1F
100
AcDbEntity
  8
_U+30EC_U+30A4_U+30E4_U+30FC 1
 62
   179
420
  2234388
370
     9
100
AcDbSpline
210
0.0
220
0.0
230
1.0
 70
    11
 71
     3
 72
    17
 73
    13
 74
     0
 42
0.0000000001
 43
0.0000000001
 12
1.0
 22
0.0
 32
0.0
 13
1.0
 23
0.0
 33
0.0
 40
0.0
 40
0.0
 40
0.0
 40
0.0
 40
1.0
 40
1.0
 40
1.0
 40
2.0
 40
2.0
 40
2.0
 40
3.0
 40
3.0
 40
3.0
 40
4.0
 40
4.0
 40
4.0
 40
4.0
 10
120.0591647148133
 20
-152.5502127396406
 30
0.0
 10
120.0591647148133
 20
-152.4950735729875
 30
0.0
 10
120.0143619381785
 20
-152.4503060729983
 30
0.0
 10
119.9592610811211
 20
-152.4503060729983
 30
0.0
 10
119.9038013854436
 20
-152.4503060729983
 30
0.0
 10
119.8589986088089
 20
-152.4950735729875
 30
0.0
 10
119.8589986088089
 20
-152.5502127396406
 30
0.0
 10
119.8589986088089
 20
-152.6053166285155
 30
0.0
 10
119.9038013854436
 20
-152.6501194062822
 30
0.0
 10
119.9592610811211
 20
-152.6501194062822
 30
0.0
 10
120.0143619381785
 20
-152.6501194062822
 30
0.0
 10
120.0591647148133
 20
-152.6053166285155
 30
0.0
 10
120.0591647148133
 20
-152.5502127396406
 30
0.0
  0
SPLINE
  5
66
330
1F
100
AcDbEntity
  8
_U+30EC_U+30A4_U+30E4_U+30FC 1
 62
   179
420
  2234388
370
     9
100
AcDbSpline
210
0.0
220
0.0
230
1.0
 70
    11
 71
     3
 72
    17
 73
    13
 74
     0
 42
0.0000000001
 43
0.0000000001
 12
1.0
 22
0.0
 32
0.0
 13
1.0
 23
0.0
 33
0.0
 40
0.0
 40
0.0
 40
0.0
 40
0.0
 40
1.0
 40
1.0
 40
1.0
 40
2.0
 40
2.0
 40
2.0
 40
3.0
 40
3.0
 40
3.0
 40
4.0
 40
4.0
 40
4.0
 40
4.0
 10
104.0591054007866
 20
-152.5502127396406
 30
0.0
 10
104.0591054007866
 20
-152.4950735729875
 30
0.0
 10
104.0143379019287
 20
-152.4503060729983
 30
0.0
 10
103.9591987366688
 20
-152.4503060729983
 30
0.0
 10
103.9040948491857
 20
-152.4503060729983
 30
0.0
 10
103.8592920725509
 20
-152.4950735729875
 30
0.0
 10
103.8592920725509
 20
-152.5502127396406
 30
0.0
 10
103.8592920725509
 20
-152.6053166285155
 30
0.0
 10
103.9040948491857
 20
-152.6501194062822
 30
0.0
 10
103.9591987366688
 20
-152.6501194062822
 30
0.0
 10
104.0143379019287
 20
-152.6501194062822
 30
0.0
 10
104.0591054007866
 20
-152.6053166285155
 30
0.0
 10
104.0591054007866
 20
-152.5502127396406
 30
0.0
  0
SPLINE
  5
67
330
1F
100
AcDbEntity
  8
_U+30EC_U+30A4_U+30E4_U+30FC 1
 62
   179
420
  2234388
370
     9
100
AcDbSpline
210
0.0
220
0.0
230
1.0
 70
    11
 71
     3
 72
    17
 73
    13
 74
     0
 42
0.0000000001
 43
0.0000000001
 12
1.0
 22
0.0
 32
0.0
 13
1.0
 23
0.0
 33
0.0
 40
0.0
 40
0.0
 40
0.0
 40
0.0
 40
1.0
 40
1.0
 40
1.0
 40
2.0
 40
2.0
 40
2.0
 40
3.0
 40
3.0
 40
3.0
 40
4.0
 40
4.0
 40
4.0
 40
4.0
 10
104.0591054007866
 20
-153.0504516284043
 30
0.0
 10
104.0591054007866
 20
-152.9953124617512
 30
0.0
 10
104.0143379019287
 20
-152.9505096839844
 30
0.0
 10
103.9591987366688
 20
-152.9505096839844
 30
0.0
 10
103.9040948491857
 20
-152.9505096839844
 30
0.0
 10
103.8592920725509
 20
-152.9953124617512
 30
0.0
 10
103.8592920725509
 20
-153.0504516284043
 30
0.0
 10
103.8592920725509
 20
-153.1055555172792
 30
0.0
 10
103.9040948491857
 20
-153.1503582950459
 30
0.0
 10
103.9591987366688
 20
-153.1503582950459
 30
0.0
 10
104.0143379019287
 20
-153.1503582950459
 30
0.0
 10
104.0591054007866
 20
-153.1055555172792
 30
0.0
 10
104.0591054007866
 20
-153.0504516284043
 30
0.0
  0
SPLINE
  5
68
330
1F
100
AcDbEntity
  8
_U+30EC_U+30A4_U+30E4_U+30FC 1
 62
   179
420
  2234388
370
     9
100
AcDbSpline
210
0.0
220
0.0
230
1.0
 70
    11
 71
     3
 72
    17
 73
    13
 74
     0
 42
0.0000000001
 43
0.0000000001
 12
1.0
 22
0.0
 32
0.0
 13
1.0
 23
0.0
 33
0.0
 40
0.0
 40
0.0
 40
0.0
 40
0.0
 40
1.0
 40
1.0
 40
1.0
 40
2.0
 40
2.0
 40
2.0
 40
3.0
 40
3.0
 40
3.0
 40
4.0
 40
4.0
 40
4.0
 40
4.0
 10
92.05915792915299
 20
-153.5499849616124
 30
0.0
 10
92.05915792915299
 20
-153.4948457949594
 30
0.0
 10
92.01435515251823
 20
-153.4500782949708
 30
0.0
 10
91.95925126503516
 20
-153.4500782949708
 30
0.0
 10
91.9041120997752
 20
-153.4500782949708
 30
0.0
 10
91.85934460091732
 20
-153.4948457949594
 30
0.0
 10
91.85934460091732
 20
-153.5499849616124
 30
0.0
 10
91.85934460091732
 20
-153.6057944060429
 30
0.0
 10
91.9041120997752
 20
-153.6505619060321
 30
0.0
 10
91.95925126503516
 20
-153.6505619060321
 30
0.0
 10
92.01435515251823
 20
-153.6505619060321
 30
0.0
 10
92.05915792915299
 20
-153.6057944060429
 30
0.0
 10
92.05915792915299
 20
-153.5499849616124
 30
0.0
  0
SPLINE
  5
69
330
1F
100
AcDbEntity
  8
_U+30EC_U+30A4_U+30E4_U+30FC 1
 62
   179
420
  2234388
370
     9
100
AcDbSpline
210
0.0
220
0.0
230
1.0
 70
    11
 71
     3
 72
    17
 73
    13
 74
     0
 42
0.0000000001
 43
0.0000000001
 12
1.0
 22
0.0
 32
0.0
 13
1.0
 23
0.0
 33
0.0
 40
0.0
 40
0.0
 40
0.0
 40
0.0
 40
1.0
 40
1.0
 40
1.0
 40
2.0
 40
2.0
 40
2.0
 40
3.0
 40
3.0
 40
3.0
 40
4.0
 40
4.0
 40
4.0
 40
4.0
 10
92.05915792915299
 20
-145.3504769081068
 30
0.0
 10
92.05915792915299
 20
-145.2950202414542
 30
0.0
 10
92.01435515251823
 20
-145.2502174636874
 30
0.0
 10
91.95925126503516
 20
-145.2502174636874
 30
0.0
 10
91.9041120997752
 20
-145.2502174636874
 30
0.0
 10
91.85934460091732
 20
-145.2950202414542
 30
0.0
 10
91.85934460091732
 20
-145.3504769081068
 30
0.0
 10
91.85934460091732
 20
-145.4055807969821
 30
0.0
 10
91.9041120997752
 20
-145.4503835747485
 30
0.0
 10
91.95925126503516
 20
-145.4503835747485
 30
0.0
 10
92.01435515251823
 20
-145.4503835747485
 30
0.0
 10
92.05915792915299
 20
-145.4055807969821
 30
0.0
 10
92.05915792915299
 20
-145.3504769081068
 30
0.0
  0
SPLINE
  5
6A
330
1F
100
AcDbEntity
  8
_U+30EC_U+30A4_U+30E4_U+30FC 1
 62
   179
420
  2234388
370
     9
100
AcDbSpline
210
0.0
220
0.0
230
1.0
 70
    11
 71
     3
 72
    17
 73
    13
 74
     0
 42
0.0000000001
 43
0.0000000001
 12
1.0
 22
0.0
 32
0.0
 13
1.0
 23
0.0
 33
0.0
 40
0.0
 40
0.0
 40
0.0
 40
0.0
 40
1.0
 40
1.0
 40
1.0
 40
2.0
 40
2.0
 40
2.0
 40
3.0
 40
3.0
 40
3.0
 40
4.0
 40
4.0
 40
4.0
 40
4.0
 10
100.0593463361623
 20
-157.5504144050567
 30
0.0
 10
100.0593463361623
 20
-157.4953105161818
 30
0.0
 10
100.0145788373044
 20
-157.450507738415
 30
0.0
 10
99.95908689427569
 20
-157.450507738415
 30
0.0
 10
99.90363022902383
 20
-157.450507738415
 30
0.0
 10
99.85918023015785
 20
-157.4953105161818
 30
0.0
 10
99.85918023015785
 20
-157.5504144050567
 30
0.0
 10
99.85918023015785
 20
-157.6055535717098
 30
0.0
 10
99.90363022902383
 20
-157.6503210716983
 30
0.0
 10
99.95908689427569
 20
-157.6503210716983
 30
0.0
 10
100.0145788373044
 20
-157.6503210716983
 30
0.0
 10
100.0593463361623
 20
-157.6055535717098
 30
0.0
 10
100.0593463361623
 20
-157.5504144050567
 30
0.0
  0
SPLINE
  5
6B
330
1F
100
AcDbEntity
  8
_U+30EC_U+30A4_U+30E4_U+30FC 1
 62
   179
420
  2234388
370
     9
100
AcDbSpline
210
0.0
220
0.0
230
1.0
 70
    11
 71
     3
 72
    17
 73
    13
 74
     0
 42
0.0000000001
 43
0.0000000001
 12
1.0
 22
0.0
 32
0.0
 13
1.0
 23
0.0
 33
0.0
 40
0.0
 40
0.0
 40
0.0
 40
0.0
 40
1.0
 40
1.0
 40
1.0
 40
2.0
 40
2.0
 40
2.0
 40
3.0
 40
3.0
 40
3.0
 40
4.0
 40
4.0
 40
4.0
 40
4.0
 10
96.0589194204296
 20
-157.5504144050567
 30
0.0
 10
96.0589194204296
 20
-157.4953105161818
 30
0.0
 10
96.0141166426632
 20
-157.450507738415
 30
0.0
 10
95.95901032965946
 20
-157.450507738415
 30
0.0
 10
95.90387116439952
 20
-157.450507738415
 30
0.0
 10
95.85910366554164
 20
-157.4953105161818
 30
0.0
 10
95.85910366554164
 20
-157.5504144050567
 30
0.0
 10
95.85910366554164
 20
-157.6055535717098
 30
0.0
 10
95.90387116439952
 20
-157.6503210716983
 30
0.0
 10
95.95901032965946
 20
-157.6503210716983
 30
0.0
 10
96.0141166426632
 20
-157.6503210716983
 30
0.0
 10
96.0589194204296
 20
-157.6055535717098
 30
0.0
 10
96.0589194204296
 20
-157.5504144050567
 30
0.0
  0
POLYLINE
  5
6C
330
1F
100
AcDbEntity
  8
_U+30EC_U+30A4_U+30E4_U+30FC 1
 62
   179
420
  2234388
370
     9
100
AcDb2dPolyline
 66
     1
 10
0.0
 20
0.0
 30
0.0
  0
VERTEX
  5
6D
330
6C
100
AcDbEntity
  8
_U+30EC_U+30A4_U+30E4_U+30FC 1
 62
   179
420
  2234388
370
     9
100
AcDbVertex
100
AcDb2dVertex
 10
95.95901032965946
 20
-141.3500121868848
 30
0.0
  0
VERTEX
  5
6E
330
6C
100
AcDbEntity
  8
_U+30EC_U+30A4_U+30E4_U+30FC 1
 62
   179
420
  2234388
370
     9
100
AcDbVertex
100
AcDb2dVertex
 10
115.9591462083024
 20
-141.3500121868848
 30
0.0
  0
SEQEND
  5
6F
330
6C
100
AcDbEntity
  8
_U+30EC_U+30A4_U+30E4_U+30FC 1
 62
   179
420
  2234388
370
     9
  0
POLYLINE
  5
70
330
1F
100
AcDbEntity
  8
_U+30EC_U+30A4_U+30E4_U+30FC 1
 62
   179
420
  2234388
370
     9
100
AcDb2dPolyline
 66
     1
 10
0.0
 20
0.0
 30
0.0
  0
VERTEX
  5
71
330
70
100
AcDbEntity
  8
_U+30EC_U+30A4_U+30E4_U+30FC 1
 62
   179
420
  2234388
370
     9
100
AcDbVertex
100
AcDb2dVertex
 10
95.95901032965946
 20
-142.8100535754085
 30
0.0
  0
VERTEX
  5
72
330
70
100
AcDbEntity
  8
_U+30EC_U+30A4_U+30E4_U+30FC 1
 62
   179
420
  2234388
370
     9
100
AcDbVertex
100
AcDb2dVertex
 10
95.95901032965946
 20
-140.3502752426904
 30
0.0
  0
SEQEND
  5
73
330
70
100
AcDbEntity
  8
_U+30EC_U+30A4_U+30E4_U+30FC 1
 62
   179
420
  2234388
370
     9
  0
POLYLINE
  5
74
330
1F
100
AcDbEntity
  8
_U+30EC_U+30A4_U+30E4_U+30FC 1
 62
   179
420
  2234388
370
     9
100
AcDb2dPolyline
 66
     1
 10
0.0
 20
0.0
 30
0.0
  0
VERTEX
  5
75
330
74
100
AcDbEntity
  8
_U+30EC_U+30A4_U+30E4_U+30FC 1
 62
   179
420
  2234388
370
     9
100
AcDbVertex
100
AcDb2dVertex
 10
115.9591462083024
 20
-142.8100535754085
 30
0.0
  0
VERTEX
  5
76
330
74
100
AcDbEntity
  8
_U+30EC_U+30A4_U+30E4_U+30FC 1
 62
   179
420
  2234388
370
     9
100
AcDbVertex
100
AcDb2dVertex
 10
115.9591462083024
 20
-140.3502752426904
 30
0.0
  0
SEQEND
  5
77
330
74
100
AcDbEntity
  8
_U+30EC_U+30A4_U+30E4_U+30FC 1
 62
   179
420
  2234388
370
     9
  0
INSERT
  5
79
330
1F
100
AcDbEntity
  8
_U+30EC_U+30A4_U+30E4_U+30FC 1
100
AcDbBlockReference
  2
block 2
 10
0.0
 20
0.0
 30
0.0
  0
POLYLINE
  5
81
330
1F
100
AcDbEntity
  8
_U+30EC_U+30A4_U+30E4_U+30FC 1
 62
   179
420
  2234388
370
     9
100
AcDb2dPolyline
 66
     1
 10
0.0
 20
0.0
 30
0.0
  0
VERTEX
  5
82
330
81
100
AcDbEntity
  8
_U+30EC_U+30A4_U+30E4_U+30FC 1
 62
   179
420
  2234388
370
     9
100
AcDbVertex
100
AcDb2dVertex
 10
95.95901032965946
 20
-157.5504144050567
 30
0.0
  0
VERTEX
  5
83
330
81
100
AcDbEntity
  8
_U+30EC_U+30A4_U+30E4_U+30FC 1
 62
   179
420
  2234388
370
     9
100
AcDbVertex
100
AcDb2dVertex
 10
99.95908689427569
 20
-157.5504144050567
 30
0.0
  0
SEQEND
  5
84
330
81
100
AcDbEntity
  8
_U+30EC_U+30A4_U+30E4_U+30FC 1
 62
   179
420
  2234388
370
     9
  0
POLYLINE
  5
85
330
1F
100
AcDbEntity
  8
_U+30EC_U+30A4_U+30E4_U+30FC 1
 62
   179
420
  2234388
370
     9
100
AcDb2dPolyline
 66
     1
 10
0.0
 20
0.0
 30
0.0
  0
VERTEX
  5
86
330
85
100
AcDbEntity
  8
_U+30EC_U+30A4_U+30E4_U+30FC 1
 62
   179
420
  2234388
370
     9
100
AcDbVertex
100
AcDb2dVertex
 10
95.95901032965946
 20
-156.090373016533
 30
0.0
  0
VERTEX
  5
87
330
85
100
AcDbEntity
  8
_U+30EC_U+30A4_U+30E4_U+30FC 1
 62
   179
420
  2234388
370
     9
100
AcDbVertex
100
AcDb2dVertex
 10
95.95901032965946
 20
-158.5501866270292
 30
0.0
  0
SEQEND
  5
88
330
85
100
AcDbEntity
  8
_U+30EC_U+30A4_U+30E4_U+30FC 1
 62
   179
420
  2234388
370
     9
  0
POLYLINE
  5
89
330
1F
100
AcDbEntity
  8
_U+30EC_U+30A4_U+30E4_U+30FC 1
 62
   179
420
  2234388
370
     9
100
AcDb2dPolyline
 66
     1
 10
0.0
 20
0.0
 30
0.0
  0
VERTEX
  5
8A
330
89
100
AcDbEntity
  8
_U+30EC_U+30A4_U+30E4_U+30FC 1
 62
   179
420
  2234388
370
     9
100
AcDbVertex
100
AcDb2dVertex
 10
99.95908689427569
 20
-155.5901694055468
 30
0.0
  0
VERTEX
  5
8B
330
89
100
AcDbEntity
  8
_U+30EC_U+30A4_U+30E4_U+30FC 1
 62
   179
420
  2234388
370
     9
100
AcDbVertex
100
AcDb2dVertex
 10
99.95908689427569
 20
-158.5501866270292
 30
0.0
  0
SEQEND
  5
8C
330
89
100
AcDbEntity
  8
_U+30EC_U+30A4_U+30E4_U+30FC 1
 62
   179
420
  2234388
370
     9
  0
INSERT
  5
8E
330
1F
100
AcDbEntity
  8
_U+30EC_U+30A4_U+30E4_U+30FC 1
100
AcDbBlockReference
  2
block 3
 10
0.0
 20
0.0
 30
0.0
  0
POLYLINE
  5
A6
330
1F
100
AcDbEntity
  8
_U+30EC_U+30A4_U+30E4_U+30FC 1
 62
   179
420
  2234388
370
     9
100
AcDb2dPolyline
 66
     1
 10
0.0
 20
0.0
 30
0.0
  0
VERTEX
  5
A7
330
A6
100
AcDbEntity
  8
_U+30EC_U+30A4_U+30E4_U+30FC 1
 62
   179
420
  2234388
370
     9
100
AcDbVertex
100
AcDb2dVertex
 10
91.95925126503516
 20
-145.3504769081068
 30
0.0
  0
VERTEX
  5
A8
330
A6
100
AcDbEntity
  8
_U+30EC_U+30A4_U+30E4_U+30FC 1
 62
   179
420
  2234388
370
     9
100
AcDbVertex
100
AcDb2dVertex
 10
91.95925126503516
 20
-153.5499849616124
 30
0.0
  0
SEQEND
  5
A9
330
A6
100
AcDbEntity
  8
_U+30EC_U+30A4_U+30E4_U+30FC 1
 62
   179
420
  2234388
370
     9
  0
POLYLINE
  5
AA
330
1F
100
AcDbEntity
  8
_U+30EC_U+30A4_U+30E4_U+30FC 1
 62
   179
420
  2234388
370
     9
100
AcDb2dPolyline
 66
     1
 10
0.0
 20
0.0
 30
0.0
  0
VERTEX
  5
AB
330
AA
100
AcDbEntity
  8
_U+30EC_U+30A4_U+30E4_U+30FC 1
 62
   179
420
  2234388
370
     9
100
AcDbVertex
100
AcDb2dVertex
 10
93.4192573388984
 20
-145.3504769081068
 30
0.0
  0
VERTEX
  5
AC
330
AA
100
AcDbEntity
  8
_U+30EC_U+30A4_U+30E4_U+30FC 1
 62
   179
420
  2234388
370
     9
100
AcDbVertex
100
AcDb2dVertex
 10
90.95912629055047
 20
-145.3504769081068
 30
0.0
  0
SEQEND
  5
AD
330
AA
100
AcDbEntity
  8
_U+30EC_U+30A4_U+30E4_U+30FC 1
 62
   179
420
  2234388
370
     9
  0
POLYLINE
  5
AE
330
1F
100
AcDbEntity
  8
_U+30EC_U+30A4_U+30E4_U+30FC 1
 62
   179
420
  2234388
370
     9
100
AcDb2dPolyline
 66
     1
 10
0.0
 20
0.0
 30
0.0
  0
VERTEX
  5
AF
330
AE
100
AcDbEntity
  8
_U+30EC_U+30A4_U+30E4_U+30FC 1
 62
   179
420
  2234388
370
     9
100
AcDbVertex
100
AcDb2dVertex
 10
93.4192573388984
 20
-153.5499849616124
 30
0.0
  0
VERTEX
  5
B0
330
AE
100
AcDbEntity
  8
_U+30EC_U+30A4_U+30E4_U+30FC 1
 62
   179
420
  2234388
370
     9
100
AcDbVertex
100
AcDb2dVertex
 10
90.95912629055047
 20
-153.5499849616124
 30
0.0
  0
SEQEND
  5
B1
330
AE
100
AcDbEntity
  8
_U+30EC_U+30A4_U+30E4_U+30FC 1
 62
   179
420
  2234388
370
     9
  0
INSERT
  5
B3
330
1F
100
AcDbEntity
  8
_U+30EC_U+30A4_U+30E4_U+30FC 1
100
AcDbBlockReference
  2
block 4
 10
0.0
 20
0.0
 30
0.0
  0
POLYLINE
  5
C4
330
1F
100
AcDbEntity
  8
_U+30EC_U+30A4_U+30E4_U+30FC 1
 62
   179
420
  2234388
370
     9
100
AcDb2dPolyline
 66
     1
 10
0.0
 20
0.0
 30
0.0
  0
VERTEX
  5
C5
330
C4
100
AcDbEntity
  8
_U+30EC_U+30A4_U+30E4_U+30FC 1
 62
   179
420
  2234388
370
     9
100
AcDbVertex
100
AcDb2dVertex
 10
103.9591987366688
 20
-152.5502127396406
 30
0.0
  0
VERTEX
  5
C6
330
C4
100
AcDbEntity
  8
_U+30EC_U+30A4_U+30E4_U+30FC 1
 62
   179
420
  2234388
370
     9
100
AcDbVertex
100
AcDb2dVertex
 10
103.9591987366688
 20
-147.2924832965102
 30
0.0
  0
SEQEND
  5
C7
330
C4
100
AcDbEntity
  8
_U+30EC_U+30A4_U+30E4_U+30FC 1
 62
   179
420
  2234388
370
     9
  0
POLYLINE
  5
C8
330
1F
100
AcDbEntity
  8
_U+30EC_U+30A4_U+30E4_U+30FC 1
 62
   179
420
  2234388
370
     9
100
AcDb2dPolyline
 66
     1
 10
0.0
 20
0.0
 30
0.0
  0
VERTEX
  5
C9
330
C8
100
AcDbEntity
  8
_U+30EC_U+30A4_U+30E4_U+30FC 1
 62
   179
420
  2234388
370
     9
100
AcDbVertex
100
AcDb2dVertex
 10
103.9591987366688
 20
-152.5502127396406
 30
0.0
  0
VERTEX
  5
CA
330
C8
100
AcDbEntity
  8
_U+30EC_U+30A4_U+30E4_U+30FC 1
 62
   179
420
  2234388
370
     9
100
AcDbVertex
100
AcDb2dVertex
 10
103.9591987366688
 20
-154.0501885725986
 30
0.0
  0
SEQEND
  5
CB
330
C8
100
AcDbEntity
  8
_U+30EC_U+30A4_U+30E4_U+30FC 1
 62
   179
420
  2234388
370
     9
  0
POLYLINE
  5
CC
330
1F
100
AcDbEntity
  8
_U+30EC_U+30A4_U+30E4_U+30FC 1
 62
   179
420
  2234388
370
     9
100
AcDb2dPolyline
 66
     1
 10
0.0
 20
0.0
 30
0.0
  0
VERTEX
  5
CD
330
CC
100
AcDbEntity
  8
_U+30EC_U+30A4_U+30E4_U+30FC 1
 62
   179
420
  2234388
370
     9
100
AcDbVertex
100
AcDb2dVertex
 10
102.4991573850286
 20
-152.5502127396406
 30
0.0
  0
VERTEX
  5
CE
330
CC
100
AcDbEntity
  8
_U+30EC_U+30A4_U+30E4_U+30FC 1
 62
   179
420
  2234388
370
     9
100
AcDbVertex
100
AcDb2dVertex
 10
104.9589709333847
 20
-152.5502127396406
 30
0.0
  0
SEQEND
  5
CF
330
CC
100
AcDbEntity
  8
_U+30EC_U+30A4_U+30E4_U+30FC 1
 62
   179
420
  2234388
370
     9
  0
POLYLINE
  5
D0
330
1F
100
AcDbEntity
  8
_U+30EC_U+30A4_U+30E4_U+30FC 1
 62
   179
420
  2234388
370
     9
100
AcDb2dPolyline
 66
     1
 10
0.0
 20
0.0
 30
0.0
  0
VERTEX
  5
D1
330
D0
100
AcDbEntity
  8
_U+30EC_U+30A4_U+30E4_U+30FC 1
 62
   179
420
  2234388
370
     9
100
AcDbVertex
100
AcDb2dVertex
 10
102.4991573850286
 20
-153.0504516284043
 30
0.0
  0
VERTEX
  5
D2
330
D0
100
AcDbEntity
  8
_U+30EC_U+30A4_U+30E4_U+30FC 1
 62
   179
420
  2234388
370
     9
100
AcDbVertex
100
AcDb2dVertex
 10
104.9589709333847
 20
-153.0504516284043
 30
0.0
  0
SEQEND
  5
D3
330
D0
100
AcDbEntity
  8
_U+30EC_U+30A4_U+30E4_U+30FC 1
 62
   179
420
  2234388
370
     9
  0
INSERT
  5
D5
330
1F
100
AcDbEntity
  8
_U+30EC_U+30A4_U+30E4_U+30FC 1
100
AcDbBlockReference
  2
block 5
 10
0.0
 20
0.0
 30
0.0
  0
POLYLINE
  5
E5
330
1F
100
AcDbEntity
  8
_U+30EC_U+30A4_U+30E4_U+30FC 1
 62
   179
420
  2234388
370
     9
100
AcDb2dPolyline
 66
     1
 10
0.0
 20
0.0
 30
0.0
  0
VERTEX
  5
E6
330
E5
100
AcDbEntity
  8
_U+30EC_U+30A4_U+30E4_U+30FC 1
 62
   179
420
  2234388
370
     9
100
AcDbVertex
100
AcDb2dVertex
 10
119.9592610811211
 20
-145.3504769081068
 30
0.0
  0
VERTEX
  5
E7
330
E5
100
AcDbEntity
  8
_U+30EC_U+30A4_U+30E4_U+30FC 1
 62
   179
420
  2234388
370
     9
100
AcDbVertex
100
AcDb2dVertex
 10
119.9592610811211
 20
-141.5801644090494
 30
0.0
  0
SEQEND
  5
E8
330
E5
100
AcDbEntity
  8
_U+30EC_U+30A4_U+30E4_U+30FC 1
 62
   179
420
  2234388
370
     9
  0
POLYLINE
  5
E9
330
1F
100
AcDbEntity
  8
_U+30EC_U+30A4_U+30E4_U+30FC 1
 62
   179
420
  2234388
370
     9
100
AcDb2dPolyline
 66
     1
 10
0.0
 20
0.0
 30
0.0
  0
VERTEX
  5
EA
330
E9
100
AcDbEntity
  8
_U+30EC_U+30A4_U+30E4_U+30FC 1
 62
   179
420
  2234388
370
     9
100
AcDbVertex
100
AcDb2dVertex
 10
119.9592610811211
 20
-145.3504769081068
 30
0.0
  0
VERTEX
  5
EB
330
E9
100
AcDbEntity
  8
_U+30EC_U+30A4_U+30E4_U+30FC 1
 62
   179
420
  2234388
370
     9
100
AcDbVertex
100
AcDb2dVertex
 10
119.9592610811211
 20
-146.350249130079
 30
0.0
  0
SEQEND
  5
EC
330
E9
100
AcDbEntity
  8
_U+30EC_U+30A4_U+30E4_U+30FC 1
 62
   179
420
  2234388
370
     9
  0
POLYLINE
  5
ED
330
1F
100
AcDbEntity
  8
_U+30EC_U+30A4_U+30E4_U+30FC 1
 62
   179
420
  2234388
370
     9
100
AcDb2dPolyline
 66
     1
 10
0.0
 20
0.0
 30
0.0
  0
VERTEX
  5
EE
330
ED
100
AcDbEntity
  8
_U+30EC_U+30A4_U+30E4_U+30FC 1
 62
   179
420
  2234388
370
     9
100
AcDbVertex
100
AcDb2dVertex
 10
118.4992166990553
 20
-145.3504769081068
 30
0.0
  0
VERTEX
  5
EF
330
ED
100
AcDbEntity
  8
_U+30EC_U+30A4_U+30E4_U+30FC 1
 62
   179
420
  2234388
370
     9
100
AcDbVertex
100
AcDb2dVertex
 10
120.9590333030936
 20
-145.3504769081068
 30
0.0
  0
SEQEND
  5
F0
330
ED
100
AcDbEntity
  8
_U+30EC_U+30A4_U+30E4_U+30FC 1
 62
   179
420
  2234388
370
     9
  0
POLYLINE
  5
F1
330
1F
100
AcDbEntity
  8
_U+30EC_U+30A4_U+30E4_U+30FC 1
 62
   179
420
  2234388
370
     9
100
AcDb2dPolyline
 66
     1
 10
0.0
 20
0.0
 30
0.0
  0
VERTEX
  5
F2
330
F1
100
AcDbEntity
  8
_U+30EC_U+30A4_U+30E4_U+30FC 1
 62
   179
420
  2234388
370
     9
100
AcDbVertex
100
AcDb2dVertex
 10
118.4992166990553
 20
-146.350249130079
 30
0.0
  0
VERTEX
  5
F3
330
F1
100
AcDbEntity
  8
_U+30EC_U+30A4_U+30E4_U+30FC 1
 62
   179
420
  2234388
370
     9
100
AcDbVertex
100
AcDb2dVertex
 10
120.9590333030936
 20
-146.350249130079
 30
0.0
  0
SEQEND
  5
F4
330
F1
100
AcDbEntity
  8
_U+30EC_U+30A4_U+30E4_U+30FC 1
 62
   179
420
  2234388
370
     9
  0
INSERT
  5
F6
330
1F
100
AcDbEntity
  8
_U+30EC_U+30A4_U+30E4_U+30FC 1
100
AcDbBlockReference
  2
block 6
 10
0.0
 20
0.0
 30
0.0
  0
POLYLINE
  5
FB
330
1F
100
AcDbEntity
  8
_U+30EC_U+30A4_U+30E4_U+30FC 1
 62
   179
420
  2234388
370
     9
100
AcDb2dPolyline
 66
     1
 10
0.0
 20
0.0
 30
0.0
  0
VERTEX
  5
FC
330
FB
100
AcDbEntity
  8
_U+30EC_U+30A4_U+30E4_U+30FC 1
 62
   179
420
  2234388
370
     9
100
AcDbVertex
100
AcDb2dVertex
 10
119.9592610811211
 20
-146.350249130079
 30
0.0
  0
VERTEX
  5
FD
330
FB
100
AcDbEntity
  8
_U+30EC_U+30A4_U+30E4_U+30FC 1
 62
   179
420
  2234388
370
     9
100
AcDbVertex
100
AcDb2dVertex
 10
119.9592610811211
 20
-152.5502127396406
 30
0.0
  0
SEQEND
  5
FE
330
FB
100
AcDbEntity
  8
_U+30EC_U+30A4_U+30E4_U+30FC 1
 62
   179
420
  2234388
370
     9
  0
POLYLINE
  5
FF
330
1F
100
AcDbEntity
  8
_U+30EC_U+30A4_U+30E4_U+30FC 1
 62
   179
420
  2234388
370
     9
100
AcDb2dPolyline
 66
     1
 10
0.0
 20
0.0
 30
0.0
  0
VERTEX
  5
100
330
FF
100
AcDbEntity
  8
_U+30EC_U+30A4_U+30E4_U+30FC 1
 62
   179
420
  2234388
370
     9
100
AcDbVertex
100
AcDb2dVertex
 10
118.4992166990553
 20
-146.350249130079
 30
0.0
  0
VERTEX
  5
101
330
FF
100
AcDbEntity
  8
_U+30EC_U+30A4_U+30E4_U+30FC 1
 62
   179
420
  2234388
370
     9
100
AcDbVertex
100
AcDb2dVertex
 10
120.9590333030936
 20
-146.350249130079
 30
0.0
  0
SEQEND
  5
102
330
FF
100
AcDbEntity
  8
_U+30EC_U+30A4_U+30E4_U+30FC 1
 62
   179
420
  2234388
370
     9
  0
POLYLINE
  5
103
330
1F
100
AcDbEntity
  8
_U+30EC_U+30A4_U+30E4_U+30FC 1
 62
   179
420
  2234388
370
     9
100
AcDb2dPolyline
 66
     1
 10
0.0
 20
0.0
 30
0.0
  0
VERTEX
  5
104
330
103
100
AcDbEntity
  8
_U+30EC_U+30A4_U+30E4_U+30FC 1
 62
   179
420
  2234388
370
     9
100
AcDbVertex
100
AcDb2dVertex
 10
102.4991573850286
 20
-152.5502127396406
 30
0.0
  0
VERTEX
  5
105
330
103
100
AcDbEntity
  8
_U+30EC_U+30A4_U+30E4_U+30FC 1
 62
   179
420
  2234388
370
     9
100
AcDbVertex
100
AcDb2dVertex
 10
120.9590333030936
 20
-152.5502127396406
 30
0.0
  0
SEQEND
  5
106
330
103
100
AcDbEntity
  8
_U+30EC_U+30A4_U+30E4_U+30FC 1
 62
   179
420
  2234388
370
     9
  0
INSERT
  5
108
330
1F
100
AcDbEntity
  8
_U+30EC_U+30A4_U+30E4_U+30FC 1
100
AcDbBlockReference
  2
block 7
 10
0.0
 20
0.0
 30
0.0
  0
ENDSEC
  0
SECTION
  2
OBJECTS
  0
DICTIONARY
  5
C
330
0
100
AcDbDictionary
281
     1
  3
ACAD_GROUP
350
D
  3
ACAD_LAYOUT
350
1A
  3
ACAD_MATERIAL
350
3B
  3
ACAD_MLEADERSTYLE
350
119
  3
ACAD_MLINESTYLE
350
17
  3
ACAD_PLOTSETTINGS
350
19
  3
ACAD_PLOTSTYLENAME
350
E
  3
ACAD_TABLESTYLE
350
118
  3
ACAD_VISUALSTYLE
350
2A
  0
SUN
  5
3F
330
29
100
AcDbSun
 90
        1
290
     0
 63
     7
421
 16777215
 40
1.0
291
     1
 91
  2455826
 92
 54000000
292
     0
 70
     2
 71
   256
280
     1
  0
DICTIONARY
  5
D
102
{ACAD_REACTORS
330
C
102
}
330
C
100
AcDbDictionary
281
     1
  0
DICTIONARY
  5
1A
102
{ACAD_REACTORS
330
C
102
}
330
C
100
AcDbDictionary
281
     1
  3
Layout1
350
1E
  3
Layout2
350
26
  3
Model
350
22
  0
DICTIONARY
  5
3B
102
{ACAD_REACTORS
330
C
102
}
330
C
100
AcDbDictionary
281
     1
  3
ByBlock
350
3D
  3
ByLayer
350
3C
  3
Global
350
3E
  0
DICTIONARY
  5
119
102
{ACAD_REACTORS
330
C
102
}
330
C
100
AcDbDictionary
281
     1
  0
DICTIONARY
  5
17
102
{ACAD_REACTORS
330
C
102
}
330
C
100
AcDbDictionary
281
     1
  3
Standard
350
18
  0
DICTIONARY
  5
19
102
{ACAD_REACTORS
330
C
102
}
330
C
100
AcDbDictionary
281
     1
  0
ACDBDICTIONARYWDFLT
  5
E
102
{ACAD_REACTORS
330
C
102
}
330
C
100
AcDbDictionary
281
     1
  3
Normal
350
F
100
AcDbDictionaryWithDefault
340
F
  0
DICTIONARY
  5
118
102
{ACAD_REACTORS
330
C
102
}
330
C
100
AcDbDictionary
281
     1
  0
DICTIONARY
  5
2A
102
{ACAD_REACTORS
330
C
102
}
330
C
100
AcDbDictionary
281
     1
  3
2dWireframe
350
2F
  3
3D Hidden
350
31
  3
3dWireframe
350
30
  3
Basic
350
32
  3
Brighten
350
36
  3
ColorChange
350
3A
  3
Conceptual
350
34
  3
Dim
350
35
  3
Facepattern
350
39
  3
Flat
350
2B
  3
FlatWithEdges
350
2C
  3
Gouraud
350
2D
  3
GouraudWithEdges
350
2E
  3
Linepattern
350
38
  3
Realistic
350
33
  3
Thicken
350
37
  0
LAYOUT
  5
1E
102
{ACAD_REACTORS
330
1A
102
}
330
1A
100
AcDbPlotSettings
  1

  2
none_device
  4

  6

 40
0.0
 41
0.0
 42
0.0
 43
0.0
 44
0.0
 45
0.0
 46
0.0
 47
0.0
 48
0.0
 49
0.0
140
0.0
141
0.0
142
1.0
143
1.0
 70
   688
 72
     0
 73
     0
 74
     5
  7

 75
    16
 76
     0
 77
     2
 78
   300
147
1.0
148
0.0
149
0.0
100
AcDbLayout
  1
Layout1
 70
     1
 71
     1
 10
0.0
 20
0.0
 11
12.0
 21
9.0
 12
0.0
 22
0.0
 32
0.0
 14
1.000000000000000E+20
 24
1.000000000000000E+20
 34
1.000000000000000E+20
 15
-1.000000000000000E+20
 25
-1.000000000000000E+20
 35
-1.000000000000000E+20
146
0.0
 13
0.0
 23
0.0
 33
0.0
 16
1.0
 26
0.0
 36
0.0
 17
0.0
 27
1.0
 37
0.0
 76
     0
330
1B
  0
LAYOUT
  5
26
102
{ACAD_REACTORS
330
1A
102
}
330
1A
100
AcDbPlotSettings
  1

  2
none_device
  4

  6

 40
0.0
 41
0.0
 42
0.0
 43
0.0
 44
0.0
 45
0.0
 46
0.0
 47
0.0
 48
0.0
 49
0.0
140
0.0
141
0.0
142
1.0
143
1.0
 70
   688
 72
     0
 73
     0
 74
     5
  7

 75
    16
 76
     0
 77
     2
 78
   300
147
1.0
148
0.0
149
0.0
100
AcDbLayout
  1
Layout2
 70
     1
 71
     2
 10
0.0
 20
0.0
 11
0.0
 21
0.0
 12
0.0
 22
0.0
 32
0.0
 14
0.0
 24
0.0
 34
0.0
 15
0.0
 25
0.0
 35
0.0
146
0.0
 13
0.0
 23
0.0
 33
0.0
 16
1.0
 26
0.0
 36
0.0
 17
0.0
 27
1.0
 37
0.0
 76
     0
330
23
  0
LAYOUT
  5
22
102
{ACAD_REACTORS
330
1A
102
}
330
1A
100
AcDbPlotSettings
  1

  2
none_device
  4

  6

 40
0.0
 41
0.0
 42
0.0
 43
0.0
 44
0.0
 45
0.0
 46
0.0
 47
0.0
 48
0.0
 49
0.0
140
0.0
141
0.0
142
1.0
143
1.0
 70
  1712
 72
     0
 73
     0
 74
     0
  7

 75
     0
 76
     0
 77
     2
 78
   300
147
1.0
148
0.0
149
0.0
100
AcDbLayout
  1
Model
 70
     1
 71
     0
 10
0.0
 20
0.0
 11
12.0
 21
9.0
 12
0.0
 22
0.0
 32
0.0
 14
1.000000000000000E+20
 24
1.000000000000000E+20
 34
1.000000000000000E+20
 15
-1.000000000000000E+20
 25
-1.000000000000000E+20
 35
-1.000000000000000E+20
146
0.0
 13
0.0
 23
0.0
 33
0.0
 16
1.0
 26
0.0
 36
0.0
 17
0.0
 27
1.0
 37
0.0
 76
     0
330
1F
331
29
  0
MATERIAL
  5
3D
102
{ACAD_REACTORS
330
3B
102
}
330
3B
100
AcDbMaterial
  1
ByBlock
 72
     1
 94
      127
  0
MATERIAL
  5
3C
102
{ACAD_REACTORS
330
3B
102
}
330
3B
100
AcDbMaterial
  1
ByLayer
 72
     1
 94
      127
  0
MATERIAL
  5
3E
102
{ACAD_REACTORS
330
3B
102
}
330
3B
100
AcDbMaterial
  1
Global
 72
     1
 94
      127
  0
MLINESTYLE
  5
18
102
{ACAD_REACTORS
330
17
102
}
330
17
100
AcDbMlineStyle
  2
Standard
 70
     0
  3

 62
   256
 51
90.0
 52
90.0
 71
     2
 49
0.5
 62
   256
  6
BYLAYER
 49
-0.5
 62
   256
  6
BYLAYER
  0
ACDBPLACEHOLDER
  5
F
102
{ACAD_REACTORS
330
E
102
}
330
E
  0
VISUALSTYLE
  5
2F
102
{ACAD_REACTORS
330
2A
102
}
330
2A
100
AcDbVisualStyle
  2
2dWireframe
 70
     4
177
     2
291
     0
 71
     0
176
     1
 72
     2
176
     1
 73
     0
176
     1
 90
        0
176
     1
 40
-0.6
176
     1
 41
-30.0
176
     1
 62
     5
 63
     7
421
 16777215
176
     1
 74
     1
176
     1
 91
        4
176
     1
 64
     7
176
     1
 65
   257
176
     1
 75
     1
176
     1
175
     1
176
     1
 42
1.0
176
     1
 92
        0
176
     1
 66
   257
176
     1
 43
1.0
176
     1
 76
     1
176
     1
 77
     6
176
     1
 78
     2
176
     1
 67
     7
176
     1
 79
     5
176
     1
170
     0
176
     1
171
     0
176
     1
290
     0
176
     1
 93
        1
176
     1
 44
0.0
176
     1
173
     0
176
     1
  0
VISUALSTYLE
  5
31
102
{ACAD_REACTORS
330
2A
102
}
330
2A
100
AcDbVisualStyle
  2
3D Hidden
 70
     6
177
     2
291
     0
 71
     1
176
     1
 72
     2
176
     1
 73
     2
176
     1
 90
        0
176
     1
 40
-0.6
176
     1
 41
-30.0
176
     1
 62
     5
 63
     7
421
 16777215
176
     1
 74
     2
176
     1
 91
        2
176
     1
 64
     7
176
     1
 65
   257
176
     1
 75
     2
176
     1
175
     1
176
     1
 42
40.0
176
     1
 92
        0
176
     1
 66
   257
176
     1
 43
1.0
176
     1
 76
     1
176
     1
 77
     6
176
     1
 78
     2
176
     1
 67
     7
176
     1
 79
     3
176
     1
170
     0
176
     1
171
     0
176
     1
290
     0
176
     1
 93
        1
176
     1
 44
0.0
176
     1
173
     0
176
     1
  0
VISUALSTYLE
  5
30
102
{ACAD_REACTORS
330
2A
102
}
330
2A
100
AcDbVisualStyle
  2
3dWireframe
 70
     5
177
     2
291
     0
 71
     0
176
     1
 72
     2
176
     1
 73
     0
176
     1
 90
        0
176
     1
 40
-0.6
176
     1
 41
-30.0
176
     1
 62
     5
 63
     7
421
 16777215
176
     1
 74
     1
176
     1
 91
        4
176
     1
 64
     7
176
     1
 65
   257
176
     1
 75
     1
176
     1
175
     1
176
     1
 42
1.0
176
     1
 92
        0
176
     1
 66
   257
176
     1
 43
1.0
176
     1
 76
     1
176
     1
 77
     6
176
     1
 78
     2
176
     1
 67
     7
176
     1
 79
     5
176
     1
170
     0
176
     1
171
     0
176
     1
290
     0
176
     1
 93
        1
176
     1
 44
0.0
176
     1
173
     0
176
     1
  0
VISUALSTYLE
  5
32
102
{ACAD_REACTORS
330
2A
102
}
330
2A
100
AcDbVisualStyle
  2
Basic
 70
     7
177
     2
291
     1
 71
     1
176
     1
 72
     0
176
     1
 73
     1
176
     1
 90
        0
176
     1
 40
-0.6
176
     1
 41
-30.0
176
     1
 62
     5
 63
     7
421
 16777215
176
     1
 74
     0
176
     1
 91
        4
176
     1
 64
     7
176
     1
 65
   257
176
     1
 75
     1
176
     1
175
     1
176
     1
 42
1.0
176
     1
 92
        8
176
     1
 66
     7
176
     1
 43
1.0
176
     1
 76
     1
176
     1
 77
     6
176
     1
 78
     2
176
     1
 67
     7
176
     1
 79
     5
176
     1
170
     0
176
     1
171
     0
176
     1
290
     0
176
     1
 93
        1
176
     1
 44
0.0
176
     1
173
     0
176
     1
  0
VISUALSTYLE
  5
36
102
{ACAD_REACTORS
330
2A
102
}
330
2A
100
AcDbVisualStyle
  2
Brighten
 70
    12
177
     2
291
     1
 71
     2
176
     1
 72
     2
176
     1
 73
     0
176
     1
 90
        0
176
     1
 40
-0.6
176
     1
 41
-30.0
176
     1
 62
     5
 63
     7
421
 16777215
176
     1
 74
     1
176
     1
 91
        4
176
     1
 64
     7
176
     1
 65
   257
176
     1
 75
     1
176
     1
175
     1
176
     1
 42
1.0
176
     1
 92
        8
176
     1
 66
     7
176
     1
 43
1.0
176
     1
 76
     1
176
     1
 77
     6
176
     1
 78
     2
176
     1
 67
     7
176
     1
 79
     5
176
     1
170
     0
176
     1
171
     0
176
     1
290
     0
176
     1
 93
        1
176
     1
 44
50.0
176
     1
173
     0
176
     1
  0
VISUALSTYLE
  5
3A
102
{ACAD_REACTORS
330
2A
102
}
330
2A
100
AcDbVisualStyle
  2
ColorChange
 70
    16
177
     2
291
     1
 71
     2
176
     1
 72
     2
176
     1
 73
     3
176
     1
 90
        0
176
     1
 40
-0.6
176
     1
 41
-30.0
176
     1
 62
     5
 63
     8
421
  8421504
176
     1
 74
     1
176
     1
 91
        4
176
     1
 64
     7
176
     1
 65
   257
176
     1
 75
     1
176
     1
175
     1
176
     1
 42
1.0
176
     1
 92
        8
176
     1
 66
     8
424
  8421504
176
     1
 43
1.0
176
     1
 76
     1
176
     1
 77
     6
176
     1
 78
     2
176
     1
 67
     7
176
     1
 79
     5
176
     1
170
     0
176
     1
171
     0
176
     1
290
     0
176
     1
 93
        1
176
     1
 44
0.0
176
     1
173
     0
176
     1
  0
VISUALSTYLE
  5
34
102
{ACAD_REACTORS
330
2A
102
}
330
2A
100
AcDbVisualStyle
  2
Conceptual
 70
     9
177
     2
291
     0
 71
     3
176
     1
 72
     2
176
     1
 73
     0
176
     1
 90
        0
176
     1
 40
-0.6
176
     1
 41
-30.0
176
     1
 62
     5
 63
     7
421
 16777215
176
     1
 74
     2
176
     1
 91
        2
176
     1
 64
     7
176
     1
 65
   257
176
     1
 75
     1
176
     1
175
     1
176
     1
 42
40.0
176
     1
 92
        8
176
     1
 66
     7
176
     1
 43
1.0
176
     1
 76
     1
176
     1
 77
     6
176
     1
 78
     2
176
     1
 67
     7
176
     1
 79
     3
176
     1
170
     0
176
     1
171
     0
176
     1
290
     0
176
     1
 93
        1
176
     1
 44
0.0
176
     1
173
     0
176
     1
  0
VISUALSTYLE
  5
35
102
{ACAD_REACTORS
330
2A
102
}
330
2A
100
AcDbVisualStyle
  2
Dim
 70
    11
177
     2
291
     1
 71
     2
176
     1
 72
     2
176
     1
 73
     0
176
     1
 90
        0
176
     1
 40
-0.6
176
     1
 41
-30.0
176
     1
 62
     5
 63
     7
421
 16777215
176
     1
 74
     1
176
     1
 91
        4
176
     1
 64
     7
176
     1
 65
   257
176
     1
 75
     1
176
     1
175
     1
176
     1
 42
1.0
176
     1
 92
        8
176
     1
 66
     7
176
     1
 43
1.0
176
     1
 76
     1
176
     1
 77
     6
176
     1
 78
     2
176
     1
 67
     7
176
     1
 79
     5
176
     1
170
     0
176
     1
171
     0
176
     1
290
     0
176
     1
 93
        1
176
     1
 44
-50.0
176
     1
173
     0
176
     1
  0
VISUALSTYLE
  5
39
102
{ACAD_REACTORS
330
2A
102
}
330
2A
100
AcDbVisualStyle
  2
Facepattern
 70
    15
177
     2
291
     1
 71
     2
176
     1
 72
     2
176
     1
 73
     0
176
     1
 90
        0
176
     1
 40
-0.6
176
     1
 41
-30.0
176
     1
 62
     5
 63
     7
421
 16777215
176
     1
 74
     1
176
     1
 91
        4
176
     1
 64
     7
176
     1
 65
   257
176
     1
 75
     1
176
     1
175
     1
176
     1
 42
1.0
176
     1
 92
        8
176
     1
 66
     7
176
     1
 43
1.0
176
     1
 76
     1
176
     1
 77
     6
176
     1
 78
     2
176
     1
 67
     7
176
     1
 79
     5
176
     1
170
     0
176
     1
171
     0
176
     1
290
     0
176
     1
 93
        1
176
     1
 44
0.0
176
     1
173
     0
176
     1
  0
VISUALSTYLE
  5
2B
102
{ACAD_REACTORS
330
2A
102
}
330
2A
100
AcDbVisualStyle
  2
Flat
 70
     0
177
     2
291
     1
 71
     2
176
     1
 72
     1
176
     1
 73
     1
176
     1
 90
        2
176
     1
 40
-0.6
176
     1
 41
30.0
176
     1
 62
     5
 63
     7
421
 16777215
176
     1
 74
     0
176
     1
 91
        4
176
     1
 64
     7
176
     1
 65
   257
176
     1
 75
     1
176
     1
175
     1
176
     1
 42
1.0
176
     1
 92
        8
176
     1
 66
     7
176
     1
 43
1.0
176
     1
 76
     1
176
     1
 77
     6
176
     1
 78
     2
176
     1
 67
     7
176
     1
 79
     5
176
     1
170
     0
176
     1
171
     0
176
     1
290
     0
176
     1
 93
       13
176
     1
 44
0.0
176
     1
173
     0
176
     1
  0
VISUALSTYLE
  5
2C
102
{ACAD_REACTORS
330
2A
102
}
330
2A
100
AcDbVisualStyle
  2
FlatWithEdges
 70
     1
177
     2
291
     1
 71
     2
176
     1
 72
     1
176
     1
 73
     1
176
     1
 90
        2
176
     1
 40
-0.6
176
     1
 41
30.0
176
     1
 62
     5
 63
     7
421
 16777215
176
     1
 74
     1
176
     1
 91
        4
176
     1
 64
     7
176
     1
 65
   257
176
     1
 75
     1
176
     1
175
     1
176
     1
 42
1.0
176
     1
 92
        0
176
     1
 66
   257
176
     1
 43
1.0
176
     1
 76
     1
176
     1
 77
     6
176
     1
 78
     2
176
     1
 67
     7
176
     1
 79
     5
176
     1
170
     0
176
     1
171
     0
176
     1
290
     0
176
     1
 93
       13
176
     1
 44
0.0
176
     1
173
     0
176
     1
  0
VISUALSTYLE
  5
2D
102
{ACAD_REACTORS
330
2A
102
}
330
2A
100
AcDbVisualStyle
  2
Gouraud
 70
     2
177
     2
291
     1
 71
     2
176
     1
 72
     2
176
     1
 73
     1
176
     1
 90
        2
176
     1
 40
-0.6
176
     1
 41
30.0
176
     1
 62
     5
 63
     7
421
 16777215
176
     1
 74
     0
176
     1
 91
        4
176
     1
 64
     7
176
     1
 65
   257
176
     1
 75
     1
176
     1
175
     1
176
     1
 42
1.0
176
     1
 92
        0
176
     1
 66
     7
176
     1
 43
1.0
176
     1
 76
     1
176
     1
 77
     6
176
     1
 78
     2
176
     1
 67
     7
176
     1
 79
     5
176
     1
170
     0
176
     1
171
     0
176
     1
290
     0
176
     1
 93
       13
176
     1
 44
0.0
176
     1
173
     0
176
     1
  0
VISUALSTYLE
  5
2E
102
{ACAD_REACTORS
330
2A
102
}
330
2A
100
AcDbVisualStyle
  2
GouraudWithEdges
 70
     3
177
     2
291
     1
 71
     2
176
     1
 72
     2
176
     1
 73
     1
176
     1
 90
        2
176
     1
 40
-0.6
176
     1
 41
30.0
176
     1
 62
     5
 63
     7
421
 16777215
176
     1
 74
     1
176
     1
 91
        4
176
     1
 64
     7
176
     1
 65
   257
176
     1
 75
     1
176
     1
175
     1
176
     1
 42
1.0
176
     1
 92
        0
176
     1
 66
   257
176
     1
 43
1.0
176
     1
 76
     1
176
     1
 77
     6
176
     1
 78
     2
176
     1
 67
     7
176
     1
 79
     5
176
     1
170
     0
176
     1
171
     0
176
     1
290
     0
176
     1
 93
       13
176
     1
 44
0.0
176
     1
173
     0
176
     1
  0
VISUALSTYLE
  5
38
102
{ACAD_REACTORS
330
2A
102
}
330
2A
100
AcDbVisualStyle
  2
Linepattern
 70
    14
177
     2
291
     1
 71
     2
176
     1
 72
     2
176
     1
 73
     0
176
     1
 90
        0
176
     1
 40
-0.6
176
     1
 41
-30.0
176
     1
 62
     5
 63
     7
421
 16777215
176
     1
 74
     1
176
     1
 91
        4
176
     1
 64
     7
176
     1
 65
   257
176
     1
 75
     7
176
     1
175
     7
176
     1
 42
1.0
176
     1
 92
        8
176
     1
 66
     7
176
     1
 43
1.0
176
     1
 76
     1
176
     1
 77
     6
176
     1
 78
     2
176
     1
 67
     7
176
     1
 79
     5
176
     1
170
     0
176
     1
171
     0
176
     1
290
     0
176
     1
 93
        1
176
     1
 44
0.0
176
     1
173
     0
176
     1
  0
VISUALSTYLE
  5
33
102
{ACAD_REACTORS
330
2A
102
}
330
2A
100
AcDbVisualStyle
  2
Realistic
 70
     8
177
     2
291
     0
 71
     2
176
     1
 72
     2
176
     1
 73
     0
176
     1
 90
        0
176
     1
 40
-0.6
176
     1
 41
-30.0
176
     1
 62
     5
 63
     7
421
 16777215
176
     1
 74
     1
176
     1
 91
        0
176
     1
 64
     7
176
     1
 65
   257
176
     1
 75
     1
176
     1
175
     1
176
     1
 42
1.0
176
     1
 92
        8
176
     1
 66
     8
424
  7895160
176
     1
 43
1.0
176
     1
 76
     1
176
     1
 77
     6
176
     1
 78
     2
176
     1
 67
     7
176
     1
 79
     5
176
     1
170
     0
176
     1
171
     0
176
     1
290
     0
176
     1
 93
       13
176
     1
 44
0.0
176
     1
173
     0
176
     1
  0
VISUALSTYLE
  5
37
102
{ACAD_REACTORS
330
2A
102
}
330
2A
100
AcDbVisualStyle
  2
Thicken
 70
    13
177
     2
291
     1
 71
     2
176
     1
 72
     2
176
     1
 73
     0
176
     1
 90
        0
176
     1
 40
-0.6
176
     1
 41
-30.0
176
     1
 62
     5
 63
     7
421
 16777215
176
     1
 74
     1
176
     1
 91
        4
176
     1
 64
     7
176
     1
 65
   257
176
     1
 75
     1
176
     1
175
     1
176
     1
 42
1.0
176
     1
 92
       12
176
     1
 66
     7
176
     1
 43
1.0
176
     1
 76
     1
176
     1
 77
     6
176
     1
 78
     2
176
     1
 67
     7
176
     1
 79
     5
176
     1
170
     0
176
     1
171
     0
176
     1
290
     0
176
     1
 93
        1
176
     1
 44
0.0
176
     1
173
     0
176
     1
  0
ENDSEC
  0
EOF
