  0
SECTION
  2
HEADER
  9
$ACADVER
  1
AC1024
  9
$ACADMAINTVER
 70
     6
  9
$DWGCODEPAGE
  3
UNDEFINED
  9
$INSBASE
 10
0.0
 20
0.0
 30
0.0
  9
$EXTMIN
 10
1.000000000000000E+20
 20
1.000000000000000E+20
 30
1.000000000000000E+20
  9
$EXTMAX
 10
-1.000000000000000E+20
 20
-1.000000000000000E+20
 30
-1.000000000000000E+20
  9
$LIMMIN
 10
0.0
 20
0.0
  9
$LIMMAX
 10
12.0
 20
9.0
  9
$ORTHOMODE
 70
     0
  9
$REGENMODE
 70
     1
  9
$FILLMODE
 70
     1
  9
$QTEXTMODE
 70
     0
  9
$MIRRTEXT
 70
     1
  9
$LTSCALE
 40
1.0
  9
$ATTMODE
 70
     1
  9
$TEXTSIZE
 40
0.2
  9
$TRACEWID
 40
0.05
  9
$TEXTSTYLE
  7
Standard
  9
$CLAYER
  8
0
  9
$CELTYPE
  6
ByLayer
  9
$CECOLOR
 62
   256
  9
$CELTSCALE
 40
1.0
  9
$DISPSILH
 70
     0
  9
$DIMSCALE
 40
1.0
  9
$DIMASZ
 40
0.18
  9
$DIMEXO
 40
0.0625
  9
$DIMDLI
 40
0.38
  9
$DIMRND
 40
0.0
  9
$DIMDLE
 40
0.0
  9
$DIMEXE
 40
0.18
  9
$DIMTP
 40
0.0
  9
$DIMTM
 40
0.0
  9
$DIMTXT
 40
0.18
  9
$DIMCEN
 40
0.09
  9
$DIMTSZ
 40
0.0
  9
$DIMTOL
 70
     0
  9
$DIMLIM
 70
     0
  9
$DIMTIH
 70
     1
  9
$DIMTOH
 70
     1
  9
$DIMSE1
 70
     0
  9
$DIMSE2
 70
     0
  9
$DIMTAD
 70
     0
  9
$DIMZIN
 70
     0
  9
$DIMBLK
  1

  9
$DIMASO
 70
     1
  9
$DIMSHO
 70
     1
  9
$DIMPOST
  1

  9
$DIMAPOST
  1

  9
$DIMALT
 70
     0
  9
$DIMALTD
 70
     2
  9
$DIMALTF
 40
25.4
  9
$DIMLFAC
 40
1.0
  9
$DIMTOFL
 70
     0
  9
$DIMTVP
 40
0.0
  9
$DIMTIX
 70
     0
  9
$DIMSOXD
 70
     0
  9
$DIMSAH
 70
     0
  9
$DIMBLK1
  1

  9
$DIMBLK2
  1

  9
$DIMSTYLE
  2
Standard
  9
$DIMCLRD
 70
     0
  9
$DIMCLRE
 70
     0
  9
$DIMCLRT
 70
     0
  9
$DIMTFAC
 40
1.0
  9
$DIMGAP
 40
0.09
  9
$DIMJUST
 70
     0
  9
$DIMSD1
 70
     0
  9
$DIMSD2
 70
     0
  9
$DIMTOLJ
 70
     1
  9
$DIMTZIN
 70
     0
  9
$DIMALTZ
 70
     0
  9
$DIMALTTZ
 70
     0
  9
$DIMUPT
 70
     0
  9
$DIMDEC
 70
     4
  9
$DIMTDEC
 70
     4
  9
$DIMALTU
 70
     2
  9
$DIMALTTD
 70
     2
  9
$DIMTXSTY
  7
Standard
  9
$DIMAUNIT
 70
     0
  9
$DIMADEC
 70
     0
  9
$DIMALTRND
 40
0.0
  9
$DIMAZIN
 70
     0
  9
$DIMDSEP
 70
    46
  9
$DIMATFIT
 70
     3
  9
$DIMFRAC
 70
     0
  9
$DIMLDRBLK
  1

  9
$DIMLUNIT
 70
     2
  9
$DIMLWD
 70
    -2
  9
$DIMLWE
 70
    -2
  9
$DIMTMOVE
 70
     0
  9
$DIMFXL
 40
1.0
  9
$DIMFXLON
 70
     0
  9
$DIMJOGANG
 40
0.7853981633974483
  9
$DIMTFILL
 70
     0
  9
$DIMTFILLCLR
 70
     0
  9
$DIMARCSYM
 70
     0
  9
$DIMLTYPE
  6

  9
$DIMLTEX1
  6

  9
$DIMLTEX2
  6

  9
$DIMTXTDIRECTION
 70
     0
  9
$LUNITS
 70
     2
  9
$LUPREC
 70
     4
  9
$SKETCHINC
 40
0.1
  9
$FILLETRAD
 40
0.5
  9
$AUNITS
 70
     0
  9
$AUPREC
 70
     0
  9
$MENU
  1
.
  9
$ELEVATION
 40
0.0
  9
$PELEVATION
 40
0.0
  9
$THICKNESS
 40
0.0
  9
$LIMCHECK
 70
     0
  9
$CHAMFERA
 40
0.5
  9
$CHAMFERB
 40
0.5
  9
$CHAMFERC
 40
1.0
  9
$CHAMFERD
 40
0.0
  9
$SKPOLY
 70
     0
  9
$TDCREATE
 40
2457917.586331019
  9
$TDUCREATE
 40
2457917.211331019
  9
$TDUPDATE
 40
2457917.586331019
  9
$TDUUPDATE
 40
2457917.211331019
  9
$TDINDWG
 40
0.0000000116
  9
$TDUSRTIMER
 40
0.0000000116
  9
$USRTIMER
 70
     1
  9
$ANGBASE
 50
0.0
  9
$ANGDIR
 70
     0
  9
$PDMODE
 70
     0
  9
$PDSIZE
 40
0.0
  9
$PLINEWID
 40
0.0
  9
$SPLFRAME
 70
     0
  9
$SPLINETYPE
 70
     6
  9
$SPLINESEGS
 70
     8
  9
$HANDSEED
  5
139
  9
$SURFTAB1
 70
     6
  9
$SURFTAB2
 70
     6
  9
$SURFTYPE
 70
     6
  9
$SURFU
 70
     6
  9
$SURFV
 70
     6
  9
$UCSBASE
  2

  9
$UCSNAME
  2

  9
$UCSORG
 10
0.0
 20
0.0
 30
0.0
  9
$UCSXDIR
 10
1.0
 20
0.0
 30
0.0
  9
$UCSYDIR
 10
0.0
 20
1.0
 30
0.0
  9
$UCSORTHOREF
  2

  9
$UCSORTHOVIEW
 70
     0
  9
$UCSORGTOP
 10
0.0
 20
0.0
 30
0.0
  9
$UCSORGBOTTOM
 10
0.0
 20
0.0
 30
0.0
  9
$UCSORGLEFT
 10
0.0
 20
0.0
 30
0.0
  9
$UCSORGRIGHT
 10
0.0
 20
0.0
 30
0.0
  9
$UCSORGFRONT
 10
0.0
 20
0.0
 30
0.0
  9
$UCSORGBACK
 10
0.0
 20
0.0
 30
0.0
  9
$PUCSBASE
  2

  9
$PUCSNAME
  2

  9
$PUCSORG
 10
0.0
 20
0.0
 30
0.0
  9
$PUCSXDIR
 10
1.0
 20
0.0
 30
0.0
  9
$PUCSYDIR
 10
0.0
 20
1.0
 30
0.0
  9
$PUCSORTHOREF
  2

  9
$PUCSORTHOVIEW
 70
     0
  9
$PUCSORGTOP
 10
0.0
 20
0.0
 30
0.0
  9
$PUCSORGBOTTOM
 10
0.0
 20
0.0
 30
0.0
  9
$PUCSORGLEFT
 10
0.0
 20
0.0
 30
0.0
  9
$PUCSORGRIGHT
 10
0.0
 20
0.0
 30
0.0
  9
$PUCSORGFRONT
 10
0.0
 20
0.0
 30
0.0
  9
$PUCSORGBACK
 10
0.0
 20
0.0
 30
0.0
  9
$USERI1
 70
     0
  9
$USERI2
 70
     0
  9
$USERI3
 70
     0
  9
$USERI4
 70
     0
  9
$USERI5
 70
     0
  9
$USERR1
 40
0.0
  9
$USERR2
 40
0.0
  9
$USERR3
 40
0.0
  9
$USERR4
 40
0.0
  9
$USERR5
 40
0.0
  9
$WORLDVIEW
 70
     1
  9
$SHADEDGE
 70
     3
  9
$SHADEDIF
 70
    70
  9
$TILEMODE
 70
     1
  9
$MAXACTVP
 70
    64
  9
$PINSBASE
 10
0.0
 20
0.0
 30
0.0
  9
$PLIMCHECK
 70
     0
  9
$PEXTMIN
 10
1.000000000000000E+20
 20
1.000000000000000E+20
 30
1.000000000000000E+20
  9
$PEXTMAX
 10
-1.000000000000000E+20
 20
-1.000000000000000E+20
 30
-1.000000000000000E+20
  9
$PLIMMIN
 10
0.0
 20
0.0
  9
$PLIMMAX
 10
12.0
 20
9.0
  9
$UNITMODE
 70
     0
  9
$VISRETAIN
 70
     1
  9
$PLINEGEN
 70
     0
  9
$PSLTSCALE
 70
     1
  9
$TREEDEPTH
 70
  3020
  9
$CMLSTYLE
  2
Standard
  9
$CMLJUST
 70
     0
  9
$CMLSCALE
 40
1.0
  9
$PROXYGRAPHICS
 70
     1
  9
$MEASUREMENT
 70
     0
  9
$CELWEIGHT
370
    -1
  9
$ENDCAPS
280
     0
  9
$JOINSTYLE
280
     0
  9
$LWDISPLAY
290
     1
  9
$INSUNITS
 70
     1
  9
$HYPERLINKBASE
  1

  9
$STYLESHEET
  1

  9
$XEDIT
290
     1
  9
$CEPSNTYPE
380
     0
  9
$PSTYLEMODE
290
     1
  9
$FINGERPRINTGUID
  2
{A6152D89-5C4E-B21F-3ED7-5776FAB3A940}
  9
$VERSIONGUID
  2
{FAEB1C32-E019-11D5-929B-00C0DF256EC4}
  9
$EXTNAMES
290
     1
  9
$PSVPSCALE
 40
0.0
  9
$OLESTARTUP
290
     0
  9
$SORTENTS
280
   127
  9
$INDEXCTL
280
     0
  9
$HIDETEXT
280
     1
  9
$XCLIPFRAME
280
     2
  9
$HALOGAP
280
     0
  9
$OBSCOLOR
 70
   257
  9
$OBSLTYPE
280
     0
  9
$INTERSECTIONDISPLAY
280
     0
  9
$INTERSECTIONCOLOR
 70
   257
  9
$DIMASSOC
280
     2
  9
$PROJECTNAME
  1

  9
$CAMERADISPLAY
290
     0
  9
$LENSLENGTH
 40
50.0
  9
$CAMERAHEIGHT
 40
0.0
  9
$STEPSPERSEC
 40
2.0
  9
$STEPSIZE
 40
6.0
  9
$3DDWFPREC
 40
2.0
  9
$PSOLWIDTH
 40
0.25
  9
$PSOLHEIGHT
 40
4.0
  9
$LOFTANG1
 40
1.570796326794897
  9
$LOFTANG2
 40
1.570796326794897
  9
$LOFTMAG1
 40
0.0
  9
$LOFTMAG2
 40
0.0
  9
$LOFTPARAM
 70
     7
  9
$LOFTNORMALS
280
     1
  9
$LATITUDE
 40
37.795
  9
$LONGITUDE
 40
-122.394
  9
$NORTHDIRECTION
 40
0.0
  9
$TIMEZONE
 70
 -8000
  9
$LIGHTGLYPHDISPLAY
280
     1
  9
$TILEMODELIGHTSYNCH
280
     1
  9
$CMATERIAL
347
3C
  9
$SOLIDHIST
280
     1
  9
$SHOWHIST
280
     1
  9
$DWFFRAME
280
     2
  9
$DGNFRAME
280
     2
  9
$REALWORLDSCALE
290
     1
  9
$INTERFERECOLOR
 62
   256
  9
$CSHADOW
280
     0
  9
$SHADOWPLANELOCATION
 40
0.0
  0
ENDSEC
  0
SECTION
  2
CLASSES
  0
CLASS
  1
ACDBDICTIONARYWDFLT
  2
AcDbDictionaryWithDefault
  3
ObjectDBX Classes
 90
        0
 91
        4
280
     0
281
     0
  0
CLASS
  1
VISUALSTYLE
  2
AcDbVisualStyle
  3
ObjectDBX Classes
 90
     4095
 91
        4
280
     0
281
     0
  0
CLASS
  1
MATERIAL
  2
AcDbMaterial
  3
ObjectDBX Classes
 90
     1153
 91
        4
280
     0
281
     0
  0
CLASS
  1
SUN
  2
AcDbSun
  3
SCENEOE
 90
     1024
 91
        4
280
     0
281
     0
  0
ENDSEC
  0
SECTION
  2
TABLES
  0
TABLE
  2
VPORT
  5
8
330
0
100
AcDbSymbolTable
 70
     1
  0
VPORT
  5
29
330
8
100
AcDbSymbolTableRecord
100
AcDbViewportTableRecord
  2
*Active
 70
     0
 10
0.0
 20
0.0
 11
1.0
 21
1.0
 12
0.0
 22
0.0
 13
0.0
 23
0.0
 14
0.5
 24
0.5
 15
0.5
 25
0.5
 16
0.0
 26
0.0
 36
1.0
 17
105.0008280156501
 27
-148.4999710739862
 37
0.0
 40
296.9999421479724
 41
0.7070764206636528
 42
50.0
 43
0.0
 44
0.0
 50
0.0
 51
0.0
 71
     0
 72
   100
 73
     1
 74
     3
 75
     0
 76
     0
 77
     0
 78
     0
281
     0
 65
     1
110
0.0
120
0.0
130
0.0
111
1.0
121
0.0
131
0.0
112
0.0
122
1.0
132
0.0
 79
     0
146
0.0
 60
     3
 61
     5
292
     1
282
     1
141
0.0
142
0.0
 63
   250
361
3F
  0
ENDTAB
  0
TABLE
  2
LTYPE
  5
5
330
0
100
AcDbSymbolTable
 70
     1
  0
LTYPE
  5
14
330
5
100
AcDbSymbolTableRecord
100
AcDbLinetypeTableRecord
  2
ByBlock
 70
     0
  3

 72
    65
 73
     0
 40
0.0
  0
LTYPE
  5
15
330
5
100
AcDbSymbolTableRecord
100
AcDbLinetypeTableRecord
  2
ByLayer
 70
     0
  3

 72
    65
 73
     0
 40
0.0
  0
LTYPE
  5
16
330
5
100
AcDbSymbolTableRecord
100
AcDbLinetypeTableRecord
  2
Continuous
 70
     0
  3
Solid line
 72
    65
 73
     0
 40
0.0
  0
ENDTAB
  0
TABLE
  2
LAYER
  5
2
330
0
100
AcDbSymbolTable
 70
     2
  0
LAYER
  5
10
330
2
100
AcDbSymbolTableRecord
100
AcDbLayerTableRecord
  2
0
 70
     0
 62
     7
  6
Continuous
370
    -3
390
F
347
3E
  0
LAYER
  5
40
330
2
100
AcDbSymbolTableRecord
100
AcDbLayerTableRecord
  2
_U+30EC_U+30A4_U+30E4_U+30FC 1
 70
     0
 62
     7
  6
Continuous
370
    -3
390
F
347
3E
  0
ENDTAB
  0
TABLE
  2
STYLE
  5
3
330
0
100
AcDbSymbolTable
 70
     1
  0
STYLE
  5
11
330
3
100
AcDbSymbolTableRecord
100
AcDbTextStyleTableRecord
  2
Standard
 70
     0
 40
0.0
 41
1.0
 50
0.0
 71
     0
 42
0.2
  3
txt
  4

  0
ENDTAB
  0
TABLE
  2
VIEW
  5
6
330
0
100
AcDbSymbolTable
 70
     0
  0
ENDTAB
  0
TABLE
  2
UCS
  5
7
330
0
100
AcDbSymbolTable
 70
     0
  0
ENDTAB
  0
TABLE
  2
APPID
  5
9
330
0
100
AcDbSymbolTable
 70
     1
  0
APPID
  5
12
330
9
100
AcDbSymbolTableRecord
100
AcDbRegAppTableRecord
  2
ACAD
 70
     0
  0
ENDTAB
  0
TABLE
  2
DIMSTYLE
  5
A
330
0
100
AcDbSymbolTable
 70
     1
100
AcDbDimStyleTable
  0
DIMSTYLE
105
27
330
A
100
AcDbSymbolTableRecord
100
AcDbDimStyleTableRecord
  2
Standard
 70
     0
178
     0
340
11
  0
ENDTAB
  0
TABLE
  2
BLOCK_RECORD
  5
1
330
0
100
AcDbSymbolTable
 70
    10
  0
BLOCK_RECORD
  5
1F
330
1
100
AcDbSymbolTableRecord
100
AcDbBlockTableRecord
  2
*Model_Space
340
22
 70
     0
280
     1
281
     0
  0
BLOCK_RECORD
  5
1B
330
1
100
AcDbSymbolTableRecord
100
AcDbBlockTableRecord
  2
*Paper_Space
340
1E
 70
     0
280
     1
281
     0
  0
BLOCK_RECORD
  5
23
330
1
100
AcDbSymbolTableRecord
100
AcDbBlockTableRecord
  2
*Paper_Space0
340
26
 70
     0
280
     1
281
     0
  0
BLOCK_RECORD
  5
90
330
1
100
AcDbSymbolTableRecord
100
AcDbBlockTableRecord
  2
block 2
340
0
102
{BLKREFS
331
91
102
}
 70
     0
280
     1
281
     0
  0
BLOCK_RECORD
  5
A8
330
1
100
AcDbSymbolTableRecord
100
AcDbBlockTableRecord
  2
block 3
340
0
102
{BLKREFS
331
A9
102
}
 70
     0
280
     1
281
     0
  0
BLOCK_RECORD
  5
B8
330
1
100
AcDbSymbolTableRecord
100
AcDbBlockTableRecord
  2
block 4
340
0
102
{BLKREFS
331
B9
102
}
 70
     0
280
     1
281
     0
  0
BLOCK_RECORD
  5
CA
330
1
100
AcDbSymbolTableRecord
100
AcDbBlockTableRecord
  2
block 5
340
0
102
{BLKREFS
331
CB
102
}
 70
     0
280
     1
281
     0
  0
BLOCK_RECORD
  5
E7
330
1
100
AcDbSymbolTableRecord
100
AcDbBlockTableRecord
  2
block 6
340
0
102
{BLKREFS
331
E8
102
}
 70
     0
280
     1
281
     0
  0
BLOCK_RECORD
  5
F9
330
1
100
AcDbSymbolTableRecord
100
AcDbBlockTableRecord
  2
block 7
340
0
102
{BLKREFS
331
FA
102
}
 70
     0
280
     1
281
     0
  0
BLOCK_RECORD
  5
10E
330
1
100
AcDbSymbolTableRecord
100
AcDbBlockTableRecord
  2
block 8
340
0
102
{BLKREFS
331
10F
102
}
 70
     0
280
     1
281
     0
  0
BLOCK_RECORD
  5
120
330
1
100
AcDbSymbolTableRecord
100
AcDbBlockTableRecord
  2
block 9
340
0
102
{BLKREFS
331
121
102
}
 70
     0
280
     1
281
     0
  0
BLOCK_RECORD
  5
131
330
1
100
AcDbSymbolTableRecord
100
AcDbBlockTableRecord
  2
block 10
340
0
102
{BLKREFS
331
132
102
}
 70
     0
280
     1
281
     0
  0
ENDTAB
  0
ENDSEC
  0
SECTION
  2
BLOCKS
  0
BLOCK
  5
20
330
1F
100
AcDbEntity
  8
0
100
AcDbBlockBegin
  2
*Model_Space
 70
     0
 10
0.0
 20
0.0
 30
0.0
  3
*Model_Space
  1

  0
ENDBLK
  5
21
330
1F
100
AcDbEntity
  8
0
100
AcDbBlockEnd
  0
BLOCK
  5
1C
330
1B
100
AcDbEntity
 67
     1
  8
0
100
AcDbBlockBegin
  2
*Paper_Space
 70
     0
 10
0.0
 20
0.0
 30
0.0
  3
*Paper_Space
  1

  0
ENDBLK
  5
1D
330
1B
100
AcDbEntity
 67
     1
  8
0
100
AcDbBlockEnd
  0
BLOCK
  5
24
330
23
100
AcDbEntity
  8
0
100
AcDbBlockBegin
  2
*Paper_Space0
 70
     0
 10
0.0
 20
0.0
 30
0.0
  3
*Paper_Space0
  1

  0
ENDBLK
  5
25
330
23
100
AcDbEntity
  8
0
100
AcDbBlockEnd
  0
BLOCK
  5
92
330
90
100
AcDbEntity
  8
0
100
AcDbBlockBegin
  2
block 2
 70
     0
 10
0.0
 20
0.0
 30
0.0
  3
block 2
  1

  0
SPLINE
  5
94
330
90
100
AcDbEntity
  8
_U+30EC_U+30A4_U+30E4_U+30FC 1
370
     0
100
AcDbSpline
210
0.0
220
0.0
230
1.0
 70
    11
 71
     3
 72
    56
 73
    52
 74
     0
 42
0.0000000001
 43
0.0000000001
 12
1.0
 22
0.0
 32
0.0
 13
1.0
 23
0.0
 33
0.0
 40
0.0
 40
0.0
 40
0.0
 40
0.0
 40
1.0
 40
1.0
 40
1.0
 40
2.0
 40
2.0
 40
2.0
 40
3.0
 40
3.0
 40
3.0
 40
4.0
 40
4.0
 40
4.0
 40
5.0
 40
5.0
 40
5.0
 40
6.0
 40
6.0
 40
6.0
 40
7.0
 40
7.0
 40
7.0
 40
8.0
 40
8.0
 40
8.0
 40
9.0
 40
9.0
 40
9.0
 40
10.0
 40
10.0
 40
10.0
 40
11.0
 40
11.0
 40
11.0
 40
12.0
 40
12.0
 40
12.0
 40
13.0
 40
13.0
 40
13.0
 40
14.0
 40
14.0
 40
14.0
 40
15.0
 40
15.0
 40
15.0
 40
16.0
 40
16.0
 40
16.0
 40
17.0
 40
17.0
 40
17.0
 40
17.0
 10
89.12496471296181
 20
-159.1851155200996
 30
0.0
 10
88.9192925124924
 20
-158.8764349646212
 30
0.0
 10
88.64334036412389
 20
-158.6711072737003
 30
0.0
 10
88.54618867143985
 20
-158.6056504594805
 30
0.0
 10
88.23199596318506
 20
-158.9439588361321
 30
0.0
 10
87.9222818790611
 20
-159.0962320565801
 30
0.0
 10
87.70971948762119
 20
-159.1895941442304
 30
0.0
 10
87.70971948762119
 20
-159.1895941442304
 30
0.0
 10
87.5402207897469
 20
-159.0011474211872
 30
0.0
 10
87.5402207897469
 20
-159.0011474211872
 30
0.0
 10
87.65098060959768
 20
-158.9653184281406
 30
0.0
 10
87.87921818549547
 20
-158.8891818179166
 30
0.0
 10
88.12795407953051
 20
-158.7028021521646
 30
0.0
 10
88.41062416409527
 20
-158.4912732893702
 30
0.0
 10
88.60957842836844
 20
-158.2036078163519
 30
0.0
 10
88.7406643115822
 20
-157.8904486367427
 30
0.0
 10
88.7406643115822
 20
-157.8904486367427
 30
0.0
 10
88.33827715890502
 20
-157.8904486367427
 30
0.0
 10
88.33827715890502
 20
-157.8904486367427
 30
0.0
 10
88.17549639722696
 20
-157.8904486367427
 30
0.0
 10
87.95156519068573
 20
-157.8949272608735
 30
0.0
 10
87.79102374107308
 20
-157.9138752860424
 30
0.0
 10
87.79102374107308
 20
-157.9138752860424
 30
0.0
 10
87.79102374107308
 20
-157.702346423248
 30
0.0
 10
87.79102374107308
 20
-157.702346423248
 30
0.0
 10
87.86337074626333
 20
-157.7085475951215
 30
0.0
 10
88.14156220669726
 20
-157.7192273911258
 30
0.0
 10
88.23423527525047
 20
-157.7192273911258
 30
0.0
 10
88.23423527525047
 20
-157.7192273911258
 30
0.0
 10
88.56651473480282
 20
-157.7192273911258
 30
0.0
 10
88.56651473480282
 20
-157.7192273911258
 30
0.0
 10
88.78803437450438
 20
-157.7192273911258
 30
0.0
 10
88.81301131677245
 20
-157.7126817097038
 30
0.0
 10
88.83781600426624
 20
-157.7085475951215
 30
0.0
 10
88.8853583219627
 20
-157.702346423248
 30
0.0
 10
88.92601044868864
 20
-157.6768527166572
 30
0.0
 10
88.94857582411703
 20
-157.6599717487795
 30
0.0
 10
88.94857582411703
 20
-157.6599717487795
 30
0.0
 10
89.11600746470017
 20
-157.8332600516875
 30
0.0
 10
89.11600746470017
 20
-157.8332600516875
 30
0.0
 10
89.07294377113455
 20
-157.8608208155695
 30
0.0
 10
89.05950789874207
 20
-157.8715006115738
 30
0.0
 10
89.0074869569148
 20
-157.9073296046204
 30
0.0
 10
88.86951088273054
 20
-158.1550319700099
 30
0.0
 10
88.78355575037357
 20
-158.3052381331667
 30
0.0
 10
88.67279593052278
 20
-158.4513101817413
 30
0.0
 10
89.0074869569148
 20
-158.6690402164091
 30
0.0
 10
89.25157197204474
 20
-158.9546386321364
 30
0.0
 10
89.30807153800285
 20
-159.0328422996515
 30
0.0
 10
89.30807153800285
 20
-159.0328422996515
 30
0.0
 10
89.12496471296181
 20
-159.1851155200996
 30
0.0
 10
89.12496471296181
 20
-159.1851155200996
 30
0.0
  0
HATCH
  5
95
330
90
100
AcDbEntity
  8
_U+30EC_U+30A4_U+30E4_U+30FC 1
 62
   179
420
  2234388
100
AcDbHatch
 10
0.0
 20
0.0
 30
0.0
210
0.0
220
0.0
230
1.0
  2
SOLID
 70
     1
 71
     0
 91
        1
 92
        1
 93
        1
 72
     4
 94
        3
 73
     0
 74
     1
 95
       56
 96
       52
 40
0.0
 40
0.0
 40
0.0
 40
0.0
 40
1.0
 40
1.0
 40
1.0
 40
2.0
 40
2.0
 40
2.0
 40
3.0
 40
3.0
 40
3.0
 40
4.0
 40
4.0
 40
4.0
 40
5.0
 40
5.0
 40
5.0
 40
6.0
 40
6.0
 40
6.0
 40
7.0
 40
7.0
 40
7.0
 40
8.0
 40
8.0
 40
8.0
 40
9.0
 40
9.0
 40
9.0
 40
10.0
 40
10.0
 40
10.0
 40
11.0
 40
11.0
 40
11.0
 40
12.0
 40
12.0
 40
12.0
 40
13.0
 40
13.0
 40
13.0
 40
14.0
 40
14.0
 40
14.0
 40
15.0
 40
15.0
 40
15.0
 40
16.0
 40
16.0
 40
16.0
 40
17.0
 40
17.0
 40
17.0
 40
17.0
 10
89.12496471296181
 20
-159.1851155200996
 10
88.9192925124924
 20
-158.8764349646212
 10
88.64334036412389
 20
-158.6711072737003
 10
88.54618867143985
 20
-158.6056504594805
 10
88.23199596318506
 20
-158.9439588361321
 10
87.9222818790611
 20
-159.0962320565801
 10
87.70971948762119
 20
-159.1895941442304
 10
87.70971948762119
 20
-159.1895941442304
 10
87.5402207897469
 20
-159.0011474211872
 10
87.5402207897469
 20
-159.0011474211872
 10
87.65098060959768
 20
-158.9653184281406
 10
87.87921818549547
 20
-158.8891818179166
 10
88.12795407953051
 20
-158.7028021521646
 10
88.41062416409527
 20
-158.4912732893702
 10
88.60957842836844
 20
-158.2036078163519
 10
88.7406643115822
 20
-157.8904486367427
 10
88.7406643115822
 20
-157.8904486367427
 10
88.33827715890502
 20
-157.8904486367427
 10
88.33827715890502
 20
-157.8904486367427
 10
88.17549639722696
 20
-157.8904486367427
 10
87.95156519068573
 20
-157.8949272608735
 10
87.79102374107308
 20
-157.9138752860424
 10
87.79102374107308
 20
-157.9138752860424
 10
87.79102374107308
 20
-157.702346423248
 10
87.79102374107308
 20
-157.702346423248
 10
87.86337074626333
 20
-157.7085475951215
 10
88.14156220669726
 20
-157.7192273911258
 10
88.23423527525047
 20
-157.7192273911258
 10
88.23423527525047
 20
-157.7192273911258
 10
88.56651473480282
 20
-157.7192273911258
 10
88.56651473480282
 20
-157.7192273911258
 10
88.78803437450438
 20
-157.7192273911258
 10
88.81301131677245
 20
-157.7126817097038
 10
88.83781600426624
 20
-157.7085475951215
 10
88.8853583219627
 20
-157.702346423248
 10
88.92601044868864
 20
-157.6768527166572
 10
88.94857582411703
 20
-157.6599717487795
 10
88.94857582411703
 20
-157.6599717487795
 10
89.11600746470017
 20
-157.8332600516875
 10
89.11600746470017
 20
-157.8332600516875
 10
89.07294377113455
 20
-157.8608208155695
 10
89.05950789874207
 20
-157.8715006115738
 10
89.0074869569148
 20
-157.9073296046204
 10
88.86951088273054
 20
-158.1550319700099
 10
88.78355575037357
 20
-158.3052381331667
 10
88.67279593052278
 20
-158.4513101817413
 10
89.0074869569148
 20
-158.6690402164091
 10
89.25157197204474
 20
-158.9546386321364
 10
89.30807153800285
 20
-159.0328422996515
 10
89.30807153800285
 20
-159.0328422996515
 10
89.12496471296181
 20
-159.1851155200996
 10
89.12496471296181
 20
-159.1851155200996
 97
        0
 97
        0
 75
     2
 76
     1
 98
        0
  0
SPLINE
  5
96
330
90
100
AcDbEntity
  8
_U+30EC_U+30A4_U+30E4_U+30FC 1
370
     0
100
AcDbSpline
210
0.0
220
0.0
230
1.0
 70
    11
 71
     3
 72
    20
 73
    16
 74
     0
 42
0.0000000001
 43
0.0000000001
 12
1.0
 22
0.0
 32
0.0
 13
1.0
 23
0.0
 33
0.0
 40
0.0
 40
0.0
 40
0.0
 40
0.0
 40
1.0
 40
1.0
 40
1.0
 40
2.0
 40
2.0
 40
2.0
 40
3.0
 40
3.0
 40
3.0
 40
4.0
 40
4.0
 40
4.0
 40
5.0
 40
5.0
 40
5.0
 40
5.0
 10
90.03309188287368
 20
-158.3941215966862
 30
0.0
 10
89.96522350181425
 20
-158.3496798649265
 30
0.0
 10
89.93128931128454
 20
-158.3283202729179
 30
0.0
 10
89.78435598883864
 20
-158.2690646305716
 30
0.0
 10
89.62157522716058
 20
-158.2036078163519
 30
0.0
 10
89.57627222152955
 20
-158.1887939057653
 30
0.0
 10
89.52425127970227
 20
-158.1719129378876
 30
0.0
 10
89.52425127970227
 20
-158.1719129378876
 30
0.0
 10
89.62157522716058
 20
-157.9920789535576
 30
0.0
 10
89.62157522716058
 20
-157.9920789535576
 30
0.0
 10
89.68255341724951
 20
-158.0155056028572
 30
0.0
 10
89.96746281387966
 20
-158.1233370915456
 30
0.0
 10
90.13248288762313
 20
-158.2311685802339
 30
0.0
 10
90.13248288762313
 20
-158.2311685802339
 30
0.0
 10
90.03309188287368
 20
-158.3941215966862
 30
0.0
 10
90.03309188287368
 20
-158.3941215966862
 30
0.0
  0
SPLINE
  5
97
330
90
100
AcDbEntity
  8
_U+30EC_U+30A4_U+30E4_U+30FC 1
370
     0
100
AcDbSpline
210
0.0
220
0.0
230
1.0
 70
    11
 71
     3
 72
    26
 73
    22
 74
     0
 42
0.0000000001
 43
0.0000000001
 12
1.0
 22
0.0
 32
0.0
 13
1.0
 23
0.0
 33
0.0
 40
0.0
 40
0.0
 40
0.0
 40
0.0
 40
1.0
 40
1.0
 40
1.0
 40
2.0
 40
2.0
 40
2.0
 40
3.0
 40
3.0
 40
3.0
 40
4.0
 40
4.0
 40
4.0
 40
5.0
 40
5.0
 40
5.0
 40
6.0
 40
6.0
 40
6.0
 40
7.0
 40
7.0
 40
7.0
 40
7.0
 10
89.89735512075484
 20
-159.2488497865767
 30
0.0
 10
89.89511580868943
 20
-159.273998983619
 30
0.0
 10
89.8906371845586
 20
-159.3249863968007
 30
0.0
 10
89.84981280305838
 20
-159.3249863968007
 30
0.0
 10
89.84309486686215
 20
-159.3249863968007
 30
0.0
 10
89.82500811556459
 20
-159.3184407153787
 30
0.0
 10
89.81139998839785
 20
-159.3036268047921
 30
0.0
 10
89.81139998839785
 20
-159.3036268047921
 30
0.0
 10
89.64190129052356
 20
-159.0962320565801
 30
0.0
 10
89.64190129052356
 20
-159.0962320565801
 30
0.0
 10
89.76402992547567
 20
-159.0645371781158
 30
0.0
 10
90.00811494060561
 20
-159.0011474211872
 30
0.0
 10
90.4173922842533
 20
-158.694533923
 30
0.0
 10
90.74967174380564
 20
-158.4468315576105
 30
0.0
 10
90.91710338438878
 20
-158.2480495481116
 30
0.0
 10
91.0731662098706
 20
-158.0279079466041
 30
0.0
 10
91.0731662098706
 20
-158.0279079466041
 30
0.0
 10
91.21097002928059
 20
-158.2036078163519
 30
0.0
 10
91.21097002928059
 20
-158.2036078163519
 30
0.0
 10
90.88540850592449
 20
-158.6900552988692
 30
0.0
 10
90.20035126868255
 20
-159.1324055591752
 30
0.0
 10
89.89735512075484
 20
-159.2488497865767
 30
0.0
  0
SPLINE
  5
98
330
90
100
AcDbEntity
  8
_U+30EC_U+30A4_U+30E4_U+30FC 1
370
     0
100
AcDbSpline
210
0.0
220
0.0
230
1.0
 70
    11
 71
     3
 72
    17
 73
    13
 74
     0
 42
0.0000000001
 43
0.0000000001
 12
1.0
 22
0.0
 32
0.0
 13
1.0
 23
0.0
 33
0.0
 40
0.0
 40
0.0
 40
0.0
 40
0.0
 40
1.0
 40
1.0
 40
1.0
 40
2.0
 40
2.0
 40
2.0
 40
3.0
 40
3.0
 40
3.0
 40
4.0
 40
4.0
 40
4.0
 40
4.0
 10
90.28854571310495
 20
-157.8925156940338
 30
0.0
 10
90.13696151175395
 20
-157.778483033472
 30
0.0
 10
89.90872393585616
 20
-157.6937336845349
 30
0.0
 10
89.77074786167191
 20
-157.6558376341972
 30
0.0
 10
89.77074786167191
 20
-157.6558376341972
 30
0.0
 10
89.86342093022512
 20
-157.4801377644494
 30
0.0
 10
89.86342093022512
 20
-157.4801377644494
 30
0.0
 10
90.0623751944983
 20
-157.5542073173823
 30
0.0
 10
90.2410033954085
 20
-157.6410237236106
 30
0.0
 10
90.385697405789
 20
-157.7233615057081
 30
0.0
 10
90.385697405789
 20
-157.7233615057081
 30
0.0
 10
90.28854571310495
 20
-157.8925156940338
 30
0.0
 10
90.28854571310495
 20
-157.8925156940338
 30
0.0
  0
SPLINE
  5
99
330
90
100
AcDbEntity
  8
_U+30EC_U+30A4_U+30E4_U+30FC 1
370
     0
100
AcDbSpline
210
0.0
220
0.0
230
1.0
 70
    11
 71
     3
 72
    17
 73
    13
 74
     0
 42
0.0000000001
 43
0.0000000001
 12
1.0
 22
0.0
 32
0.0
 13
1.0
 23
0.0
 33
0.0
 40
0.0
 40
0.0
 40
0.0
 40
0.0
 40
1.0
 40
1.0
 40
1.0
 40
2.0
 40
2.0
 40
2.0
 40
3.0
 40
3.0
 40
3.0
 40
4.0
 40
4.0
 40
4.0
 40
4.0
 10
90.98945038957903
 20
-157.818446141101
 30
0.0
 10
90.93053925678126
 20
-157.7616020655943
 30
0.0
 10
90.86508244256152
 20
-157.702346423248
 30
0.0
 10
90.74295380760941
 20
-157.6303439276063
 30
0.0
 10
90.74295380760941
 20
-157.6303439276063
 30
0.0
 10
90.84475637919854
 20
-157.5266465535003
 30
0.0
 10
90.84475637919854
 20
-157.5266465535003
 30
0.0
 10
90.9284721994901
 20
-157.5690212279689
 30
0.0
 10
91.03905976456663
 20
-157.6282768703151
 30
0.0
 10
91.10244952149523
 20
-157.7106146524126
 30
0.0
 10
91.10244952149523
 20
-157.7106146524126
 30
0.0
 10
90.98945038957903
 20
-157.818446141101
 30
0.0
 10
90.98945038957903
 20
-157.818446141101
 30
0.0
  0
SPLINE
  5
9A
330
90
100
AcDbEntity
  8
_U+30EC_U+30A4_U+30E4_U+30FC 1
370
     0
100
AcDbSpline
210
0.0
220
0.0
230
1.0
 70
    11
 71
     3
 72
    17
 73
    13
 74
     0
 42
0.0000000001
 43
0.0000000001
 12
1.0
 22
0.0
 32
0.0
 13
1.0
 23
0.0
 33
0.0
 40
0.0
 40
0.0
 40
0.0
 40
0.0
 40
1.0
 40
1.0
 40
1.0
 40
2.0
 40
2.0
 40
2.0
 40
3.0
 40
3.0
 40
3.0
 40
4.0
 40
4.0
 40
4.0
 40
4.0
 10
91.23129609264357
 20
-157.6641058633618
 30
0.0
 10
91.21097002928059
 20
-157.647224895484
 30
0.0
 10
90.99151744687018
 20
-157.4908175604537
 30
0.0
 10
90.96223413524555
 20
-157.4715250257363
 30
0.0
 10
90.96223413524555
 20
-157.4715250257363
 30
0.0
 10
91.07764483400143
 20
-157.3616264797568
 30
0.0
 10
91.07764483400143
 20
-157.3616264797568
 30
0.0
 10
91.19512259004844
 20
-157.4377630899808
 30
0.0
 10
91.20855846244092
 20
-157.4484428859851
 30
0.0
 10
91.34429522455976
 20
-157.5542073173823
 30
0.0
 10
91.34429522455976
 20
-157.5542073173823
 30
0.0
 10
91.23129609264357
 20
-157.6641058633618
 30
0.0
 10
91.23129609264357
 20
-157.6641058633618
 30
0.0
  0
HATCH
  5
9B
330
90
100
AcDbEntity
  8
_U+30EC_U+30A4_U+30E4_U+30FC 1
 62
   179
420
  2234388
100
AcDbHatch
 10
0.0
 20
0.0
 30
0.0
210
0.0
220
0.0
230
1.0
  2
SOLID
 70
     1
 71
     0
 91
        5
 92
        1
 93
        1
 72
     4
 94
        3
 73
     0
 74
     1
 95
       20
 96
       16
 40
0.0
 40
0.0
 40
0.0
 40
0.0
 40
1.0
 40
1.0
 40
1.0
 40
2.0
 40
2.0
 40
2.0
 40
3.0
 40
3.0
 40
3.0
 40
4.0
 40
4.0
 40
4.0
 40
5.0
 40
5.0
 40
5.0
 40
5.0
 10
90.03309188287368
 20
-158.3941215966862
 10
89.96522350181425
 20
-158.3496798649265
 10
89.93128931128454
 20
-158.3283202729179
 10
89.78435598883864
 20
-158.2690646305716
 10
89.62157522716058
 20
-158.2036078163519
 10
89.57627222152955
 20
-158.1887939057653
 10
89.52425127970227
 20
-158.1719129378876
 10
89.52425127970227
 20
-158.1719129378876
 10
89.62157522716058
 20
-157.9920789535576
 10
89.62157522716058
 20
-157.9920789535576
 10
89.68255341724951
 20
-158.0155056028572
 10
89.96746281387966
 20
-158.1233370915456
 10
90.13248288762313
 20
-158.2311685802339
 10
90.13248288762313
 20
-158.2311685802339
 10
90.03309188287368
 20
-158.3941215966862
 10
90.03309188287368
 20
-158.3941215966862
 97
        0
 97
        0
 92
        1
 93
        1
 72
     4
 94
        3
 73
     0
 74
     1
 95
       26
 96
       22
 40
0.0
 40
0.0
 40
0.0
 40
0.0
 40
1.0
 40
1.0
 40
1.0
 40
2.0
 40
2.0
 40
2.0
 40
3.0
 40
3.0
 40
3.0
 40
4.0
 40
4.0
 40
4.0
 40
5.0
 40
5.0
 40
5.0
 40
6.0
 40
6.0
 40
6.0
 40
7.0
 40
7.0
 40
7.0
 40
7.0
 10
89.89735512075484
 20
-159.2488497865767
 10
89.89511580868943
 20
-159.273998983619
 10
89.8906371845586
 20
-159.3249863968007
 10
89.84981280305838
 20
-159.3249863968007
 10
89.84309486686215
 20
-159.3249863968007
 10
89.82500811556459
 20
-159.3184407153787
 10
89.81139998839785
 20
-159.3036268047921
 10
89.81139998839785
 20
-159.3036268047921
 10
89.64190129052356
 20
-159.0962320565801
 10
89.64190129052356
 20
-159.0962320565801
 10
89.76402992547567
 20
-159.0645371781158
 10
90.00811494060561
 20
-159.0011474211872
 10
90.4173922842533
 20
-158.694533923
 10
90.74967174380564
 20
-158.4468315576105
 10
90.91710338438878
 20
-158.2480495481116
 10
91.0731662098706
 20
-158.0279079466041
 10
91.0731662098706
 20
-158.0279079466041
 10
91.21097002928059
 20
-158.2036078163519
 10
91.21097002928059
 20
-158.2036078163519
 10
90.88540850592449
 20
-158.6900552988692
 10
90.20035126868255
 20
-159.1324055591752
 10
89.89735512075484
 20
-159.2488497865767
 97
        0
 97
        0
 92
        1
 93
        1
 72
     4
 94
        3
 73
     0
 74
     1
 95
       17
 96
       13
 40
0.0
 40
0.0
 40
0.0
 40
0.0
 40
1.0
 40
1.0
 40
1.0
 40
2.0
 40
2.0
 40
2.0
 40
3.0
 40
3.0
 40
3.0
 40
4.0
 40
4.0
 40
4.0
 40
4.0
 10
90.28854571310495
 20
-157.8925156940338
 10
90.13696151175395
 20
-157.778483033472
 10
89.90872393585616
 20
-157.6937336845349
 10
89.77074786167191
 20
-157.6558376341972
 10
89.77074786167191
 20
-157.6558376341972
 10
89.86342093022512
 20
-157.4801377644494
 10
89.86342093022512
 20
-157.4801377644494
 10
90.0623751944983
 20
-157.5542073173823
 10
90.2410033954085
 20
-157.6410237236106
 10
90.385697405789
 20
-157.7233615057081
 10
90.385697405789
 20
-157.7233615057081
 10
90.28854571310495
 20
-157.8925156940338
 10
90.28854571310495
 20
-157.8925156940338
 97
        0
 97
        0
 92
        1
 93
        1
 72
     4
 94
        3
 73
     0
 74
     1
 95
       17
 96
       13
 40
0.0
 40
0.0
 40
0.0
 40
0.0
 40
1.0
 40
1.0
 40
1.0
 40
2.0
 40
2.0
 40
2.0
 40
3.0
 40
3.0
 40
3.0
 40
4.0
 40
4.0
 40
4.0
 40
4.0
 10
90.98945038957903
 20
-157.818446141101
 10
90.93053925678126
 20
-157.7616020655943
 10
90.86508244256152
 20
-157.702346423248
 10
90.74295380760941
 20
-157.6303439276063
 10
90.74295380760941
 20
-157.6303439276063
 10
90.84475637919854
 20
-157.5266465535003
 10
90.84475637919854
 20
-157.5266465535003
 10
90.9284721994901
 20
-157.5690212279689
 10
91.03905976456663
 20
-157.6282768703151
 10
91.10244952149523
 20
-157.7106146524126
 10
91.10244952149523
 20
-157.7106146524126
 10
90.98945038957903
 20
-157.818446141101
 10
90.98945038957903
 20
-157.818446141101
 97
        0
 97
        0
 92
        1
 93
        1
 72
     4
 94
        3
 73
     0
 74
     1
 95
       17
 96
       13
 40
0.0
 40
0.0
 40
0.0
 40
0.0
 40
1.0
 40
1.0
 40
1.0
 40
2.0
 40
2.0
 40
2.0
 40
3.0
 40
3.0
 40
3.0
 40
4.0
 40
4.0
 40
4.0
 40
4.0
 10
91.23129609264357
 20
-157.6641058633618
 10
91.21097002928059
 20
-157.647224895484
 10
90.99151744687018
 20
-157.4908175604537
 10
90.96223413524555
 20
-157.4715250257363
 10
90.96223413524555
 20
-157.4715250257363
 10
91.07764483400143
 20
-157.3616264797568
 10
91.07764483400143
 20
-157.3616264797568
 10
91.19512259004844
 20
-157.4377630899808
 10
91.20855846244092
 20
-157.4484428859851
 10
91.34429522455976
 20
-157.5542073173823
 10
91.34429522455976
 20
-157.5542073173823
 10
91.23129609264357
 20
-157.6641058633618
 10
91.23129609264357
 20
-157.6641058633618
 97
        0
 97
        0
 75
     2
 76
     1
 98
        0
  0
ENDBLK
  5
93
330
90
100
AcDbEntity
  8
0
100
AcDbBlockEnd
  0
BLOCK
  5
AA
330
A8
100
AcDbEntity
  8
0
100
AcDbBlockBegin
  2
block 3
 70
     0
 10
0.0
 20
0.0
 30
0.0
  3
block 3
  1

  0
SPLINE
  5
AC
330
A8
100
AcDbEntity
  8
_U+30EC_U+30A4_U+30E4_U+30FC 1
370
     0
100
AcDbSpline
210
0.0
220
0.0
230
1.0
 70
    11
 71
     3
 72
    44
 73
    40
 74
     0
 42
0.0000000001
 43
0.0000000001
 12
1.0
 22
0.0
 32
0.0
 13
1.0
 23
0.0
 33
0.0
 40
0.0
 40
0.0
 40
0.0
 40
0.0
 40
1.0
 40
1.0
 40
1.0
 40
2.0
 40
2.0
 40
2.0
 40
3.0
 40
3.0
 40
3.0
 40
4.0
 40
4.0
 40
4.0
 40
5.0
 40
5.0
 40
5.0
 40
6.0
 40
6.0
 40
6.0
 40
7.0
 40
7.0
 40
7.0
 40
8.0
 40
8.0
 40
8.0
 40
9.0
 40
9.0
 40
9.0
 40
10.0
 40
10.0
 40
10.0
 40
11.0
 40
11.0
 40
11.0
 40
12.0
 40
12.0
 40
12.0
 40
13.0
 40
13.0
 40
13.0
 40
13.0
 10
105.3124348695052
 20
-136.0340738592207
 30
0.0
 10
105.0795464147023
 20
-136.1928927610907
 30
0.0
 10
104.9799831551786
 20
-136.2669623140235
 30
0.0
 10
104.9283067228999
 20
-136.4106227957585
 30
0.0
 10
104.9283067228999
 20
-136.4106227957585
 30
0.0
 10
105.7599527730392
 20
-136.4106227957585
 30
0.0
 10
105.7599527730392
 20
-136.4106227957585
 30
0.0
 10
105.7599527730392
 20
-136.4106227957585
 30
0.0
 10
105.7599527730392
 20
-136.6159504866793
 30
0.0
 10
105.7599527730392
 20
-136.6159504866793
 30
0.0
 10
105.7599527730392
 20
-136.6159504866793
 30
0.0
 10
104.661311822793
 20
-136.6159504866793
 30
0.0
 10
104.661311822793
 20
-136.6159504866793
 30
0.0
 10
104.695418268097
 20
-136.2583495753104
 30
0.0
 10
104.7653537064476
 20
-136.1801459077952
 30
0.0
 10
105.1766981073864
 20
-135.8818006387726
 30
0.0
 10
105.4502386889152
 20
-135.6830186292737
 30
0.0
 10
105.5205186368143
 20
-135.6151502482143
 30
0.0
 10
105.5205186368143
 20
-135.4776909383528
 30
0.0
 10
105.5205186368143
 20
-135.3591796536602
 30
0.0
 10
105.4436930074933
 20
-135.2282660252207
 30
0.0
 10
105.2331976733445
 20
-135.2282660252207
 30
0.0
 10
104.9551784676848
 20
-135.2282660252207
 30
0.0
 10
104.9462212194232
 20
-135.4587429131839
 30
0.0
 10
104.9417425952924
 20
-135.5751871405854
 30
0.0
 10
104.9417425952924
 20
-135.5751871405854
 30
0.0
 10
104.701963949519
 20
-135.5751871405854
 30
0.0
 10
104.701963949519
 20
-135.5751871405854
 30
0.0
 10
104.7112657073291
 20
-135.4480631171797
 30
0.0
 10
104.7222900128819
 20
-135.336097513909
 30
0.0
 10
104.8084174000132
 20
-135.2175862292164
 30
0.0
 10
104.9258951560602
 20
-135.0567002700553
 30
0.0
 10
105.1246771655591
 20
-135.0229383342998
 30
0.0
 10
105.2490451125766
 20
-135.0229383342998
 30
0.0
 10
105.5453233243081
 20
-135.0229383342998
 30
0.0
 10
105.7668429640097
 20
-135.2069064332122
 30
0.0
 10
105.7668429640097
 20
-135.479757995644
 30
0.0
 10
105.7668429640097
 20
-135.7085123358646
 30
0.0
 10
105.6424750169922
 20
-135.8077310858397
 30
0.0
 10
105.3124348695052
 20
-136.0340738592207
 30
0.0
  0
HATCH
  5
AD
330
A8
100
AcDbEntity
  8
_U+30EC_U+30A4_U+30E4_U+30FC 1
 62
   179
420
  2234388
100
AcDbHatch
 10
0.0
 20
0.0
 30
0.0
210
0.0
220
0.0
230
1.0
  2
SOLID
 70
     1
 71
     0
 91
        1
 92
        1
 93
        1
 72
     4
 94
        3
 73
     0
 74
     1
 95
       44
 96
       40
 40
0.0
 40
0.0
 40
0.0
 40
0.0
 40
1.0
 40
1.0
 40
1.0
 40
2.0
 40
2.0
 40
2.0
 40
3.0
 40
3.0
 40
3.0
 40
4.0
 40
4.0
 40
4.0
 40
5.0
 40
5.0
 40
5.0
 40
6.0
 40
6.0
 40
6.0
 40
7.0
 40
7.0
 40
7.0
 40
8.0
 40
8.0
 40
8.0
 40
9.0
 40
9.0
 40
9.0
 40
10.0
 40
10.0
 40
10.0
 40
11.0
 40
11.0
 40
11.0
 40
12.0
 40
12.0
 40
12.0
 40
13.0
 40
13.0
 40
13.0
 40
13.0
 10
105.3124348695052
 20
-136.0340738592207
 10
105.0795464147023
 20
-136.1928927610907
 10
104.9799831551786
 20
-136.2669623140235
 10
104.9283067228999
 20
-136.4106227957585
 10
104.9283067228999
 20
-136.4106227957585
 10
105.7599527730392
 20
-136.4106227957585
 10
105.7599527730392
 20
-136.4106227957585
 10
105.7599527730392
 20
-136.4106227957585
 10
105.7599527730392
 20
-136.6159504866793
 10
105.7599527730392
 20
-136.6159504866793
 10
105.7599527730392
 20
-136.6159504866793
 10
104.661311822793
 20
-136.6159504866793
 10
104.661311822793
 20
-136.6159504866793
 10
104.695418268097
 20
-136.2583495753104
 10
104.7653537064476
 20
-136.1801459077952
 10
105.1766981073864
 20
-135.8818006387726
 10
105.4502386889152
 20
-135.6830186292737
 10
105.5205186368143
 20
-135.6151502482143
 10
105.5205186368143
 20
-135.4776909383528
 10
105.5205186368143
 20
-135.3591796536602
 10
105.4436930074933
 20
-135.2282660252207
 10
105.2331976733445
 20
-135.2282660252207
 10
104.9551784676848
 20
-135.2282660252207
 10
104.9462212194232
 20
-135.4587429131839
 10
104.9417425952924
 20
-135.5751871405854
 10
104.9417425952924
 20
-135.5751871405854
 10
104.701963949519
 20
-135.5751871405854
 10
104.701963949519
 20
-135.5751871405854
 10
104.7112657073291
 20
-135.4480631171797
 10
104.7222900128819
 20
-135.336097513909
 10
104.8084174000132
 20
-135.2175862292164
 10
104.9258951560602
 20
-135.0567002700553
 10
105.1246771655591
 20
-135.0229383342998
 10
105.2490451125766
 20
-135.0229383342998
 10
105.5453233243081
 20
-135.0229383342998
 10
105.7668429640097
 20
-135.2069064332122
 10
105.7668429640097
 20
-135.479757995644
 10
105.7668429640097
 20
-135.7085123358646
 10
105.6424750169922
 20
-135.8077310858397
 10
105.3124348695052
 20
-136.0340738592207
 97
        0
 97
        0
 75
     2
 76
     1
 98
        0
  0
SPLINE
  5
AE
330
A8
100
AcDbEntity
  8
_U+30EC_U+30A4_U+30E4_U+30FC 1
370
     0
100
AcDbSpline
210
0.0
220
0.0
230
1.0
 70
    11
 71
     3
 72
    53
 73
    49
 74
     0
 42
0.0000000001
 43
0.0000000001
 12
1.0
 22
0.0
 32
0.0
 13
1.0
 23
0.0
 33
0.0
 40
0.0
 40
0.0
 40
0.0
 40
0.0
 40
1.0
 40
1.0
 40
1.0
 40
2.0
 40
2.0
 40
2.0
 40
3.0
 40
3.0
 40
3.0
 40
4.0
 40
4.0
 40
4.0
 40
5.0
 40
5.0
 40
5.0
 40
6.0
 40
6.0
 40
6.0
 40
7.0
 40
7.0
 40
7.0
 40
8.0
 40
8.0
 40
8.0
 40
9.0
 40
9.0
 40
9.0
 40
10.0
 40
10.0
 40
10.0
 40
11.0
 40
11.0
 40
11.0
 40
12.0
 40
12.0
 40
12.0
 40
13.0
 40
13.0
 40
13.0
 40
14.0
 40
14.0
 40
14.0
 40
15.0
 40
15.0
 40
15.0
 40
16.0
 40
16.0
 40
16.0
 40
16.0
 10
106.4503499082833
 20
-136.6665933903125
 30
0.0
 10
106.3669785975402
 20
-136.6665933903125
 30
0.0
 10
106.2581135802063
 20
-136.6497124224348
 30
0.0
 10
106.1499375819695
 20
-136.5863226655062
 30
0.0
 10
105.9642469353145
 20
-136.4764241195267
 30
0.0
 10
105.9418538146604
 20
-136.3451659815387
 30
0.0
 10
105.9215277512974
 20
-136.2373344928504
 30
0.0
 10
105.9215277512974
 20
-136.2373344928504
 30
0.0
 10
106.1588948302311
 20
-136.2373344928504
 30
0.0
 10
106.1588948302311
 20
-136.2373344928504
 30
0.0
 10
106.2174614534804
 20
-136.4361165023493
 30
0.0
 10
106.3531982155992
 20
-136.4657443235225
 30
0.0
 10
106.4527614751229
 20
-136.4657443235225
 30
0.0
 10
106.6019341096342
 20
-136.4657443235225
 30
0.0
 10
106.764542616538
 20
-136.3661810639987
 30
0.0
 10
106.764542616538
 20
-136.1336371187444
 30
0.0
 10
106.764542616538
 20
-135.8776665241903
 30
0.0
 10
106.5726507980096
 20
-135.8077310858397
 30
0.0
 10
106.4438042268613
 20
-135.8077310858397
 30
0.0
 10
106.4096977815573
 20
-135.8077310858397
 30
0.0
 10
106.2581135802063
 20
-135.8077310858397
 30
0.0
 10
106.1633734543619
 20
-135.9369221665366
 30
0.0
 10
106.1633734543619
 20
-135.9369221665366
 30
0.0
 10
105.9756157504158
 20
-135.9179741413677
 30
0.0
 10
105.9756157504158
 20
-135.9179741413677
 30
0.0
 10
105.9756157504158
 20
-135.9179741413677
 30
0.0
 10
106.1044623215642
 20
-135.0715141806419
 30
0.0
 10
106.1044623215642
 20
-135.0715141806419
 30
0.0
 10
106.1044623215642
 20
-135.0715141806419
 30
0.0
 10
106.936452881252
 20
-135.0715141806419
 30
0.0
 10
106.936452881252
 20
-135.0715141806419
 30
0.0
 10
106.936452881252
 20
-135.0715141806419
 30
0.0
 10
106.936452881252
 20
-135.2661620755585
 30
0.0
 10
106.936452881252
 20
-135.2661620755585
 30
0.0
 10
106.936452881252
 20
-135.2661620755585
 30
0.0
 10
106.2787841531178
 20
-135.2661620755585
 30
0.0
 10
106.2787841531178
 20
-135.2661620755585
 30
0.0
 10
106.2787841531178
 20
-135.2661620755585
 30
0.0
 10
106.2085042052187
 20
-135.6892198011471
 30
0.0
 10
106.2085042052187
 20
-135.6892198011471
 30
0.0
 10
106.2739610194385
 20
-135.6554578653917
 30
0.0
 10
106.3621554638609
 20
-135.6151502482143
 30
0.0
 10
106.488934977718
 20
-135.6151502482143
 30
0.0
 10
106.7600639924072
 20
-135.6151502482143
 30
0.0
 10
107.0132785105731
 20
-135.8015299139663
 30
0.0
 10
107.0132785105731
 20
-136.1146890935755
 30
0.0
 10
107.0132785105731
 20
-136.431982387767
 30
0.0
 10
106.7738443743482
 20
-136.6665933903125
 30
0.0
 10
106.4503499082833
 20
-136.6665933903125
 30
0.0
  0
HATCH
  5
AF
330
A8
100
AcDbEntity
  8
_U+30EC_U+30A4_U+30E4_U+30FC 1
 62
   179
420
  2234388
100
AcDbHatch
 10
0.0
 20
0.0
 30
0.0
210
0.0
220
0.0
230
1.0
  2
SOLID
 70
     1
 71
     0
 91
        1
 92
        1
 93
        1
 72
     4
 94
        3
 73
     0
 74
     1
 95
       53
 96
       49
 40
0.0
 40
0.0
 40
0.0
 40
0.0
 40
1.0
 40
1.0
 40
1.0
 40
2.0
 40
2.0
 40
2.0
 40
3.0
 40
3.0
 40
3.0
 40
4.0
 40
4.0
 40
4.0
 40
5.0
 40
5.0
 40
5.0
 40
6.0
 40
6.0
 40
6.0
 40
7.0
 40
7.0
 40
7.0
 40
8.0
 40
8.0
 40
8.0
 40
9.0
 40
9.0
 40
9.0
 40
10.0
 40
10.0
 40
10.0
 40
11.0
 40
11.0
 40
11.0
 40
12.0
 40
12.0
 40
12.0
 40
13.0
 40
13.0
 40
13.0
 40
14.0
 40
14.0
 40
14.0
 40
15.0
 40
15.0
 40
15.0
 40
16.0
 40
16.0
 40
16.0
 40
16.0
 10
106.4503499082833
 20
-136.6665933903125
 10
106.3669785975402
 20
-136.6665933903125
 10
106.2581135802063
 20
-136.6497124224348
 10
106.1499375819695
 20
-136.5863226655062
 10
105.9642469353145
 20
-136.4764241195267
 10
105.9418538146604
 20
-136.3451659815387
 10
105.9215277512974
 20
-136.2373344928504
 10
105.9215277512974
 20
-136.2373344928504
 10
106.1588948302311
 20
-136.2373344928504
 10
106.1588948302311
 20
-136.2373344928504
 10
106.2174614534804
 20
-136.4361165023493
 10
106.3531982155992
 20
-136.4657443235225
 10
106.4527614751229
 20
-136.4657443235225
 10
106.6019341096342
 20
-136.4657443235225
 10
106.764542616538
 20
-136.3661810639987
 10
106.764542616538
 20
-136.1336371187444
 10
106.764542616538
 20
-135.8776665241903
 10
106.5726507980096
 20
-135.8077310858397
 10
106.4438042268613
 20
-135.8077310858397
 10
106.4096977815573
 20
-135.8077310858397
 10
106.2581135802063
 20
-135.8077310858397
 10
106.1633734543619
 20
-135.9369221665366
 10
106.1633734543619
 20
-135.9369221665366
 10
105.9756157504158
 20
-135.9179741413677
 10
105.9756157504158
 20
-135.9179741413677
 10
105.9756157504158
 20
-135.9179741413677
 10
106.1044623215642
 20
-135.0715141806419
 10
106.1044623215642
 20
-135.0715141806419
 10
106.1044623215642
 20
-135.0715141806419
 10
106.936452881252
 20
-135.0715141806419
 10
106.936452881252
 20
-135.0715141806419
 10
106.936452881252
 20
-135.0715141806419
 10
106.936452881252
 20
-135.2661620755585
 10
106.936452881252
 20
-135.2661620755585
 10
106.936452881252
 20
-135.2661620755585
 10
106.2787841531178
 20
-135.2661620755585
 10
106.2787841531178
 20
-135.2661620755585
 10
106.2787841531178
 20
-135.2661620755585
 10
106.2085042052187
 20
-135.6892198011471
 10
106.2085042052187
 20
-135.6892198011471
 10
106.2739610194385
 20
-135.6554578653917
 10
106.3621554638609
 20
-135.6151502482143
 10
106.488934977718
 20
-135.6151502482143
 10
106.7600639924072
 20
-135.6151502482143
 10
107.0132785105731
 20
-135.8015299139663
 10
107.0132785105731
 20
-136.1146890935755
 10
107.0132785105731
 20
-136.431982387767
 10
106.7738443743482
 20
-136.6665933903125
 10
106.4503499082833
 20
-136.6665933903125
 97
        0
 97
        0
 75
     2
 76
     1
 98
        0
  0
ENDBLK
  5
AB
330
A8
100
AcDbEntity
  8
0
100
AcDbBlockEnd
  0
BLOCK
  5
BA
330
B8
100
AcDbEntity
  8
0
100
AcDbBlockBegin
  2
block 4
 70
     0
 10
0.0
 20
0.0
 30
0.0
  3
block 4
  1

  0
SPLINE
  5
BC
330
B8
100
AcDbEntity
  8
_U+30EC_U+30A4_U+30E4_U+30FC 1
370
     0
100
AcDbSpline
210
0.0
220
0.0
230
1.0
 70
    11
 71
     3
 72
    26
 73
    22
 74
     0
 42
0.0000000001
 43
0.0000000001
 12
1.0
 22
0.0
 32
0.0
 13
1.0
 23
0.0
 33
0.0
 40
0.0
 40
0.0
 40
0.0
 40
0.0
 40
1.0
 40
1.0
 40
1.0
 40
2.0
 40
2.0
 40
2.0
 40
3.0
 40
3.0
 40
3.0
 40
4.0
 40
4.0
 40
4.0
 40
5.0
 40
5.0
 40
5.0
 40
6.0
 40
6.0
 40
6.0
 40
7.0
 40
7.0
 40
7.0
 40
7.0
 10
92.82740883095983
 20
-136.6162949962279
 30
0.0
 10
92.82740883095983
 20
-136.6162949962279
 30
0.0
 10
92.82740883095983
 20
-135.5119696384311
 30
0.0
 10
92.82740883095983
 20
-135.5119696384311
 30
0.0
 10
92.82740883095983
 20
-135.5119696384311
 30
0.0
 10
92.47463105327023
 20
-135.5119696384311
 30
0.0
 10
92.47463105327023
 20
-135.5119696384311
 30
0.0
 10
92.47463105327023
 20
-135.5119696384311
 30
0.0
 10
92.47463105327023
 20
-135.3640027873396
 30
0.0
 10
92.47463105327023
 20
-135.3640027873396
 30
0.0
 10
92.82964814302522
 20
-135.349188876753
 30
0.0
 10
92.87942977278709
 20
-135.1862358603007
 30
0.0
 10
92.91112465125138
 20
-135.0720309449646
 30
0.0
 10
92.91112465125138
 20
-135.0720309449646
 30
0.0
 10
93.06701522195894
 20
-135.0720309449646
 30
0.0
 10
93.06701522195894
 20
-135.0720309449646
 30
0.0
 10
93.06701522195894
 20
-135.0720309449646
 30
0.0
 10
93.06701522195894
 20
-136.6162949962279
 30
0.0
 10
93.06701522195894
 20
-136.6162949962279
 30
0.0
 10
93.06701522195894
 20
-136.6162949962279
 30
0.0
 10
92.82740883095983
 20
-136.6162949962279
 30
0.0
 10
92.82740883095983
 20
-136.6162949962279
 30
0.0
  0
HATCH
  5
BD
330
B8
100
AcDbEntity
  8
_U+30EC_U+30A4_U+30E4_U+30FC 1
 62
   179
420
  2234388
100
AcDbHatch
 10
0.0
 20
0.0
 30
0.0
210
0.0
220
0.0
230
1.0
  2
SOLID
 70
     1
 71
     0
 91
        1
 92
        1
 93
        1
 72
     4
 94
        3
 73
     0
 74
     1
 95
       26
 96
       22
 40
0.0
 40
0.0
 40
0.0
 40
0.0
 40
1.0
 40
1.0
 40
1.0
 40
2.0
 40
2.0
 40
2.0
 40
3.0
 40
3.0
 40
3.0
 40
4.0
 40
4.0
 40
4.0
 40
5.0
 40
5.0
 40
5.0
 40
6.0
 40
6.0
 40
6.0
 40
7.0
 40
7.0
 40
7.0
 40
7.0
 10
92.82740883095983
 20
-136.6162949962279
 10
92.82740883095983
 20
-136.6162949962279
 10
92.82740883095983
 20
-135.5119696384311
 10
92.82740883095983
 20
-135.5119696384311
 10
92.82740883095983
 20
-135.5119696384311
 10
92.47463105327023
 20
-135.5119696384311
 10
92.47463105327023
 20
-135.5119696384311
 10
92.47463105327023
 20
-135.5119696384311
 10
92.47463105327023
 20
-135.3640027873396
 10
92.47463105327023
 20
-135.3640027873396
 10
92.82964814302522
 20
-135.349188876753
 10
92.87942977278709
 20
-135.1862358603007
 10
92.91112465125138
 20
-135.0720309449646
 10
92.91112465125138
 20
-135.0720309449646
 10
93.06701522195894
 20
-135.0720309449646
 10
93.06701522195894
 20
-135.0720309449646
 10
93.06701522195894
 20
-135.0720309449646
 10
93.06701522195894
 20
-136.6162949962279
 10
93.06701522195894
 20
-136.6162949962279
 10
93.06701522195894
 20
-136.6162949962279
 10
92.82740883095983
 20
-136.6162949962279
 10
92.82740883095983
 20
-136.6162949962279
 97
        0
 97
        0
 75
     2
 76
     1
 98
        0
  0
ENDBLK
  5
BB
330
B8
100
AcDbEntity
  8
0
100
AcDbBlockEnd
  0
BLOCK
  5
CC
330
CA
100
AcDbEntity
  8
0
100
AcDbBlockBegin
  2
block 5
 70
     0
 10
0.0
 20
0.0
 30
0.0
  3
block 5
  1

  0
SPLINE
  5
CE
330
CA
100
AcDbEntity
  8
_U+30EC_U+30A4_U+30E4_U+30FC 1
370
     0
100
AcDbSpline
210
0.0
220
0.0
230
1.0
 70
    11
 71
     3
 72
    29
 73
    25
 74
     0
 42
0.0000000001
 43
0.0000000001
 12
1.0
 22
0.0
 32
0.0
 13
1.0
 23
0.0
 33
0.0
 40
0.0
 40
0.0
 40
0.0
 40
0.0
 40
1.0
 40
1.0
 40
1.0
 40
2.0
 40
2.0
 40
2.0
 40
3.0
 40
3.0
 40
3.0
 40
4.0
 40
4.0
 40
4.0
 40
5.0
 40
5.0
 40
5.0
 40
6.0
 40
6.0
 40
6.0
 40
7.0
 40
7.0
 40
7.0
 40
8.0
 40
8.0
 40
8.0
 40
8.0
 10
105.5628933112829
 20
-149.4565103793026
 30
0.0
 10
105.7723551167861
 20
-149.5719210780584
 30
0.0
 10
105.791303141955
 20
-149.7572672151649
 30
0.0
 10
105.791303141955
 20
-149.8816351621824
 30
0.0
 10
105.791303141955
 20
-150.0532009173478
 30
0.0
 10
105.7447943529041
 20
-150.2047851186988
 30
0.0
 10
105.5628933112829
 20
-150.3064154355137
 30
0.0
 10
105.3682454163663
 20
-150.4173475101387
 30
0.0
 10
105.1315673565296
 20
-150.4376735735017
 30
0.0
 10
104.9686143400773
 20
-150.4376735735017
 30
0.0
 10
104.8246093487939
 20
-150.4376735735017
 30
0.0
 10
104.5727728688221
 20
-150.4197590769784
 30
0.0
 10
104.3739908593232
 20
-150.3064154355137
 30
0.0
 10
104.171074735242
 20
-150.1913492463063
 30
0.0
 10
104.1476480859423
 20
-150.0194389815924
 30
0.0
 10
104.1476480859423
 20
-149.8816351621824
 30
0.0
 10
104.1476480859423
 20
-149.7117919547595
 30
0.0
 10
104.192089817702
 20
-149.5581406961174
 30
0.0
 10
104.3739908593232
 20
-149.4565103793026
 30
0.0
 10
104.5665716969486
 20
-149.3500569288083
 30
0.0
 10
104.7949815276207
 20
-149.3252522413145
 30
0.0
 10
104.9686143400773
 20
-149.3252522413145
 30
0.0
 10
105.1398355856942
 20
-149.3252522413145
 30
0.0
 10
105.3703124736574
 20
-149.3479898715172
 30
0.0
 10
105.5628933112829
 20
-149.4565103793026
 30
0.0
  0
SPLINE
  5
CF
330
CA
100
AcDbEntity
  8
_U+30EC_U+30A4_U+30E4_U+30FC 1
370
     0
100
AcDbSpline
210
0.0
220
0.0
230
1.0
 70
    11
 71
     3
 72
    17
 73
    13
 74
     0
 42
0.0000000001
 43
0.0000000001
 12
1.0
 22
0.0
 32
0.0
 13
1.0
 23
0.0
 33
0.0
 40
0.0
 40
0.0
 40
0.0
 40
0.0
 40
1.0
 40
1.0
 40
1.0
 40
2.0
 40
2.0
 40
2.0
 40
3.0
 40
3.0
 40
3.0
 40
4.0
 40
4.0
 40
4.0
 40
4.0
 10
104.3402289235677
 20
-149.8816351621824
 30
0.0
 10
104.3402289235677
 20
-150.1482855527407
 30
0.0
 10
104.6237602820038
 20
-150.1978949277283
 30
0.0
 10
104.9686143400773
 20
-150.1978949277283
 30
0.0
 10
105.28797469156
 20
-150.1978949277283
 30
0.0
 10
105.5966552470383
 20
-150.1596543678421
 30
0.0
 10
105.5966552470383
 20
-149.8816351621824
 30
0.0
 10
105.5966552470383
 20
-149.6170518289152
 30
0.0
 10
105.315535455442
 20
-149.5650308870879
 30
0.0
 10
104.9686143400773
 20
-149.5650308870879
 30
0.0
 10
104.6489094790461
 20
-149.5650308870879
 30
0.0
 10
104.3402289235677
 20
-149.6056830138139
 30
0.0
 10
104.3402289235677
 20
-149.8816351621824
 30
0.0
  0
HATCH
  5
D0
330
CA
100
AcDbEntity
  8
_U+30EC_U+30A4_U+30E4_U+30FC 1
 62
   179
420
  2234388
100
AcDbHatch
 10
0.0
 20
0.0
 30
0.0
210
0.0
220
0.0
230
1.0
  2
SOLID
 70
     1
 71
     0
 91
        2
 92
        1
 93
        1
 72
     4
 94
        3
 73
     0
 74
     1
 95
       29
 96
       25
 40
0.0
 40
0.0
 40
0.0
 40
0.0
 40
1.0
 40
1.0
 40
1.0
 40
2.0
 40
2.0
 40
2.0
 40
3.0
 40
3.0
 40
3.0
 40
4.0
 40
4.0
 40
4.0
 40
5.0
 40
5.0
 40
5.0
 40
6.0
 40
6.0
 40
6.0
 40
7.0
 40
7.0
 40
7.0
 40
8.0
 40
8.0
 40
8.0
 40
8.0
 10
105.5628933112829
 20
-149.4565103793026
 10
105.7723551167861
 20
-149.5719210780584
 10
105.791303141955
 20
-149.7572672151649
 10
105.791303141955
 20
-149.8816351621824
 10
105.791303141955
 20
-150.0532009173478
 10
105.7447943529041
 20
-150.2047851186988
 10
105.5628933112829
 20
-150.3064154355137
 10
105.3682454163663
 20
-150.4173475101387
 10
105.1315673565296
 20
-150.4376735735017
 10
104.9686143400773
 20
-150.4376735735017
 10
104.8246093487939
 20
-150.4376735735017
 10
104.5727728688221
 20
-150.4197590769784
 10
104.3739908593232
 20
-150.3064154355137
 10
104.171074735242
 20
-150.1913492463063
 10
104.1476480859423
 20
-150.0194389815924
 10
104.1476480859423
 20
-149.8816351621824
 10
104.1476480859423
 20
-149.7117919547595
 10
104.192089817702
 20
-149.5581406961174
 10
104.3739908593232
 20
-149.4565103793026
 10
104.5665716969486
 20
-149.3500569288083
 10
104.7949815276207
 20
-149.3252522413145
 10
104.9686143400773
 20
-149.3252522413145
 10
105.1398355856942
 20
-149.3252522413145
 10
105.3703124736574
 20
-149.3479898715172
 10
105.5628933112829
 20
-149.4565103793026
 97
        0
 97
        0
 92
        1
 93
        1
 72
     4
 94
        3
 73
     0
 74
     1
 95
       17
 96
       13
 40
0.0
 40
0.0
 40
0.0
 40
0.0
 40
1.0
 40
1.0
 40
1.0
 40
2.0
 40
2.0
 40
2.0
 40
3.0
 40
3.0
 40
3.0
 40
4.0
 40
4.0
 40
4.0
 40
4.0
 10
104.3402289235677
 20
-149.8816351621824
 10
104.3402289235677
 20
-150.1482855527407
 10
104.6237602820038
 20
-150.1978949277283
 10
104.9686143400773
 20
-150.1978949277283
 10
105.28797469156
 20
-150.1978949277283
 10
105.5966552470383
 20
-150.1596543678421
 10
105.5966552470383
 20
-149.8816351621824
 10
105.5966552470383
 20
-149.6170518289152
 10
105.315535455442
 20
-149.5650308870879
 10
104.9686143400773
 20
-149.5650308870879
 10
104.6489094790461
 20
-149.5650308870879
 10
104.3402289235677
 20
-149.6056830138139
 10
104.3402289235677
 20
-149.8816351621824
 97
        0
 97
        0
 75
     2
 76
     1
 98
        0
  0
POLYLINE
  5
D1
330
CA
100
AcDbEntity
  8
_U+30EC_U+30A4_U+30E4_U+30FC 1
370
     0
100
AcDb2dPolyline
 66
     1
 10
0.0
 20
0.0
 30
0.0
  0
VERTEX
  5
D2
330
D1
100
AcDbEntity
  8
_U+30EC_U+30A4_U+30E4_U+30FC 1
370
     0
100
AcDbVertex
100
AcDb2dVertex
 10
105.7406602383218
 20
-149.0940863342543
 30
0.0
  0
VERTEX
  5
D3
330
D1
100
AcDbEntity
  8
_U+30EC_U+30A4_U+30E4_U+30FC 1
370
     0
100
AcDbVertex
100
AcDb2dVertex
 10
105.48882375835
 20
-149.0940863342543
 30
0.0
  0
VERTEX
  5
D4
330
D1
100
AcDbEntity
  8
_U+30EC_U+30A4_U+30E4_U+30FC 1
370
     0
100
AcDbVertex
100
AcDb2dVertex
 10
105.48882375835
 20
-148.8250243768562
 30
0.0
  0
VERTEX
  5
D5
330
D1
100
AcDbEntity
  8
_U+30EC_U+30A4_U+30E4_U+30FC 1
370
     0
100
AcDbVertex
100
AcDb2dVertex
 10
105.7406602383218
 20
-148.8250243768562
 30
0.0
  0
VERTEX
  5
D6
330
D1
100
AcDbEntity
  8
_U+30EC_U+30A4_U+30E4_U+30FC 1
370
     0
100
AcDbVertex
100
AcDb2dVertex
 10
105.7406602383218
 20
-149.0940863342543
 30
0.0
  0
SEQEND
  5
D7
330
D1
100
AcDbEntity
  8
_U+30EC_U+30A4_U+30E4_U+30FC 1
370
     0
  0
HATCH
  5
D8
330
CA
100
AcDbEntity
  8
_U+30EC_U+30A4_U+30E4_U+30FC 1
 62
   179
420
  2234388
100
AcDbHatch
 10
0.0
 20
0.0
 30
0.0
210
0.0
220
0.0
230
1.0
  2
SOLID
 70
     1
 71
     0
 91
        1
 92
        1
 93
        4
 72
     1
 10
105.7406602383218
 20
-149.0940863342543
 11
105.48882375835
 21
-149.0940863342543
 72
     1
 10
105.48882375835
 20
-149.0940863342543
 11
105.48882375835
 21
-148.8250243768562
 72
     1
 10
105.48882375835
 20
-148.8250243768562
 11
105.7406602383218
 21
-148.8250243768562
 72
     1
 10
105.7406602383218
 20
-148.8250243768562
 11
105.7406602383218
 21
-149.0940863342543
 97
        0
 75
     2
 76
     1
 98
        0
  0
SPLINE
  5
D9
330
CA
100
AcDbEntity
  8
_U+30EC_U+30A4_U+30E4_U+30FC 1
370
     0
100
AcDbSpline
210
0.0
220
0.0
230
1.0
 70
    11
 71
     3
 72
    62
 73
    58
 74
     0
 42
0.0000000001
 43
0.0000000001
 12
1.0
 22
0.0
 32
0.0
 13
1.0
 23
0.0
 33
0.0
 40
0.0
 40
0.0
 40
0.0
 40
0.0
 40
1.0
 40
1.0
 40
1.0
 40
2.0
 40
2.0
 40
2.0
 40
3.0
 40
3.0
 40
3.0
 40
4.0
 40
4.0
 40
4.0
 40
5.0
 40
5.0
 40
5.0
 40
6.0
 40
6.0
 40
6.0
 40
7.0
 40
7.0
 40
7.0
 40
8.0
 40
8.0
 40
8.0
 40
9.0
 40
9.0
 40
9.0
 40
10.0
 40
10.0
 40
10.0
 40
11.0
 40
11.0
 40
11.0
 40
12.0
 40
12.0
 40
12.0
 40
13.0
 40
13.0
 40
13.0
 40
14.0
 40
14.0
 40
14.0
 40
15.0
 40
15.0
 40
15.0
 40
16.0
 40
16.0
 40
16.0
 40
17.0
 40
17.0
 40
17.0
 40
18.0
 40
18.0
 40
18.0
 40
19.0
 40
19.0
 40
19.0
 40
19.0
 10
105.791303141955
 20
-148.0467773067383
 30
0.0
 10
105.791303141955
 20
-148.1484076235532
 30
0.0
 10
105.7702880594949
 20
-148.3812960783561
 30
0.0
 10
105.5842529032914
 20
-148.5146212736352
 30
0.0
 10
105.4719427904723
 20
-148.593858469796
 30
0.0
 10
105.3727240404971
 20
-148.5983370939268
 30
0.0
 10
105.28797469156
 20
-148.6028157180576
 30
0.0
 10
105.28797469156
 20
-148.6028157180576
 30
0.0
 10
105.28797469156
 20
-148.3678602059636
 30
0.0
 10
105.28797469156
 20
-148.3678602059636
 30
0.0
 10
105.3620442444928
 20
-148.3654486391239
 30
0.0
 10
105.5966552470383
 20
-148.3540798240226
 30
0.0
 10
105.5966552470383
 20
-148.0512559308691
 30
0.0
 10
105.5966552470383
 20
-147.904150353649
 30
0.0
 10
105.5270643182363
 20
-147.7415418467452
 30
0.0
 10
105.2986544875642
 20
-147.7415418467452
 30
0.0
 10
105.1822102601628
 20
-147.7415418467452
 30
0.0
 10
105.1336344138208
 20
-147.7821939734711
 30
0.0
 10
105.1019395353565
 20
-147.8159559092266
 30
0.0
 10
105.0278699824236
 20
-147.8951931053873
 30
0.0
 10
105.0151231291282
 20
-148.0195610524048
 30
0.0
 10
105.0151231291282
 20
-148.0784721852026
 30
0.0
 10
105.0151231291282
 20
-148.0987982485656
 30
0.0
 10
105.0171901864193
 20
-148.1370388084518
 30
0.0
 10
105.0213243010016
 20
-148.166666629625
 30
0.0
 10
105.0213243010016
 20
-148.166666629625
 30
0.0
 10
104.826676406085
 20
-148.166666629625
 30
0.0
 10
104.826676406085
 20
-148.166666629625
 30
0.0
 10
104.833222087507
 20
-148.1260145028991
 30
0.0
 10
104.8352891447981
 20
-148.0805392424938
 30
0.0
 10
104.8352891447981
 20
-148.0739935610718
 30
0.0
 10
104.8352891447981
 20
-148.0037136131727
 30
0.0
 10
104.8139295527896
 20
-147.7911512217328
 30
0.0
 10
104.5772514929529
 20
-147.7911512217328
 30
0.0
 10
104.399484565914
 20
-147.7911512217328
 30
0.0
 10
104.34436303815
 20
-147.9313666079825
 30
0.0
 10
104.34436303815
 20
-148.0488443640295
 30
0.0
 10
104.34436303815
 20
-148.3316867033685
 30
0.0
 10
104.5772514929529
 20
-148.3406439516301
 30
0.0
 10
104.6489094790461
 20
-148.3451225757609
 30
0.0
 10
104.6489094790461
 20
-148.3451225757609
 30
0.0
 10
104.6489094790461
 20
-148.5621635913317
 30
0.0
 10
104.6489094790461
 20
-148.5621635913317
 30
0.0
 10
104.5241970224801
 20
-148.55320634307
 30
0.0
 10
104.1476480859423
 20
-148.5239230314454
 30
0.0
 10
104.1476480859423
 20
-148.035408491637
 30
0.0
 10
104.1476480859423
 20
-147.7956298458636
 30
0.0
 10
104.274772109348
 20
-147.5379367035669
 30
0.0
 10
104.5707058115309
 20
-147.5379367035669
 30
0.0
 10
104.757085477283
 20
-147.5379367035669
 30
0.0
 10
104.8394232593804
 20
-147.6399115299303
 30
0.0
 10
104.9007459590179
 20
-147.746020470876
 30
0.0
 10
104.9283067228999
 20
-147.6805636566563
 30
0.0
 10
105.0085774477062
 20
-147.4859157617396
 30
0.0
 10
105.2859076342688
 20
-147.4859157617396
 30
0.0
 10
105.6242160109203
 20
-147.4859157617396
 30
0.0
 10
105.791303141955
 20
-147.7504990950068
 30
0.0
 10
105.791303141955
 20
-148.0467773067383
 30
0.0
  0
HATCH
  5
DA
330
CA
100
AcDbEntity
  8
_U+30EC_U+30A4_U+30E4_U+30FC 1
 62
   179
420
  2234388
100
AcDbHatch
 10
0.0
 20
0.0
 30
0.0
210
0.0
220
0.0
230
1.0
  2
SOLID
 70
     1
 71
     0
 91
        1
 92
        1
 93
        1
 72
     4
 94
        3
 73
     0
 74
     1
 95
       62
 96
       58
 40
0.0
 40
0.0
 40
0.0
 40
0.0
 40
1.0
 40
1.0
 40
1.0
 40
2.0
 40
2.0
 40
2.0
 40
3.0
 40
3.0
 40
3.0
 40
4.0
 40
4.0
 40
4.0
 40
5.0
 40
5.0
 40
5.0
 40
6.0
 40
6.0
 40
6.0
 40
7.0
 40
7.0
 40
7.0
 40
8.0
 40
8.0
 40
8.0
 40
9.0
 40
9.0
 40
9.0
 40
10.0
 40
10.0
 40
10.0
 40
11.0
 40
11.0
 40
11.0
 40
12.0
 40
12.0
 40
12.0
 40
13.0
 40
13.0
 40
13.0
 40
14.0
 40
14.0
 40
14.0
 40
15.0
 40
15.0
 40
15.0
 40
16.0
 40
16.0
 40
16.0
 40
17.0
 40
17.0
 40
17.0
 40
18.0
 40
18.0
 40
18.0
 40
19.0
 40
19.0
 40
19.0
 40
19.0
 10
105.791303141955
 20
-148.0467773067383
 10
105.791303141955
 20
-148.1484076235532
 10
105.7702880594949
 20
-148.3812960783561
 10
105.5842529032914
 20
-148.5146212736352
 10
105.4719427904723
 20
-148.593858469796
 10
105.3727240404971
 20
-148.5983370939268
 10
105.28797469156
 20
-148.6028157180576
 10
105.28797469156
 20
-148.6028157180576
 10
105.28797469156
 20
-148.3678602059636
 10
105.28797469156
 20
-148.3678602059636
 10
105.3620442444928
 20
-148.3654486391239
 10
105.5966552470383
 20
-148.3540798240226
 10
105.5966552470383
 20
-148.0512559308691
 10
105.5966552470383
 20
-147.904150353649
 10
105.5270643182363
 20
-147.7415418467452
 10
105.2986544875642
 20
-147.7415418467452
 10
105.1822102601628
 20
-147.7415418467452
 10
105.1336344138208
 20
-147.7821939734711
 10
105.1019395353565
 20
-147.8159559092266
 10
105.0278699824236
 20
-147.8951931053873
 10
105.0151231291282
 20
-148.0195610524048
 10
105.0151231291282
 20
-148.0784721852026
 10
105.0151231291282
 20
-148.0987982485656
 10
105.0171901864193
 20
-148.1370388084518
 10
105.0213243010016
 20
-148.166666629625
 10
105.0213243010016
 20
-148.166666629625
 10
104.826676406085
 20
-148.166666629625
 10
104.826676406085
 20
-148.166666629625
 10
104.833222087507
 20
-148.1260145028991
 10
104.8352891447981
 20
-148.0805392424938
 10
104.8352891447981
 20
-148.0739935610718
 10
104.8352891447981
 20
-148.0037136131727
 10
104.8139295527896
 20
-147.7911512217328
 10
104.5772514929529
 20
-147.7911512217328
 10
104.399484565914
 20
-147.7911512217328
 10
104.34436303815
 20
-147.9313666079825
 10
104.34436303815
 20
-148.0488443640295
 10
104.34436303815
 20
-148.3316867033685
 10
104.5772514929529
 20
-148.3406439516301
 10
104.6489094790461
 20
-148.3451225757609
 10
104.6489094790461
 20
-148.3451225757609
 10
104.6489094790461
 20
-148.5621635913317
 10
104.6489094790461
 20
-148.5621635913317
 10
104.5241970224801
 20
-148.55320634307
 10
104.1476480859423
 20
-148.5239230314454
 10
104.1476480859423
 20
-148.035408491637
 10
104.1476480859423
 20
-147.7956298458636
 10
104.274772109348
 20
-147.5379367035669
 10
104.5707058115309
 20
-147.5379367035669
 10
104.757085477283
 20
-147.5379367035669
 10
104.8394232593804
 20
-147.6399115299303
 10
104.9007459590179
 20
-147.746020470876
 10
104.9283067228999
 20
-147.6805636566563
 10
105.0085774477062
 20
-147.4859157617396
 10
105.2859076342688
 20
-147.4859157617396
 10
105.6242160109203
 20
-147.4859157617396
 10
105.791303141955
 20
-147.7504990950068
 10
105.791303141955
 20
-148.0467773067383
 97
        0
 97
        0
 75
     2
 76
     1
 98
        0
  0
ENDBLK
  5
CD
330
CA
100
AcDbEntity
  8
0
100
AcDbBlockEnd
  0
BLOCK
  5
E9
330
E7
100
AcDbEntity
  8
0
100
AcDbBlockBegin
  2
block 6
 70
     0
 10
0.0
 20
0.0
 30
0.0
  3
block 6
  1

  0
SPLINE
  5
EB
330
E7
100
AcDbEntity
  8
_U+30EC_U+30A4_U+30E4_U+30FC 1
370
     0
100
AcDbSpline
210
0.0
220
0.0
230
1.0
 70
    11
 71
     3
 72
    53
 73
    49
 74
     0
 42
0.0000000001
 43
0.0000000001
 12
1.0
 22
0.0
 32
0.0
 13
1.0
 23
0.0
 33
0.0
 40
0.0
 40
0.0
 40
0.0
 40
0.0
 40
1.0
 40
1.0
 40
1.0
 40
2.0
 40
2.0
 40
2.0
 40
3.0
 40
3.0
 40
3.0
 40
4.0
 40
4.0
 40
4.0
 40
5.0
 40
5.0
 40
5.0
 40
6.0
 40
6.0
 40
6.0
 40
7.0
 40
7.0
 40
7.0
 40
8.0
 40
8.0
 40
8.0
 40
9.0
 40
9.0
 40
9.0
 40
10.0
 40
10.0
 40
10.0
 40
11.0
 40
11.0
 40
11.0
 40
12.0
 40
12.0
 40
12.0
 40
13.0
 40
13.0
 40
13.0
 40
14.0
 40
14.0
 40
14.0
 40
15.0
 40
15.0
 40
15.0
 40
16.0
 40
16.0
 40
16.0
 40
16.0
 10
94.85450301448083
 20
-156.8565754816192
 30
0.0
 10
94.77078719418925
 20
-156.8565754816192
 30
0.0
 10
94.66226668640388
 20
-156.8396945137415
 30
0.0
 10
94.55374617861851
 20
-156.7763047568129
 30
0.0
 10
94.36840004151207
 20
-156.6664062108334
 30
0.0
 10
94.34566241130942
 20
-156.5351480728454
 30
0.0
 10
94.32533634794645
 20
-156.4273165841571
 30
0.0
 10
94.32533634794645
 20
-156.4273165841571
 30
0.0
 10
94.56270342688016
 20
-156.4273165841571
 30
0.0
 10
94.56270342688016
 20
-156.4273165841571
 30
0.0
 10
94.62161455967794
 20
-156.626098593656
 30
0.0
 10
94.75717906702252
 20
-156.6557264148291
 30
0.0
 10
94.85674232654624
 20
-156.6557264148291
 30
0.0
 10
95.00591496105756
 20
-156.6557264148291
 30
0.0
 10
95.1686957227356
 20
-156.5561631553054
 30
0.0
 10
95.1686957227356
 20
-156.323619210051
 30
0.0
 10
95.1686957227356
 20
-156.067648615497
 30
0.0
 10
94.97645939465866
 20
-155.9977131771464
 30
0.0
 10
94.84761282351032
 20
-155.9977131771464
 30
0.0
 10
94.81367863298061
 20
-155.9977131771464
 30
0.0
 10
94.66226668640388
 20
-155.9977131771464
 30
0.0
 10
94.56735430578524
 20
-156.1269042578433
 30
0.0
 10
94.56735430578524
 20
-156.1269042578433
 30
0.0
 10
94.37959660183914
 20
-156.1079562326744
 30
0.0
 10
94.37959660183914
 20
-156.1079562326744
 30
0.0
 10
94.37959660183914
 20
-156.1079562326744
 30
0.0
 10
94.50861542776174
 20
-155.2614962719485
 30
0.0
 10
94.50861542776174
 20
-155.2614962719485
 30
0.0
 10
94.50861542776174
 20
-155.2614962719485
 30
0.0
 10
95.34060598744958
 20
-155.2614962719485
 30
0.0
 10
95.34060598744958
 20
-155.2614962719485
 30
0.0
 10
95.34060598744958
 20
-155.2614962719485
 30
0.0
 10
95.34060598744958
 20
-155.4561441668651
 30
0.0
 10
95.34060598744958
 20
-155.4561441668651
 30
0.0
 10
95.34060598744958
 20
-155.4561441668651
 30
0.0
 10
94.68259274976685
 20
-155.4561441668651
 30
0.0
 10
94.68259274976685
 20
-155.4561441668651
 30
0.0
 10
94.68259274976685
 20
-155.4561441668651
 30
0.0
 10
94.61248505664202
 20
-155.8792018924538
 30
0.0
 10
94.61248505664202
 20
-155.8792018924538
 30
0.0
 10
94.67811412563603
 20
-155.8454399566984
 30
0.0
 10
94.76630857005843
 20
-155.805132339521
 30
0.0
 10
94.89291582914136
 20
-155.805132339521
 30
0.0
 10
95.16421709860478
 20
-155.805132339521
 30
0.0
 10
95.41743161677064
 20
-155.991512005273
 30
0.0
 10
95.41743161677064
 20
-156.3046711848822
 30
0.0
 10
95.41743161677064
 20
-156.6219644790737
 30
0.0
 10
95.17765297099726
 20
-156.8565754816192
 30
0.0
 10
94.85450301448083
 20
-156.8565754816192
 30
0.0
  0
HATCH
  5
EC
330
E7
100
AcDbEntity
  8
_U+30EC_U+30A4_U+30E4_U+30FC 1
 62
   179
420
  2234388
100
AcDbHatch
 10
0.0
 20
0.0
 30
0.0
210
0.0
220
0.0
230
1.0
  2
SOLID
 70
     1
 71
     0
 91
        1
 92
        1
 93
        1
 72
     4
 94
        3
 73
     0
 74
     1
 95
       53
 96
       49
 40
0.0
 40
0.0
 40
0.0
 40
0.0
 40
1.0
 40
1.0
 40
1.0
 40
2.0
 40
2.0
 40
2.0
 40
3.0
 40
3.0
 40
3.0
 40
4.0
 40
4.0
 40
4.0
 40
5.0
 40
5.0
 40
5.0
 40
6.0
 40
6.0
 40
6.0
 40
7.0
 40
7.0
 40
7.0
 40
8.0
 40
8.0
 40
8.0
 40
9.0
 40
9.0
 40
9.0
 40
10.0
 40
10.0
 40
10.0
 40
11.0
 40
11.0
 40
11.0
 40
12.0
 40
12.0
 40
12.0
 40
13.0
 40
13.0
 40
13.0
 40
14.0
 40
14.0
 40
14.0
 40
15.0
 40
15.0
 40
15.0
 40
16.0
 40
16.0
 40
16.0
 40
16.0
 10
94.85450301448083
 20
-156.8565754816192
 10
94.77078719418925
 20
-156.8565754816192
 10
94.66226668640388
 20
-156.8396945137415
 10
94.55374617861851
 20
-156.7763047568129
 10
94.36840004151207
 20
-156.6664062108334
 10
94.34566241130942
 20
-156.5351480728454
 10
94.32533634794645
 20
-156.4273165841571
 10
94.32533634794645
 20
-156.4273165841571
 10
94.56270342688016
 20
-156.4273165841571
 10
94.56270342688016
 20
-156.4273165841571
 10
94.62161455967794
 20
-156.626098593656
 10
94.75717906702252
 20
-156.6557264148291
 10
94.85674232654624
 20
-156.6557264148291
 10
95.00591496105756
 20
-156.6557264148291
 10
95.1686957227356
 20
-156.5561631553054
 10
95.1686957227356
 20
-156.323619210051
 10
95.1686957227356
 20
-156.067648615497
 10
94.97645939465866
 20
-155.9977131771464
 10
94.84761282351032
 20
-155.9977131771464
 10
94.81367863298061
 20
-155.9977131771464
 10
94.66226668640388
 20
-155.9977131771464
 10
94.56735430578524
 20
-156.1269042578433
 10
94.56735430578524
 20
-156.1269042578433
 10
94.37959660183914
 20
-156.1079562326744
 10
94.37959660183914
 20
-156.1079562326744
 10
94.37959660183914
 20
-156.1079562326744
 10
94.50861542776174
 20
-155.2614962719485
 10
94.50861542776174
 20
-155.2614962719485
 10
94.50861542776174
 20
-155.2614962719485
 10
95.34060598744958
 20
-155.2614962719485
 10
95.34060598744958
 20
-155.2614962719485
 10
95.34060598744958
 20
-155.2614962719485
 10
95.34060598744958
 20
-155.4561441668651
 10
95.34060598744958
 20
-155.4561441668651
 10
95.34060598744958
 20
-155.4561441668651
 10
94.68259274976685
 20
-155.4561441668651
 10
94.68259274976685
 20
-155.4561441668651
 10
94.68259274976685
 20
-155.4561441668651
 10
94.61248505664202
 20
-155.8792018924538
 10
94.61248505664202
 20
-155.8792018924538
 10
94.67811412563603
 20
-155.8454399566984
 10
94.76630857005843
 20
-155.805132339521
 10
94.89291582914136
 20
-155.805132339521
 10
95.16421709860478
 20
-155.805132339521
 10
95.41743161677064
 20
-155.991512005273
 10
95.41743161677064
 20
-156.3046711848822
 10
95.41743161677064
 20
-156.6219644790737
 10
95.17765297099726
 20
-156.8565754816192
 10
94.85450301448083
 20
-156.8565754816192
 97
        0
 97
        0
 75
     2
 76
     1
 98
        0
  0
ENDBLK
  5
EA
330
E7
100
AcDbEntity
  8
0
100
AcDbBlockEnd
  0
BLOCK
  5
FB
330
F9
100
AcDbEntity
  8
0
100
AcDbBlockBegin
  2
block 7
 70
     0
 10
0.0
 20
0.0
 30
0.0
  3
block 7
  1

  0
SPLINE
  5
FD
330
F9
100
AcDbEntity
  8
_U+30EC_U+30A4_U+30E4_U+30FC 1
370
     0
100
AcDbSpline
210
0.0
220
0.0
230
1.0
 70
    11
 71
     3
 72
    26
 73
    22
 74
     0
 42
0.0000000001
 43
0.0000000001
 12
1.0
 22
0.0
 32
0.0
 13
1.0
 23
0.0
 33
0.0
 40
0.0
 40
0.0
 40
0.0
 40
0.0
 40
1.0
 40
1.0
 40
1.0
 40
2.0
 40
2.0
 40
2.0
 40
3.0
 40
3.0
 40
3.0
 40
4.0
 40
4.0
 40
4.0
 40
5.0
 40
5.0
 40
5.0
 40
6.0
 40
6.0
 40
6.0
 40
7.0
 40
7.0
 40
7.0
 40
7.0
 10
96.66111108694584
 20
-160.8053439268126
 30
0.0
 10
96.66111108694584
 20
-160.8053439268126
 30
0.0
 10
96.66111108694584
 20
-159.70119082379
 30
0.0
 10
96.66111108694584
 20
-159.70119082379
 30
0.0
 10
96.66111108694584
 20
-159.70119082379
 30
0.0
 10
96.30867781880478
 20
-159.70119082379
 30
0.0
 10
96.30867781880478
 20
-159.70119082379
 30
0.0
 10
96.30867781880478
 20
-159.70119082379
 30
0.0
 10
96.30867781880478
 20
-159.5530517179242
 30
0.0
 10
96.30867781880478
 20
-159.5530517179242
 30
0.0
 10
96.6635226537855
 20
-159.5382378073377
 30
0.0
 10
96.71313202877312
 20
-159.3752847908854
 30
0.0
 10
96.74482690723741
 20
-159.2609076207751
 30
0.0
 10
96.74482690723741
 20
-159.2609076207751
 30
0.0
 10
96.90088973271922
 20
-159.2609076207751
 30
0.0
 10
96.90088973271922
 20
-159.2609076207751
 30
0.0
 10
96.90088973271922
 20
-159.2609076207751
 30
0.0
 10
96.90088973271922
 20
-160.8053439268126
 30
0.0
 10
96.90088973271922
 20
-160.8053439268126
 30
0.0
 10
96.90088973271922
 20
-160.8053439268126
 30
0.0
 10
96.66111108694584
 20
-160.8053439268126
 30
0.0
 10
96.66111108694584
 20
-160.8053439268126
 30
0.0
  0
HATCH
  5
FE
330
F9
100
AcDbEntity
  8
_U+30EC_U+30A4_U+30E4_U+30FC 1
 62
   179
420
  2234388
100
AcDbHatch
 10
0.0
 20
0.0
 30
0.0
210
0.0
220
0.0
230
1.0
  2
SOLID
 70
     1
 71
     0
 91
        1
 92
        1
 93
        1
 72
     4
 94
        3
 73
     0
 74
     1
 95
       26
 96
       22
 40
0.0
 40
0.0
 40
0.0
 40
0.0
 40
1.0
 40
1.0
 40
1.0
 40
2.0
 40
2.0
 40
2.0
 40
3.0
 40
3.0
 40
3.0
 40
4.0
 40
4.0
 40
4.0
 40
5.0
 40
5.0
 40
5.0
 40
6.0
 40
6.0
 40
6.0
 40
7.0
 40
7.0
 40
7.0
 40
7.0
 10
96.66111108694584
 20
-160.8053439268126
 10
96.66111108694584
 20
-160.8053439268126
 10
96.66111108694584
 20
-159.70119082379
 10
96.66111108694584
 20
-159.70119082379
 10
96.66111108694584
 20
-159.70119082379
 10
96.30867781880478
 20
-159.70119082379
 10
96.30867781880478
 20
-159.70119082379
 10
96.30867781880478
 20
-159.70119082379
 10
96.30867781880478
 20
-159.5530517179242
 10
96.30867781880478
 20
-159.5530517179242
 10
96.6635226537855
 20
-159.5382378073377
 10
96.71313202877312
 20
-159.3752847908854
 10
96.74482690723741
 20
-159.2609076207751
 10
96.74482690723741
 20
-159.2609076207751
 10
96.90088973271922
 20
-159.2609076207751
 10
96.90088973271922
 20
-159.2609076207751
 10
96.90088973271922
 20
-159.2609076207751
 10
96.90088973271922
 20
-160.8053439268126
 10
96.90088973271922
 20
-160.8053439268126
 10
96.90088973271922
 20
-160.8053439268126
 10
96.66111108694584
 20
-160.8053439268126
 10
96.66111108694584
 20
-160.8053439268126
 97
        0
 97
        0
 75
     2
 76
     1
 98
        0
  0
SPLINE
  5
FF
330
F9
100
AcDbEntity
  8
_U+30EC_U+30A4_U+30E4_U+30FC 1
370
     0
100
AcDbSpline
210
0.0
220
0.0
230
1.0
 70
    11
 71
     3
 72
    29
 73
    25
 74
     0
 42
0.0000000001
 43
0.0000000001
 12
1.0
 22
0.0
 32
0.0
 13
1.0
 23
0.0
 33
0.0
 40
0.0
 40
0.0
 40
0.0
 40
0.0
 40
1.0
 40
1.0
 40
1.0
 40
2.0
 40
2.0
 40
2.0
 40
3.0
 40
3.0
 40
3.0
 40
4.0
 40
4.0
 40
4.0
 40
5.0
 40
5.0
 40
5.0
 40
6.0
 40
6.0
 40
6.0
 40
7.0
 40
7.0
 40
7.0
 40
8.0
 40
8.0
 40
8.0
 40
8.0
 10
98.39606117331766
 20
-160.6275769997737
 30
0.0
 10
98.28065047456178
 20
-160.8370388052768
 30
0.0
 10
98.09530433745535
 20
-160.8559868304457
 30
0.0
 10
97.97093639043783
 20
-160.8559868304457
 30
0.0
 10
97.79937063527238
 20
-160.8559868304457
 30
0.0
 10
97.6477864339214
 20
-160.8094780413949
 30
0.0
 10
97.54615611710652
 20
-160.6275769997737
 30
0.0
 10
97.43522404248148
 20
-160.4329291048571
 30
0.0
 10
97.4148979791185
 20
-160.1959065354719
 30
0.0
 10
97.4148979791185
 20
-160.0332980285681
 30
0.0
 10
97.4148979791185
 20
-159.8892930372846
 30
0.0
 10
97.43315698519032
 20
-159.6374565573129
 30
0.0
 10
97.54615611710652
 20
-159.4386745478139
 30
0.0
 10
97.66122230631386
 20
-159.2357584237327
 30
0.0
 10
97.83313257102783
 20
-159.212331774433
 30
0.0
 10
97.97093639043783
 20
-159.212331774433
 30
0.0
 10
98.14077959786064
 20
-159.212331774433
 30
0.0
 10
98.29443085650279
 20
-159.2567735061928
 30
0.0
 10
98.39606117331766
 20
-159.4386745478139
 30
0.0
 10
98.50251462381188
 20
-159.6312553854394
 30
0.0
 10
98.52731931130567
 20
-159.8596652161115
 30
0.0
 10
98.52731931130567
 20
-160.0332980285681
 30
0.0
 10
98.52731931130567
 20
-160.204519274185
 30
0.0
 10
98.50458168110302
 20
-160.4349961621482
 30
0.0
 10
98.39606117331766
 20
-160.6275769997737
 30
0.0
  0
SPLINE
  5
100
330
F9
100
AcDbEntity
  8
_U+30EC_U+30A4_U+30E4_U+30FC 1
370
     0
100
AcDbSpline
210
0.0
220
0.0
230
1.0
 70
    11
 71
     3
 72
    17
 73
    13
 74
     0
 42
0.0000000001
 43
0.0000000001
 12
1.0
 22
0.0
 32
0.0
 13
1.0
 23
0.0
 33
0.0
 40
0.0
 40
0.0
 40
0.0
 40
0.0
 40
1.0
 40
1.0
 40
1.0
 40
2.0
 40
2.0
 40
2.0
 40
3.0
 40
3.0
 40
3.0
 40
4.0
 40
4.0
 40
4.0
 40
4.0
 10
97.97093639043783
 20
-159.4049126120585
 30
0.0
 10
97.70428599987949
 20
-159.4049126120585
 30
0.0
 10
97.65467662489189
 20
-159.6884439704946
 30
0.0
 10
97.65467662489189
 20
-160.0332980285681
 30
0.0
 10
97.65467662489189
 20
-160.3526583800507
 30
0.0
 10
97.69291718477817
 20
-160.6613389355291
 30
0.0
 10
97.97093639043783
 20
-160.6613389355291
 30
0.0
 10
98.23551972370501
 20
-160.6613389355291
 30
0.0
 10
98.28754066553229
 20
-160.3802191439327
 30
0.0
 10
98.28754066553229
 20
-160.0332980285681
 30
0.0
 10
98.28754066553229
 20
-159.7135931675369
 30
0.0
 10
98.24688853880633
 20
-159.4049126120585
 30
0.0
 10
97.97093639043783
 20
-159.4049126120585
 30
0.0
  0
HATCH
  5
101
330
F9
100
AcDbEntity
  8
_U+30EC_U+30A4_U+30E4_U+30FC 1
 62
   179
420
  2234388
100
AcDbHatch
 10
0.0
 20
0.0
 30
0.0
210
0.0
220
0.0
230
1.0
  2
SOLID
 70
     1
 71
     0
 91
        2
 92
        1
 93
        1
 72
     4
 94
        3
 73
     0
 74
     1
 95
       29
 96
       25
 40
0.0
 40
0.0
 40
0.0
 40
0.0
 40
1.0
 40
1.0
 40
1.0
 40
2.0
 40
2.0
 40
2.0
 40
3.0
 40
3.0
 40
3.0
 40
4.0
 40
4.0
 40
4.0
 40
5.0
 40
5.0
 40
5.0
 40
6.0
 40
6.0
 40
6.0
 40
7.0
 40
7.0
 40
7.0
 40
8.0
 40
8.0
 40
8.0
 40
8.0
 10
98.39606117331766
 20
-160.6275769997737
 10
98.28065047456178
 20
-160.8370388052768
 10
98.09530433745535
 20
-160.8559868304457
 10
97.97093639043783
 20
-160.8559868304457
 10
97.79937063527238
 20
-160.8559868304457
 10
97.6477864339214
 20
-160.8094780413949
 10
97.54615611710652
 20
-160.6275769997737
 10
97.43522404248148
 20
-160.4329291048571
 10
97.4148979791185
 20
-160.1959065354719
 10
97.4148979791185
 20
-160.0332980285681
 10
97.4148979791185
 20
-159.8892930372846
 10
97.43315698519032
 20
-159.6374565573129
 10
97.54615611710652
 20
-159.4386745478139
 10
97.66122230631386
 20
-159.2357584237327
 10
97.83313257102783
 20
-159.212331774433
 10
97.97093639043783
 20
-159.212331774433
 10
98.14077959786064
 20
-159.212331774433
 10
98.29443085650279
 20
-159.2567735061928
 10
98.39606117331766
 20
-159.4386745478139
 10
98.50251462381188
 20
-159.6312553854394
 10
98.52731931130567
 20
-159.8596652161115
 10
98.52731931130567
 20
-160.0332980285681
 10
98.52731931130567
 20
-160.204519274185
 10
98.50458168110302
 20
-160.4349961621482
 10
98.39606117331766
 20
-160.6275769997737
 97
        0
 97
        0
 92
        1
 93
        1
 72
     4
 94
        3
 73
     0
 74
     1
 95
       17
 96
       13
 40
0.0
 40
0.0
 40
0.0
 40
0.0
 40
1.0
 40
1.0
 40
1.0
 40
2.0
 40
2.0
 40
2.0
 40
3.0
 40
3.0
 40
3.0
 40
4.0
 40
4.0
 40
4.0
 40
4.0
 10
97.97093639043783
 20
-159.4049126120585
 10
97.70428599987949
 20
-159.4049126120585
 10
97.65467662489189
 20
-159.6884439704946
 10
97.65467662489189
 20
-160.0332980285681
 10
97.65467662489189
 20
-160.3526583800507
 10
97.69291718477817
 20
-160.6613389355291
 10
97.97093639043783
 20
-160.6613389355291
 10
98.23551972370501
 20
-160.6613389355291
 10
98.28754066553229
 20
-160.3802191439327
 10
98.28754066553229
 20
-160.0332980285681
 10
98.28754066553229
 20
-159.7135931675369
 10
98.24688853880633
 20
-159.4049126120585
 10
97.97093639043783
 20
-159.4049126120585
 97
        0
 97
        0
 75
     2
 76
     1
 98
        0
  0
ENDBLK
  5
FC
330
F9
100
AcDbEntity
  8
0
100
AcDbBlockEnd
  0
BLOCK
  5
110
330
10E
100
AcDbEntity
  8
0
100
AcDbBlockBegin
  2
block 8
 70
     0
 10
0.0
 20
0.0
 30
0.0
  3
block 8
  1

  0
SPLINE
  5
112
330
10E
100
AcDbEntity
  8
_U+30EC_U+30A4_U+30E4_U+30FC 1
370
     0
100
AcDbSpline
210
0.0
220
0.0
230
1.0
 70
    11
 71
     3
 72
    29
 73
    25
 74
     0
 42
0.0000000001
 43
0.0000000001
 12
1.0
 22
0.0
 32
0.0
 13
1.0
 23
0.0
 33
0.0
 40
0.0
 40
0.0
 40
0.0
 40
0.0
 40
1.0
 40
1.0
 40
1.0
 40
2.0
 40
2.0
 40
2.0
 40
3.0
 40
3.0
 40
3.0
 40
4.0
 40
4.0
 40
4.0
 40
5.0
 40
5.0
 40
5.0
 40
6.0
 40
6.0
 40
6.0
 40
7.0
 40
7.0
 40
7.0
 40
8.0
 40
8.0
 40
8.0
 40
8.0
 10
121.6525227560452
 20
-148.6789523282817
 30
0.0
 10
121.6525227560452
 20
-148.9635172153633
 30
0.0
 10
121.5150634461837
 20
-149.234990739601
 30
0.0
 10
121.1660752735279
 20
-149.234990739601
 30
0.0
 10
120.9101046789739
 20
-149.234990739601
 30
0.0
 10
120.815020043581
 20
-149.08340653825
 30
0.0
 10
120.7536973439435
 20
-148.9704074063338
 30
0.0
 10
120.6944417015972
 20
-149.103732601613
 30
0.0
 10
120.5800645314869
 20
-149.1853813646134
 30
0.0
 10
120.4191785723258
 20
-149.1853813646134
 30
0.0
 10
120.1442599526028
 20
-149.1853813646134
 30
0.0
 10
120.0088677000325
 20
-148.9728189731735
 30
0.0
 10
120.0088677000325
 20
-148.6789523282817
 30
0.0
 10
120.0088677000325
 20
-148.3757839255797
 30
0.0
 10
120.1528726913159
 20
-148.1725232919499
 30
0.0
 10
120.4191785723258
 20
-148.1725232919499
 30
0.0
 10
120.5800645314869
 20
-148.1725232919499
 30
0.0
 10
120.6944417015972
 20
-148.255894602693
 30
0.0
 10
120.7536973439435
 20
-148.3895643075207
 30
0.0
 10
120.8043402475767
 20
-148.2944796721278
 30
0.0
 10
120.8994248829696
 20
-148.1249809742535
 30
0.0
 10
121.1619411589456
 20
-148.1249809742535
 30
0.0
 10
121.5364230381923
 20
-148.1249809742535
 30
0.0
 10
121.6525227560452
 20
-148.4233262432761
 30
0.0
 10
121.6525227560452
 20
-148.6789523282817
 30
0.0
  0
SPLINE
  5
113
330
10E
100
AcDbEntity
  8
_U+30EC_U+30A4_U+30E4_U+30FC 1
370
     0
100
AcDbSpline
210
0.0
220
0.0
230
1.0
 70
    11
 71
     3
 72
    17
 73
    13
 74
     0
 42
0.0000000001
 43
0.0000000001
 12
1.0
 22
0.0
 32
0.0
 13
1.0
 23
0.0
 33
0.0
 40
0.0
 40
0.0
 40
0.0
 40
0.0
 40
1.0
 40
1.0
 40
1.0
 40
2.0
 40
2.0
 40
2.0
 40
3.0
 40
3.0
 40
3.0
 40
4.0
 40
4.0
 40
4.0
 40
4.0
 10
120.201448537658
 20
-148.6789523282817
 30
0.0
 10
120.201448537658
 20
-148.8553412171264
 30
0.0
 10
120.2965331730509
 20
-148.94560271884
 30
0.0
 10
120.4319254256212
 20
-148.94560271884
 30
0.0
 10
120.5545708248961
 20
-148.94560271884
 30
0.0
 10
120.6730821095887
 20
-148.8687770895189
 30
0.0
 10
120.6730821095887
 20
-148.6789523282817
 30
0.0
 10
120.6730821095887
 20
-148.4887830574959
 30
0.0
 10
120.5545708248961
 20
-148.4119574281748
 30
0.0
 10
120.4319254256212
 20
-148.4119574281748
 30
0.0
 10
120.2965331730509
 20
-148.4119574281748
 30
0.0
 10
120.201448537658
 20
-148.504630496728
 30
0.0
 10
120.201448537658
 20
-148.6789523282817
 30
0.0
  0
SPLINE
  5
114
330
10E
100
AcDbEntity
  8
_U+30EC_U+30A4_U+30E4_U+30FC 1
370
     0
100
AcDbSpline
210
0.0
220
0.0
230
1.0
 70
    11
 71
     3
 72
    17
 73
    13
 74
     0
 42
0.0000000001
 43
0.0000000001
 12
1.0
 22
0.0
 32
0.0
 13
1.0
 23
0.0
 33
0.0
 40
0.0
 40
0.0
 40
0.0
 40
0.0
 40
1.0
 40
1.0
 40
1.0
 40
2.0
 40
2.0
 40
2.0
 40
3.0
 40
3.0
 40
3.0
 40
4.0
 40
4.0
 40
4.0
 40
4.0
 10
120.8615288326318
 20
-148.6789523282817
 30
0.0
 10
120.8615288326318
 20
-148.8326035869238
 30
0.0
 10
120.9483452388601
 20
-148.9952120938276
 30
0.0
 10
121.1512613629414
 20
-148.9952120938276
 30
0.0
 10
121.3565890538623
 20
-148.9952120938276
 30
0.0
 10
121.4578748611286
 20
-148.8598198412573
 30
0.0
 10
121.4578748611286
 20
-148.6789523282817
 30
0.0
 10
121.4578748611286
 20
-148.4798258092342
 30
0.0
 10
121.3352294618537
 20
-148.3623480531872
 30
0.0
 10
121.1574625348148
 20
-148.3623480531872
 30
0.0
 10
120.9355983855647
 20
-148.3623480531872
 30
0.0
 10
120.8615288326318
 20
-148.5363253751923
 30
0.0
 10
120.8615288326318
 20
-148.6789523282817
 30
0.0
  0
HATCH
  5
115
330
10E
100
AcDbEntity
  8
_U+30EC_U+30A4_U+30E4_U+30FC 1
 62
   179
420
  2234388
100
AcDbHatch
 10
0.0
 20
0.0
 30
0.0
210
0.0
220
0.0
230
1.0
  2
SOLID
 70
     1
 71
     0
 91
        3
 92
        1
 93
        1
 72
     4
 94
        3
 73
     0
 74
     1
 95
       29
 96
       25
 40
0.0
 40
0.0
 40
0.0
 40
0.0
 40
1.0
 40
1.0
 40
1.0
 40
2.0
 40
2.0
 40
2.0
 40
3.0
 40
3.0
 40
3.0
 40
4.0
 40
4.0
 40
4.0
 40
5.0
 40
5.0
 40
5.0
 40
6.0
 40
6.0
 40
6.0
 40
7.0
 40
7.0
 40
7.0
 40
8.0
 40
8.0
 40
8.0
 40
8.0
 10
121.6525227560452
 20
-148.6789523282817
 10
121.6525227560452
 20
-148.9635172153633
 10
121.5150634461837
 20
-149.234990739601
 10
121.1660752735279
 20
-149.234990739601
 10
120.9101046789739
 20
-149.234990739601
 10
120.815020043581
 20
-149.08340653825
 10
120.7536973439435
 20
-148.9704074063338
 10
120.6944417015972
 20
-149.103732601613
 10
120.5800645314869
 20
-149.1853813646134
 10
120.4191785723258
 20
-149.1853813646134
 10
120.1442599526028
 20
-149.1853813646134
 10
120.0088677000325
 20
-148.9728189731735
 10
120.0088677000325
 20
-148.6789523282817
 10
120.0088677000325
 20
-148.3757839255797
 10
120.1528726913159
 20
-148.1725232919499
 10
120.4191785723258
 20
-148.1725232919499
 10
120.5800645314869
 20
-148.1725232919499
 10
120.6944417015972
 20
-148.255894602693
 10
120.7536973439435
 20
-148.3895643075207
 10
120.8043402475767
 20
-148.2944796721278
 10
120.8994248829696
 20
-148.1249809742535
 10
121.1619411589456
 20
-148.1249809742535
 10
121.5364230381923
 20
-148.1249809742535
 10
121.6525227560452
 20
-148.4233262432761
 10
121.6525227560452
 20
-148.6789523282817
 97
        0
 97
        0
 92
        1
 93
        1
 72
     4
 94
        3
 73
     0
 74
     1
 95
       17
 96
       13
 40
0.0
 40
0.0
 40
0.0
 40
0.0
 40
1.0
 40
1.0
 40
1.0
 40
2.0
 40
2.0
 40
2.0
 40
3.0
 40
3.0
 40
3.0
 40
4.0
 40
4.0
 40
4.0
 40
4.0
 10
120.201448537658
 20
-148.6789523282817
 10
120.201448537658
 20
-148.8553412171264
 10
120.2965331730509
 20
-148.94560271884
 10
120.4319254256212
 20
-148.94560271884
 10
120.5545708248961
 20
-148.94560271884
 10
120.6730821095887
 20
-148.8687770895189
 10
120.6730821095887
 20
-148.6789523282817
 10
120.6730821095887
 20
-148.4887830574959
 10
120.5545708248961
 20
-148.4119574281748
 10
120.4319254256212
 20
-148.4119574281748
 10
120.2965331730509
 20
-148.4119574281748
 10
120.201448537658
 20
-148.504630496728
 10
120.201448537658
 20
-148.6789523282817
 97
        0
 97
        0
 92
        1
 93
        1
 72
     4
 94
        3
 73
     0
 74
     1
 95
       17
 96
       13
 40
0.0
 40
0.0
 40
0.0
 40
0.0
 40
1.0
 40
1.0
 40
1.0
 40
2.0
 40
2.0
 40
2.0
 40
3.0
 40
3.0
 40
3.0
 40
4.0
 40
4.0
 40
4.0
 40
4.0
 10
120.8615288326318
 20
-148.6789523282817
 10
120.8615288326318
 20
-148.8326035869238
 10
120.9483452388601
 20
-148.9952120938276
 10
121.1512613629414
 20
-148.9952120938276
 10
121.3565890538623
 20
-148.9952120938276
 10
121.4578748611286
 20
-148.8598198412573
 10
121.4578748611286
 20
-148.6789523282817
 10
121.4578748611286
 20
-148.4798258092342
 10
121.3352294618537
 20
-148.3623480531872
 10
121.1574625348148
 20
-148.3623480531872
 10
120.9355983855647
 20
-148.3623480531872
 10
120.8615288326318
 20
-148.5363253751923
 10
120.8615288326318
 20
-148.6789523282817
 97
        0
 97
        0
 75
     2
 76
     1
 98
        0
  0
POLYLINE
  5
116
330
10E
100
AcDbEntity
  8
_U+30EC_U+30A4_U+30E4_U+30FC 1
370
     0
100
AcDb2dPolyline
 66
     1
 10
0.0
 20
0.0
 30
0.0
  0
VERTEX
  5
117
330
116
100
AcDbEntity
  8
_U+30EC_U+30A4_U+30E4_U+30FC 1
370
     0
100
AcDbVertex
100
AcDb2dVertex
 10
121.601879852412
 20
-147.8914035003535
 30
0.0
  0
VERTEX
  5
118
330
116
100
AcDbEntity
  8
_U+30EC_U+30A4_U+30E4_U+30FC 1
370
     0
100
AcDbVertex
100
AcDb2dVertex
 10
121.3500433724403
 20
-147.8914035003535
 30
0.0
  0
VERTEX
  5
119
330
116
100
AcDbEntity
  8
_U+30EC_U+30A4_U+30E4_U+30FC 1
370
     0
100
AcDbVertex
100
AcDb2dVertex
 10
121.3500433724403
 20
-147.6223415429555
 30
0.0
  0
VERTEX
  5
11A
330
116
100
AcDbEntity
  8
_U+30EC_U+30A4_U+30E4_U+30FC 1
370
     0
100
AcDbVertex
100
AcDb2dVertex
 10
121.601879852412
 20
-147.6223415429555
 30
0.0
  0
VERTEX
  5
11B
330
116
100
AcDbEntity
  8
_U+30EC_U+30A4_U+30E4_U+30FC 1
370
     0
100
AcDbVertex
100
AcDb2dVertex
 10
121.601879852412
 20
-147.8914035003535
 30
0.0
  0
SEQEND
  5
11C
330
116
100
AcDbEntity
  8
_U+30EC_U+30A4_U+30E4_U+30FC 1
370
     0
  0
HATCH
  5
11D
330
10E
100
AcDbEntity
  8
_U+30EC_U+30A4_U+30E4_U+30FC 1
 62
   179
420
  2234388
100
AcDbHatch
 10
0.0
 20
0.0
 30
0.0
210
0.0
220
0.0
230
1.0
  2
SOLID
 70
     1
 71
     0
 91
        1
 92
        1
 93
        4
 72
     1
 10
121.601879852412
 20
-147.8914035003535
 11
121.3500433724403
 21
-147.8914035003535
 72
     1
 10
121.3500433724403
 20
-147.8914035003535
 11
121.3500433724403
 21
-147.6223415429555
 72
     1
 10
121.3500433724403
 20
-147.6223415429555
 11
121.601879852412
 21
-147.6223415429555
 72
     1
 10
121.601879852412
 20
-147.6223415429555
 11
121.601879852412
 21
-147.8914035003535
 97
        0
 75
     2
 76
     1
 98
        0
  0
SPLINE
  5
11E
330
10E
100
AcDbEntity
  8
_U+30EC_U+30A4_U+30E4_U+30FC 1
370
     0
100
AcDbSpline
210
0.0
220
0.0
230
1.0
 70
    11
 71
     3
 72
    53
 73
    49
 74
     0
 42
0.0000000001
 43
0.0000000001
 12
1.0
 22
0.0
 32
0.0
 13
1.0
 23
0.0
 33
0.0
 40
0.0
 40
0.0
 40
0.0
 40
0.0
 40
1.0
 40
1.0
 40
1.0
 40
2.0
 40
2.0
 40
2.0
 40
3.0
 40
3.0
 40
3.0
 40
4.0
 40
4.0
 40
4.0
 40
5.0
 40
5.0
 40
5.0
 40
6.0
 40
6.0
 40
6.0
 40
7.0
 40
7.0
 40
7.0
 40
8.0
 40
8.0
 40
8.0
 40
9.0
 40
9.0
 40
9.0
 40
10.0
 40
10.0
 40
10.0
 40
11.0
 40
11.0
 40
11.0
 40
12.0
 40
12.0
 40
12.0
 40
13.0
 40
13.0
 40
13.0
 40
14.0
 40
14.0
 40
14.0
 40
15.0
 40
15.0
 40
15.0
 40
16.0
 40
16.0
 40
16.0
 40
16.0
 10
121.6525227560452
 20
-146.8554632879389
 30
0.0
 10
121.6525227560452
 20
-146.9391791082305
 30
0.0
 10
121.6356417881675
 20
-147.0473551064673
 30
0.0
 10
121.5722520312389
 20
-147.1562201238012
 30
0.0
 10
121.4623534852594
 20
-147.3415662609077
 30
0.0
 10
121.3310953472714
 20
-147.3639593815618
 30
0.0
 10
121.2232638585831
 20
-147.3842854449248
 30
0.0
 10
121.2232638585831
 20
-147.3842854449248
 30
0.0
 10
121.2232638585831
 20
-147.146918365991
 30
0.0
 10
121.2232638585831
 20
-147.146918365991
 30
0.0
 10
121.422045868082
 20
-147.0883517427418
 30
0.0
 10
121.4516736892551
 20
-146.952614980623
 30
0.0
 10
121.4516736892551
 20
-146.8530517210992
 30
0.0
 10
121.4516736892551
 20
-146.7038790865879
 30
0.0
 10
121.3521104297314
 20
-146.5409260701356
 30
0.0
 10
121.1195664844771
 20
-146.5409260701356
 30
0.0
 10
120.863595889923
 20
-146.5409260701356
 30
0.0
 10
120.7936604515724
 20
-146.7331623982126
 30
0.0
 10
120.7936604515724
 20
-146.8620089693609
 30
0.0
 10
120.7936604515724
 20
-146.8961154146649
 30
0.0
 10
120.7936604515724
 20
-147.0473551064673
 30
0.0
 10
120.9228515322693
 20
-147.1424397418602
 30
0.0
 10
120.9228515322693
 20
-147.1424397418602
 30
0.0
 10
120.9039035071004
 20
-147.3301974458063
 30
0.0
 10
120.9039035071004
 20
-147.3301974458063
 30
0.0
 10
120.9039035071004
 20
-147.3301974458063
 30
0.0
 10
120.0574435463745
 20
-147.201350874658
 30
0.0
 10
120.0574435463745
 20
-147.201350874658
 30
0.0
 10
120.0574435463745
 20
-147.201350874658
 30
0.0
 10
120.0574435463745
 20
-146.3693603149702
 30
0.0
 10
120.0574435463745
 20
-146.3693603149702
 30
0.0
 10
120.0574435463745
 20
-146.3693603149702
 30
0.0
 10
120.2520914412911
 20
-146.3693603149702
 30
0.0
 10
120.2520914412911
 20
-146.3693603149702
 30
0.0
 10
120.2520914412911
 20
-146.3693603149702
 30
0.0
 10
120.2520914412911
 20
-147.0270290431044
 30
0.0
 10
120.2520914412911
 20
-147.0270290431044
 30
0.0
 10
120.2520914412911
 20
-147.0270290431044
 30
0.0
 10
120.6751491668798
 20
-147.0973089910034
 30
0.0
 10
120.6751491668798
 20
-147.0973089910034
 30
0.0
 10
120.6413872311244
 20
-147.0318521767837
 30
0.0
 10
120.601079613947
 20
-146.9436577323613
 30
0.0
 10
120.601079613947
 20
-146.8168782185041
 30
0.0
 10
120.601079613947
 20
-146.5457492038149
 30
0.0
 10
120.787459279699
 20
-146.2925346856491
 30
0.0
 10
121.1006184593082
 20
-146.2925346856491
 30
0.0
 10
121.4179117534997
 20
-146.2925346856491
 30
0.0
 10
121.6525227560452
 20
-146.531968821874
 30
0.0
 10
121.6525227560452
 20
-146.8554632879389
 30
0.0
  0
HATCH
  5
11F
330
10E
100
AcDbEntity
  8
_U+30EC_U+30A4_U+30E4_U+30FC 1
 62
   179
420
  2234388
100
AcDbHatch
 10
0.0
 20
0.0
 30
0.0
210
0.0
220
0.0
230
1.0
  2
SOLID
 70
     1
 71
     0
 91
        1
 92
        1
 93
        1
 72
     4
 94
        3
 73
     0
 74
     1
 95
       53
 96
       49
 40
0.0
 40
0.0
 40
0.0
 40
0.0
 40
1.0
 40
1.0
 40
1.0
 40
2.0
 40
2.0
 40
2.0
 40
3.0
 40
3.0
 40
3.0
 40
4.0
 40
4.0
 40
4.0
 40
5.0
 40
5.0
 40
5.0
 40
6.0
 40
6.0
 40
6.0
 40
7.0
 40
7.0
 40
7.0
 40
8.0
 40
8.0
 40
8.0
 40
9.0
 40
9.0
 40
9.0
 40
10.0
 40
10.0
 40
10.0
 40
11.0
 40
11.0
 40
11.0
 40
12.0
 40
12.0
 40
12.0
 40
13.0
 40
13.0
 40
13.0
 40
14.0
 40
14.0
 40
14.0
 40
15.0
 40
15.0
 40
15.0
 40
16.0
 40
16.0
 40
16.0
 40
16.0
 10
121.6525227560452
 20
-146.8554632879389
 10
121.6525227560452
 20
-146.9391791082305
 10
121.6356417881675
 20
-147.0473551064673
 10
121.5722520312389
 20
-147.1562201238012
 10
121.4623534852594
 20
-147.3415662609077
 10
121.3310953472714
 20
-147.3639593815618
 10
121.2232638585831
 20
-147.3842854449248
 10
121.2232638585831
 20
-147.3842854449248
 10
121.2232638585831
 20
-147.146918365991
 10
121.2232638585831
 20
-147.146918365991
 10
121.422045868082
 20
-147.0883517427418
 10
121.4516736892551
 20
-146.952614980623
 10
121.4516736892551
 20
-146.8530517210992
 10
121.4516736892551
 20
-146.7038790865879
 10
121.3521104297314
 20
-146.5409260701356
 10
121.1195664844771
 20
-146.5409260701356
 10
120.863595889923
 20
-146.5409260701356
 10
120.7936604515724
 20
-146.7331623982126
 10
120.7936604515724
 20
-146.8620089693609
 10
120.7936604515724
 20
-146.8961154146649
 10
120.7936604515724
 20
-147.0473551064673
 10
120.9228515322693
 20
-147.1424397418602
 10
120.9228515322693
 20
-147.1424397418602
 10
120.9039035071004
 20
-147.3301974458063
 10
120.9039035071004
 20
-147.3301974458063
 10
120.9039035071004
 20
-147.3301974458063
 10
120.0574435463745
 20
-147.201350874658
 10
120.0574435463745
 20
-147.201350874658
 10
120.0574435463745
 20
-147.201350874658
 10
120.0574435463745
 20
-146.3693603149702
 10
120.0574435463745
 20
-146.3693603149702
 10
120.0574435463745
 20
-146.3693603149702
 10
120.2520914412911
 20
-146.3693603149702
 10
120.2520914412911
 20
-146.3693603149702
 10
120.2520914412911
 20
-146.3693603149702
 10
120.2520914412911
 20
-147.0270290431044
 10
120.2520914412911
 20
-147.0270290431044
 10
120.2520914412911
 20
-147.0270290431044
 10
120.6751491668798
 20
-147.0973089910034
 10
120.6751491668798
 20
-147.0973089910034
 10
120.6413872311244
 20
-147.0318521767837
 10
120.601079613947
 20
-146.9436577323613
 10
120.601079613947
 20
-146.8168782185041
 10
120.601079613947
 20
-146.5457492038149
 10
120.787459279699
 20
-146.2925346856491
 10
121.1006184593082
 20
-146.2925346856491
 10
121.4179117534997
 20
-146.2925346856491
 10
121.6525227560452
 20
-146.531968821874
 10
121.6525227560452
 20
-146.8554632879389
 97
        0
 97
        0
 75
     2
 76
     1
 98
        0
  0
ENDBLK
  5
111
330
10E
100
AcDbEntity
  8
0
100
AcDbBlockEnd
  0
BLOCK
  5
122
330
120
100
AcDbEntity
  8
0
100
AcDbBlockBegin
  2
block 9
 70
     0
 10
0.0
 20
0.0
 30
0.0
  3
block 9
  1

  0
SPLINE
  5
124
330
120
100
AcDbEntity
  8
_U+30EC_U+30A4_U+30E4_U+30FC 1
 62
   179
420
  2234388
370
     9
100
AcDbSpline
210
0.0
220
0.0
230
1.0
 70
    11
 71
     3
 72
    17
 73
    13
 74
     0
 42
0.0000000001
 43
0.0000000001
 12
1.0
 22
0.0
 32
0.0
 13
1.0
 23
0.0
 33
0.0
 40
0.0
 40
0.0
 40
0.0
 40
0.0
 40
1.0
 40
1.0
 40
1.0
 40
2.0
 40
2.0
 40
2.0
 40
3.0
 40
3.0
 40
3.0
 40
4.0
 40
4.0
 40
4.0
 40
4.0
 10
122.4373102096973
 20
-142.5060296865957
 30
0.0
 10
122.4373102096973
 20
-142.4509257977205
 30
0.0
 10
122.3925427108394
 20
-142.4061230199541
 30
0.0
 10
122.3374035455795
 20
-142.4061230199541
 30
0.0
 10
122.2823027472074
 20
-142.4061230199541
 30
0.0
 10
122.2374999694406
 20
-142.4509257977205
 30
0.0
 10
122.2374999694406
 20
-142.5060296865957
 30
0.0
 10
122.2374999694406
 20
-142.5611688532485
 30
0.0
 10
122.2823027472074
 20
-142.6059363532373
 30
0.0
 10
122.3374035455795
 20
-142.6059363532373
 30
0.0
 10
122.3925427108394
 20
-142.6059363532373
 30
0.0
 10
122.4373102096973
 20
-142.5611688532485
 30
0.0
 10
122.4373102096973
 20
-142.5060296865957
 30
0.0
  0
POLYLINE
  5
125
330
120
100
AcDbEntity
  8
_U+30EC_U+30A4_U+30E4_U+30FC 1
 62
   179
420
  2234388
370
     9
100
AcDb2dPolyline
 66
     1
 10
0.0
 20
0.0
 30
0.0
  0
VERTEX
  5
126
330
125
100
AcDbEntity
  8
_U+30EC_U+30A4_U+30E4_U+30FC 1
 62
   179
420
  2234388
370
     9
100
AcDbVertex
100
AcDb2dVertex
 10
122.3374035455795
 20
-142.5060296865957
 30
0.0
  0
VERTEX
  5
127
330
125
100
AcDbEntity
  8
_U+30EC_U+30A4_U+30E4_U+30FC 1
 62
   179
420
  2234388
370
     9
100
AcDbVertex
100
AcDb2dVertex
 10
122.3374035455795
 20
-138.7357171875383
 30
0.0
  0
SEQEND
  5
128
330
125
100
AcDbEntity
  8
_U+30EC_U+30A4_U+30E4_U+30FC 1
 62
   179
420
  2234388
370
     9
  0
POLYLINE
  5
129
330
120
100
AcDbEntity
  8
_U+30EC_U+30A4_U+30E4_U+30FC 1
 62
   179
420
  2234388
370
     9
100
AcDb2dPolyline
 66
     1
 10
0.0
 20
0.0
 30
0.0
  0
VERTEX
  5
12A
330
129
100
AcDbEntity
  8
_U+30EC_U+30A4_U+30E4_U+30FC 1
 62
   179
420
  2234388
370
     9
100
AcDbVertex
100
AcDb2dVertex
 10
122.3374035455795
 20
-142.5060296865957
 30
0.0
  0
VERTEX
  5
12B
330
129
100
AcDbEntity
  8
_U+30EC_U+30A4_U+30E4_U+30FC 1
 62
   179
420
  2234388
370
     9
100
AcDbVertex
100
AcDb2dVertex
 10
122.3374035455795
 20
-143.5058019085679
 30
0.0
  0
SEQEND
  5
12C
330
129
100
AcDbEntity
  8
_U+30EC_U+30A4_U+30E4_U+30FC 1
 62
   179
420
  2234388
370
     9
  0
POLYLINE
  5
12D
330
120
100
AcDbEntity
  8
_U+30EC_U+30A4_U+30E4_U+30FC 1
 62
   179
420
  2234388
370
     9
100
AcDb2dPolyline
 66
     1
 10
0.0
 20
0.0
 30
0.0
  0
VERTEX
  5
12E
330
12D
100
AcDbEntity
  8
_U+30EC_U+30A4_U+30E4_U+30FC 1
 62
   179
420
  2234388
370
     9
100
AcDbVertex
100
AcDb2dVertex
 10
120.8773621939393
 20
-142.5060296865957
 30
0.0
  0
VERTEX
  5
12F
330
12D
100
AcDbEntity
  8
_U+30EC_U+30A4_U+30E4_U+30FC 1
 62
   179
420
  2234388
370
     9
100
AcDbVertex
100
AcDb2dVertex
 10
123.3375285200642
 20
-142.5060296865957
 30
0.0
  0
SEQEND
  5
130
330
12D
100
AcDbEntity
  8
_U+30EC_U+30A4_U+30E4_U+30FC 1
 62
   179
420
  2234388
370
     9
  0
INSERT
  5
132
330
120
100
AcDbEntity
  8
_U+30EC_U+30A4_U+30E4_U+30FC 1
100
AcDbBlockReference
  2
block 10
 10
0.0
 20
0.0
 30
0.0
  0
ENDBLK
  5
123
330
120
100
AcDbEntity
  8
0
100
AcDbBlockEnd
  0
BLOCK
  5
133
330
131
100
AcDbEntity
  8
0
100
AcDbBlockBegin
  2
block 10
 70
     0
 10
0.0
 20
0.0
 30
0.0
  3
block 10
  1

  0
SPLINE
  5
135
330
131
100
AcDbEntity
  8
_U+30EC_U+30A4_U+30E4_U+30FC 1
370
     0
100
AcDbSpline
210
0.0
220
0.0
230
1.0
 70
    11
 71
     3
 72
    26
 73
    22
 74
     0
 42
0.0000000001
 43
0.0000000001
 12
1.0
 22
0.0
 32
0.0
 13
1.0
 23
0.0
 33
0.0
 40
0.0
 40
0.0
 40
0.0
 40
0.0
 40
1.0
 40
1.0
 40
1.0
 40
2.0
 40
2.0
 40
2.0
 40
3.0
 40
3.0
 40
3.0
 40
4.0
 40
4.0
 40
4.0
 40
5.0
 40
5.0
 40
5.0
 40
6.0
 40
6.0
 40
6.0
 40
7.0
 40
7.0
 40
7.0
 40
7.0
 10
121.7414062195647
 20
-139.5151705922914
 30
0.0
 10
121.7414062195647
 20
-139.5151705922914
 30
0.0
 10
120.6372531165421
 20
-139.5151705922914
 30
0.0
 10
120.6372531165421
 20
-139.5151705922914
 30
0.0
 10
120.6372531165421
 20
-139.5151705922914
 30
0.0
 10
120.6372531165421
 20
-139.8679483699809
 30
0.0
 10
120.6372531165421
 20
-139.8679483699809
 30
0.0
 10
120.6372531165421
 20
-139.8679483699809
 30
0.0
 10
120.4891140106763
 20
-139.8679483699809
 30
0.0
 10
120.4891140106763
 20
-139.8679483699809
 30
0.0
 10
120.4743001000898
 20
-139.5129312802259
 30
0.0
 10
120.3113470836374
 20
-139.4631496504641
 30
0.0
 10
120.1969699135272
 20
-139.431627026774
 30
0.0
 10
120.1969699135272
 20
-139.431627026774
 30
0.0
 10
120.1969699135272
 20
-139.2755642012922
 30
0.0
 10
120.1969699135272
 20
-139.2755642012922
 30
0.0
 10
120.1969699135272
 20
-139.2755642012922
 30
0.0
 10
121.7414062195647
 20
-139.2755642012922
 30
0.0
 10
121.7414062195647
 20
-139.2755642012922
 30
0.0
 10
121.7414062195647
 20
-139.2755642012922
 30
0.0
 10
121.7414062195647
 20
-139.5151705922914
 30
0.0
 10
121.7414062195647
 20
-139.5151705922914
 30
0.0
  0
HATCH
  5
136
330
131
100
AcDbEntity
  8
_U+30EC_U+30A4_U+30E4_U+30FC 1
 62
   179
420
  2234388
100
AcDbHatch
 10
0.0
 20
0.0
 30
0.0
210
0.0
220
0.0
230
1.0
  2
SOLID
 70
     1
 71
     0
 91
        1
 92
        1
 93
        1
 72
     4
 94
        3
 73
     0
 74
     1
 95
       26
 96
       22
 40
0.0
 40
0.0
 40
0.0
 40
0.0
 40
1.0
 40
1.0
 40
1.0
 40
2.0
 40
2.0
 40
2.0
 40
3.0
 40
3.0
 40
3.0
 40
4.0
 40
4.0
 40
4.0
 40
5.0
 40
5.0
 40
5.0
 40
6.0
 40
6.0
 40
6.0
 40
7.0
 40
7.0
 40
7.0
 40
7.0
 10
121.7414062195647
 20
-139.5151705922914
 10
121.7414062195647
 20
-139.5151705922914
 10
120.6372531165421
 20
-139.5151705922914
 10
120.6372531165421
 20
-139.5151705922914
 10
120.6372531165421
 20
-139.5151705922914
 10
120.6372531165421
 20
-139.8679483699809
 10
120.6372531165421
 20
-139.8679483699809
 10
120.6372531165421
 20
-139.8679483699809
 10
120.4891140106763
 20
-139.8679483699809
 10
120.4891140106763
 20
-139.8679483699809
 10
120.4743001000898
 20
-139.5129312802259
 10
120.3113470836374
 20
-139.4631496504641
 10
120.1969699135272
 20
-139.431627026774
 10
120.1969699135272
 20
-139.431627026774
 10
120.1969699135272
 20
-139.2755642012922
 10
120.1969699135272
 20
-139.2755642012922
 10
120.1969699135272
 20
-139.2755642012922
 10
121.7414062195647
 20
-139.2755642012922
 10
121.7414062195647
 20
-139.2755642012922
 10
121.7414062195647
 20
-139.2755642012922
 10
121.7414062195647
 20
-139.5151705922914
 10
121.7414062195647
 20
-139.5151705922914
 97
        0
 97
        0
 75
     2
 76
     1
 98
        0
  0
ENDBLK
  5
134
330
131
100
AcDbEntity
  8
0
100
AcDbBlockEnd
  0
ENDSEC
  0
SECTION
  2
ENTITIES
  0
POLYLINE
  5
41
330
1F
100
AcDbEntity
  8
_U+30EC_U+30A4_U+30E4_U+30FC 1
 62
   179
420
  2234388
370
    25
100
AcDb2dPolyline
 66
     1
 10
0.0
 20
0.0
 30
0.0
  0
VERTEX
  5
42
330
41
100
AcDbEntity
  8
_U+30EC_U+30A4_U+30E4_U+30FC 1
 62
   179
420
  2234388
370
    25
100
AcDbVertex
100
AcDb2dVertex
 10
94.258656761928
 20
-143.5058019085679
 30
0.0
  0
VERTEX
  5
43
330
41
100
AcDbEntity
  8
_U+30EC_U+30A4_U+30E4_U+30FC 1
 62
   179
420
  2234388
370
    25
100
AcDbVertex
100
AcDb2dVertex
 10
118.3369742031945
 20
-143.5058019085679
 30
0.0
  0
SEQEND
  5
44
330
41
100
AcDbEntity
  8
_U+30EC_U+30A4_U+30E4_U+30FC 1
 62
   179
420
  2234388
370
    25
  0
POLYLINE
  5
45
330
1F
100
AcDbEntity
  8
_U+30EC_U+30A4_U+30E4_U+30FC 1
 62
   179
420
  2234388
370
    25
100
AcDb2dPolyline
 66
     1
 10
0.0
 20
0.0
 30
0.0
  0
VERTEX
  5
46
330
45
100
AcDbEntity
  8
_U+30EC_U+30A4_U+30E4_U+30FC 1
 62
   179
420
  2234388
370
    25
100
AcDbVertex
100
AcDb2dVertex
 10
118.3369742031945
 20
-142.5053241310405
 30
0.0
  0
VERTEX
  5
47
330
45
100
AcDbEntity
  8
_U+30EC_U+30A4_U+30E4_U+30FC 1
 62
   179
420
  2234388
370
    25
100
AcDbVertex
100
AcDb2dVertex
 10
118.3369742031945
 20
-143.5058019085679
 30
0.0
  0
SEQEND
  5
48
330
45
100
AcDbEntity
  8
_U+30EC_U+30A4_U+30E4_U+30FC 1
 62
   179
420
  2234388
370
    25
  0
POLYLINE
  5
49
330
1F
100
AcDbEntity
  8
_U+30EC_U+30A4_U+30E4_U+30FC 1
 62
   179
420
  2234388
370
    25
100
AcDb2dPolyline
 66
     1
 10
0.0
 20
0.0
 30
0.0
  0
VERTEX
  5
4A
330
49
100
AcDbEntity
  8
_U+30EC_U+30A4_U+30E4_U+30FC 1
 62
   179
420
  2234388
370
    25
100
AcDbVertex
100
AcDb2dVertex
 10
93.33744817431887
 20
-142.5053241310405
 30
0.0
  0
VERTEX
  5
4B
330
49
100
AcDbEntity
  8
_U+30EC_U+30A4_U+30E4_U+30FC 1
 62
   179
420
  2234388
370
    25
100
AcDbVertex
100
AcDb2dVertex
 10
118.3369742031945
 20
-142.5053241310405
 30
0.0
  0
SEQEND
  5
4C
330
49
100
AcDbEntity
  8
_U+30EC_U+30A4_U+30E4_U+30FC 1
 62
   179
420
  2234388
370
    25
  0
POLYLINE
  5
4D
330
1F
100
AcDbEntity
  8
_U+30EC_U+30A4_U+30E4_U+30FC 1
 62
   179
420
  2234388
370
    25
100
AcDb2dPolyline
 66
     1
 10
0.0
 20
0.0
 30
0.0
  0
VERTEX
  5
4E
330
4D
100
AcDbEntity
  8
_U+30EC_U+30A4_U+30E4_U+30FC 1
 62
   179
420
  2234388
370
    25
100
AcDbVertex
100
AcDb2dVertex
 10
93.43873067173494
 20
-152.206042739726
 30
0.0
  0
VERTEX
  5
4F
330
4D
100
AcDbEntity
  8
_U+30EC_U+30A4_U+30E4_U+30FC 1
 62
   179
420
  2234388
370
    25
100
AcDbVertex
100
AcDb2dVertex
 10
102.3372323891597
 20
-152.206042739726
 30
0.0
  0
SEQEND
  5
50
330
4D
100
AcDbEntity
  8
_U+30EC_U+30A4_U+30E4_U+30FC 1
 62
   179
420
  2234388
370
    25
  0
POLYLINE
  5
51
330
1F
100
AcDbEntity
  8
_U+30EC_U+30A4_U+30E4_U+30FC 1
 62
   179
420
  2234388
370
    25
100
AcDb2dPolyline
 66
     1
 10
0.0
 20
0.0
 30
0.0
  0
VERTEX
  5
52
330
51
100
AcDbEntity
  8
_U+30EC_U+30A4_U+30E4_U+30FC 1
 62
   179
420
  2234388
370
    25
100
AcDbVertex
100
AcDb2dVertex
 10
102.3372323891597
 20
-152.206042739726
 30
0.0
  0
VERTEX
  5
53
330
51
100
AcDbEntity
  8
_U+30EC_U+30A4_U+30E4_U+30FC 1
 62
   179
420
  2234388
370
    25
100
AcDbVertex
100
AcDb2dVertex
 10
102.3372323891597
 20
-152.5064682952065
 30
0.0
  0
SEQEND
  5
54
330
51
100
AcDbEntity
  8
_U+30EC_U+30A4_U+30E4_U+30FC 1
 62
   179
420
  2234388
370
    25
  0
POLYLINE
  5
55
330
1F
100
AcDbEntity
  8
_U+30EC_U+30A4_U+30E4_U+30FC 1
 62
   179
420
  2234388
370
    25
100
AcDb2dPolyline
 66
     1
 10
0.0
 20
0.0
 30
0.0
  0
VERTEX
  5
56
330
55
100
AcDbEntity
  8
_U+30EC_U+30A4_U+30E4_U+30FC 1
 62
   179
420
  2234388
370
    25
100
AcDbVertex
100
AcDb2dVertex
 10
97.32740001697117
 20
-152.8950530173318
 30
0.0
  0
VERTEX
  5
57
330
55
100
AcDbEntity
  8
_U+30EC_U+30A4_U+30E4_U+30FC 1
 62
   179
420
  2234388
370
    25
100
AcDbVertex
100
AcDb2dVertex
 10
102.3372323891597
 20
-152.5064682952065
 30
0.0
  0
SEQEND
  5
58
330
55
100
AcDbEntity
  8
_U+30EC_U+30A4_U+30E4_U+30FC 1
 62
   179
420
  2234388
370
    25
  0
POLYLINE
  5
59
330
1F
100
AcDbEntity
  8
_U+30EC_U+30A4_U+30E4_U+30FC 1
 62
   179
420
  2234388
370
    25
100
AcDb2dPolyline
 66
     1
 10
0.0
 20
0.0
 30
0.0
  0
VERTEX
  5
5A
330
59
100
AcDbEntity
  8
_U+30EC_U+30A4_U+30E4_U+30FC 1
 62
   179
420
  2234388
370
    25
100
AcDbVertex
100
AcDb2dVertex
 10
92.95299096190497
 20
-152.9343171839888
 30
0.0
  0
VERTEX
  5
5B
330
59
100
AcDbEntity
  8
_U+30EC_U+30A4_U+30E4_U+30FC 1
 62
   179
420
  2234388
370
    25
100
AcDbVertex
100
AcDb2dVertex
 10
93.63304066677767
 20
-153.3015941283415
 30
0.0
  0
SEQEND
  5
5C
330
59
100
AcDbEntity
  8
_U+30EC_U+30A4_U+30E4_U+30FC 1
 62
   179
420
  2234388
370
    25
  0
POLYLINE
  5
5D
330
1F
100
AcDbEntity
  8
_U+30EC_U+30A4_U+30E4_U+30FC 1
 62
   179
420
  2234388
370
    25
100
AcDb2dPolyline
 66
     1
 10
0.0
 20
0.0
 30
0.0
  0
VERTEX
  5
5E
330
5D
100
AcDbEntity
  8
_U+30EC_U+30A4_U+30E4_U+30FC 1
 62
   179
420
  2234388
370
    25
100
AcDbVertex
100
AcDb2dVertex
 10
93.63304066677767
 20
-153.3015941283415
 30
0.0
  0
VERTEX
  5
5F
330
5D
100
AcDbEntity
  8
_U+30EC_U+30A4_U+30E4_U+30FC 1
 62
   179
420
  2234388
370
    25
100
AcDbVertex
100
AcDb2dVertex
 10
94.24902592884037
 20
-152.8337402395692
 30
0.0
  0
SEQEND
  5
60
330
5D
100
AcDbEntity
  8
_U+30EC_U+30A4_U+30E4_U+30FC 1
 62
   179
420
  2234388
370
    25
  0
POLYLINE
  5
61
330
1F
100
AcDbEntity
  8
_U+30EC_U+30A4_U+30E4_U+30FC 1
 62
   179
420
  2234388
370
    25
100
AcDb2dPolyline
 66
     1
 10
0.0
 20
0.0
 30
0.0
  0
VERTEX
  5
62
330
61
100
AcDbEntity
  8
_U+30EC_U+30A4_U+30E4_U+30FC 1
 62
   179
420
  2234388
370
    25
100
AcDbVertex
100
AcDb2dVertex
 10
92.95299096190497
 20
-152.9343171839888
 30
0.0
  0
VERTEX
  5
63
330
61
100
AcDbEntity
  8
_U+30EC_U+30A4_U+30E4_U+30FC 1
 62
   179
420
  2234388
370
    25
100
AcDbVertex
100
AcDb2dVertex
 10
92.33700569984228
 20
-153.4021710727606
 30
0.0
  0
SEQEND
  5
64
330
61
100
AcDbEntity
  8
_U+30EC_U+30A4_U+30E4_U+30FC 1
 62
   179
420
  2234388
370
    25
  0
POLYLINE
  5
65
330
1F
100
AcDbEntity
  8
_U+30EC_U+30A4_U+30E4_U+30FC 1
 62
   179
420
  2234388
370
    25
100
AcDb2dPolyline
 66
     1
 10
0.0
 20
0.0
 30
0.0
  0
VERTEX
  5
66
330
65
100
AcDbEntity
  8
_U+30EC_U+30A4_U+30E4_U+30FC 1
 62
   179
420
  2234388
370
    25
100
AcDbVertex
100
AcDb2dVertex
 10
94.92907563371307
 20
-153.2009819061444
 30
0.0
  0
VERTEX
  5
67
330
65
100
AcDbEntity
  8
_U+30EC_U+30A4_U+30E4_U+30FC 1
 62
   179
420
  2234388
370
    25
100
AcDbVertex
100
AcDb2dVertex
 10
94.24902592884037
 20
-152.8337402395692
 30
0.0
  0
SEQEND
  5
68
330
65
100
AcDbEntity
  8
_U+30EC_U+30A4_U+30E4_U+30FC 1
 62
   179
420
  2234388
370
    25
  0
POLYLINE
  5
69
330
1F
100
AcDbEntity
  8
_U+30EC_U+30A4_U+30E4_U+30FC 1
 62
   179
420
  2234388
370
    25
100
AcDb2dPolyline
 66
     1
 10
0.0
 20
0.0
 30
0.0
  0
VERTEX
  5
6A
330
69
100
AcDbEntity
  8
_U+30EC_U+30A4_U+30E4_U+30FC 1
 62
   179
420
  2234388
370
    25
100
AcDbVertex
100
AcDb2dVertex
 10
95.54506089577575
 20
-152.733128017372
 30
0.0
  0
VERTEX
  5
6B
330
69
100
AcDbEntity
  8
_U+30EC_U+30A4_U+30E4_U+30FC 1
 62
   179
420
  2234388
370
    25
100
AcDbVertex
100
AcDb2dVertex
 10
94.92907563371307
 20
-153.2009819061444
 30
0.0
  0
SEQEND
  5
6C
330
69
100
AcDbEntity
  8
_U+30EC_U+30A4_U+30E4_U+30FC 1
 62
   179
420
  2234388
370
    25
  0
POLYLINE
  5
6D
330
1F
100
AcDbEntity
  8
_U+30EC_U+30A4_U+30E4_U+30FC 1
 62
   179
420
  2234388
370
    25
100
AcDb2dPolyline
 66
     1
 10
0.0
 20
0.0
 30
0.0
  0
VERTEX
  5
6E
330
6D
100
AcDbEntity
  8
_U+30EC_U+30A4_U+30E4_U+30FC 1
 62
   179
420
  2234388
370
    25
100
AcDbVertex
100
AcDb2dVertex
 10
95.54506089577575
 20
-152.733128017372
 30
0.0
  0
VERTEX
  5
6F
330
6D
100
AcDbEntity
  8
_U+30EC_U+30A4_U+30E4_U+30FC 1
 62
   179
420
  2234388
370
    25
100
AcDbVertex
100
AcDb2dVertex
 10
96.22514587842534
 20
-153.1004049617248
 30
0.0
  0
SEQEND
  5
70
330
6D
100
AcDbEntity
  8
_U+30EC_U+30A4_U+30E4_U+30FC 1
 62
   179
420
  2234388
370
    25
  0
POLYLINE
  5
71
330
1F
100
AcDbEntity
  8
_U+30EC_U+30A4_U+30E4_U+30FC 1
 62
   179
420
  2234388
370
    25
100
AcDb2dPolyline
 66
     1
 10
0.0
 20
0.0
 30
0.0
  0
VERTEX
  5
72
330
71
100
AcDbEntity
  8
_U+30EC_U+30A4_U+30E4_U+30FC 1
 62
   179
420
  2234388
370
    25
100
AcDbVertex
100
AcDb2dVertex
 10
96.84095475160363
 20
-152.632551072953
 30
0.0
  0
VERTEX
  5
73
330
71
100
AcDbEntity
  8
_U+30EC_U+30A4_U+30E4_U+30FC 1
 62
   179
420
  2234388
370
    25
100
AcDbVertex
100
AcDb2dVertex
 10
97.32740001697117
 20
-152.8950530173318
 30
0.0
  0
SEQEND
  5
74
330
71
100
AcDbEntity
  8
_U+30EC_U+30A4_U+30E4_U+30FC 1
 62
   179
420
  2234388
370
    25
  0
POLYLINE
  5
75
330
1F
100
AcDbEntity
  8
_U+30EC_U+30A4_U+30E4_U+30FC 1
 62
   179
420
  2234388
370
    25
100
AcDb2dPolyline
 66
     1
 10
0.0
 20
0.0
 30
0.0
  0
VERTEX
  5
76
330
75
100
AcDbEntity
  8
_U+30EC_U+30A4_U+30E4_U+30FC 1
 62
   179
420
  2234388
370
    25
100
AcDbVertex
100
AcDb2dVertex
 10
96.84095475160363
 20
-152.632551072953
 30
0.0
  0
VERTEX
  5
77
330
75
100
AcDbEntity
  8
_U+30EC_U+30A4_U+30E4_U+30FC 1
 62
   179
420
  2234388
370
    25
100
AcDbVertex
100
AcDb2dVertex
 10
96.22514587842534
 20
-153.1004049617248
 30
0.0
  0
SEQEND
  5
78
330
75
100
AcDbEntity
  8
_U+30EC_U+30A4_U+30E4_U+30FC 1
 62
   179
420
  2234388
370
    25
  0
POLYLINE
  5
79
330
1F
100
AcDbEntity
  8
_U+30EC_U+30A4_U+30E4_U+30FC 1
 62
   179
420
  2234388
370
     9
100
AcDb2dPolyline
 66
     1
 10
0.0
 20
0.0
 30
0.0
  0
VERTEX
  5
7A
330
79
100
AcDbEntity
  8
_U+30EC_U+30A4_U+30E4_U+30FC 1
 62
   179
420
  2234388
370
     9
100
AcDbVertex
100
AcDb2dVertex
 10
93.10595540244697
 20
-153.2499121839098
 30
0.0
  0
VERTEX
  5
7B
330
79
100
AcDbEntity
  8
_U+30EC_U+30A4_U+30E4_U+30FC 1
 62
   179
420
  2234388
370
     9
100
AcDbVertex
100
AcDb2dVertex
 10
89.16821466957377
 20
-156.7453049608137
 30
0.0
  0
SEQEND
  5
7C
330
79
100
AcDbEntity
  8
_U+30EC_U+30A4_U+30E4_U+30FC 1
 62
   179
420
  2234388
370
     9
  0
POLYLINE
  5
7D
330
1F
100
AcDbEntity
  8
_U+30EC_U+30A4_U+30E4_U+30FC 1
 62
   179
420
  2234388
370
    25
100
AcDb2dPolyline
 66
     1
 10
0.0
 20
0.0
 30
0.0
  0
VERTEX
  5
7E
330
7D
100
AcDbEntity
  8
_U+30EC_U+30A4_U+30E4_U+30FC 1
 62
   179
420
  2234388
370
    25
100
AcDbVertex
100
AcDb2dVertex
 10
93.33744817431887
 20
-142.5053241310405
 30
0.0
  0
VERTEX
  5
7F
330
7D
100
AcDbEntity
  8
_U+30EC_U+30A4_U+30E4_U+30FC 1
 62
   179
420
  2234388
370
    25
100
AcDbVertex
100
AcDb2dVertex
 10
92.33700569984228
 20
-153.4021710727606
 30
0.0
  0
SEQEND
  5
80
330
7D
100
AcDbEntity
  8
_U+30EC_U+30A4_U+30E4_U+30FC 1
 62
   179
420
  2234388
370
    25
  0
POLYLINE
  5
81
330
1F
100
AcDbEntity
  8
_U+30EC_U+30A4_U+30E4_U+30FC 1
 62
   179
420
  2234388
370
    25
100
AcDb2dPolyline
 66
     1
 10
0.0
 20
0.0
 30
0.0
  0
VERTEX
  5
82
330
81
100
AcDbEntity
  8
_U+30EC_U+30A4_U+30E4_U+30FC 1
 62
   179
420
  2234388
370
    25
100
AcDbVertex
100
AcDb2dVertex
 10
94.258656761928
 20
-143.5058019085679
 30
0.0
  0
VERTEX
  5
83
330
81
100
AcDbEntity
  8
_U+30EC_U+30A4_U+30E4_U+30FC 1
 62
   179
420
  2234388
370
    25
100
AcDbVertex
100
AcDb2dVertex
 10
93.43873067173494
 20
-152.206042739726
 30
0.0
  0
SEQEND
  5
84
330
81
100
AcDbEntity
  8
_U+30EC_U+30A4_U+30E4_U+30FC 1
 62
   179
420
  2234388
370
    25
  0
SPLINE
  5
85
330
1F
100
AcDbEntity
  8
_U+30EC_U+30A4_U+30E4_U+30FC 1
 62
   179
420
  2234388
370
     9
100
AcDbSpline
210
0.0
220
0.0
230
1.0
 70
    11
 71
     3
 72
    17
 73
    13
 74
     0
 42
0.0000000001
 43
0.0000000001
 12
1.0
 22
0.0
 32
0.0
 13
1.0
 23
0.0
 33
0.0
 40
0.0
 40
0.0
 40
0.0
 40
0.0
 40
1.0
 40
1.0
 40
1.0
 40
2.0
 40
2.0
 40
2.0
 40
3.0
 40
3.0
 40
3.0
 40
4.0
 40
4.0
 40
4.0
 40
4.0
 10
92.43691236396012
 20
-138.5056002431515
 30
0.0
 10
92.43691236396012
 20
-138.4504610764984
 30
0.0
 10
92.39210958732535
 20
-138.4056935765098
 30
0.0
 10
92.33700569984228
 20
-138.4056935765098
 30
0.0
 10
92.28186653458233
 20
-138.4056935765098
 30
0.0
 10
92.23709903572446
 20
-138.4504610764984
 30
0.0
 10
92.23709903572446
 20
-138.5056002431515
 30
0.0
 10
92.23709903572446
 20
-138.5607041320264
 30
0.0
 10
92.28186653458233
 20
-138.6055069097931
 30
0.0
 10
92.33700569984228
 20
-138.6055069097931
 30
0.0
 10
92.39210958732535
 20
-138.6055069097931
 30
0.0
 10
92.43691236396012
 20
-138.5607041320264
 30
0.0
 10
92.43691236396012
 20
-138.5056002431515
 30
0.0
  0
SPLINE
  5
86
330
1F
100
AcDbEntity
  8
_U+30EC_U+30A4_U+30E4_U+30FC 1
 62
   179
420
  2234388
370
     9
100
AcDbSpline
210
0.0
220
0.0
230
1.0
 70
    11
 71
     3
 72
    17
 73
    13
 74
     0
 42
0.0000000001
 43
0.0000000001
 12
1.0
 22
0.0
 32
0.0
 13
1.0
 23
0.0
 33
0.0
 40
0.0
 40
0.0
 40
0.0
 40
0.0
 40
1.0
 40
1.0
 40
1.0
 40
2.0
 40
2.0
 40
2.0
 40
3.0
 40
3.0
 40
3.0
 40
4.0
 40
4.0
 40
4.0
 40
4.0
 10
93.4373548384367
 20
-138.5056002431515
 30
0.0
 10
93.4373548384367
 20
-138.4504610764984
 30
0.0
 10
93.39258733957882
 20
-138.4056935765098
 30
0.0
 10
93.33744817431887
 20
-138.4056935765098
 30
0.0
 10
93.28163873129824
 20
-138.4056935765098
 30
0.0
 10
93.23687123244035
 20
-138.4504610764984
 30
0.0
 10
93.23687123244035
 20
-138.5056002431515
 30
0.0
 10
93.23687123244035
 20
-138.5607041320264
 30
0.0
 10
93.28163873129824
 20
-138.6055069097931
 30
0.0
 10
93.33744817431887
 20
-138.6055069097931
 30
0.0
 10
93.39258733957882
 20
-138.6055069097931
 30
0.0
 10
93.4373548384367
 20
-138.5607041320264
 30
0.0
 10
93.4373548384367
 20
-138.5056002431515
 30
0.0
  0
SPLINE
  5
87
330
1F
100
AcDbEntity
  8
_U+30EC_U+30A4_U+30E4_U+30FC 1
 62
   179
420
  2234388
370
     9
100
AcDbSpline
210
0.0
220
0.0
230
1.0
 70
    11
 71
     3
 72
    17
 73
    13
 74
     0
 42
0.0000000001
 43
0.0000000001
 12
1.0
 22
0.0
 32
0.0
 13
1.0
 23
0.0
 33
0.0
 40
0.0
 40
0.0
 40
0.0
 40
0.0
 40
1.0
 40
1.0
 40
1.0
 40
2.0
 40
2.0
 40
2.0
 40
3.0
 40
3.0
 40
3.0
 40
4.0
 40
4.0
 40
4.0
 40
4.0
 10
122.4373102096973
 20
-152.1068063508624
 30
0.0
 10
122.4373102096973
 20
-152.0517024619868
 30
0.0
 10
122.3925427108394
 20
-152.0068996842208
 30
0.0
 10
122.3367332678188
 20
-152.0068996842208
 30
0.0
 10
122.2815971916518
 20
-152.0068996842208
 30
0.0
 10
122.2367944138851
 20
-152.0517024619868
 30
0.0
 10
122.2367944138851
 20
-152.1068063508624
 30
0.0
 10
122.2367944138851
 20
-152.1619455175148
 30
0.0
 10
122.2815971916518
 20
-152.206713017504
 30
0.0
 10
122.3367332678188
 20
-152.206713017504
 30
0.0
 10
122.3925427108394
 20
-152.206713017504
 30
0.0
 10
122.4373102096973
 20
-152.1619455175148
 30
0.0
 10
122.4373102096973
 20
-152.1068063508624
 30
0.0
  0
SPLINE
  5
88
330
1F
100
AcDbEntity
  8
_U+30EC_U+30A4_U+30E4_U+30FC 1
 62
   179
420
  2234388
370
     9
100
AcDbSpline
210
0.0
220
0.0
230
1.0
 70
    11
 71
     3
 72
    17
 73
    13
 74
     0
 42
0.0000000001
 43
0.0000000001
 12
1.0
 22
0.0
 32
0.0
 13
1.0
 23
0.0
 33
0.0
 40
0.0
 40
0.0
 40
0.0
 40
0.0
 40
1.0
 40
1.0
 40
1.0
 40
2.0
 40
2.0
 40
2.0
 40
3.0
 40
3.0
 40
3.0
 40
4.0
 40
4.0
 40
4.0
 40
4.0
 10
106.4368981179018
 20
-152.1068063508624
 30
0.0
 10
106.4368981179018
 20
-152.0517024619868
 30
0.0
 10
106.3921333067356
 20
-152.0068996842208
 30
0.0
 10
106.336991453784
 20
-152.0068996842208
 30
0.0
 10
106.2818875663009
 20
-152.0068996842208
 30
0.0
 10
106.2370847896662
 20
-152.0517024619868
 30
0.0
 10
106.2370847896662
 20
-152.1068063508624
 30
0.0
 10
106.2370847896662
 20
-152.1619455175148
 30
0.0
 10
106.2818875663009
 20
-152.206713017504
 30
0.0
 10
106.336991453784
 20
-152.206713017504
 30
0.0
 10
106.3921333067356
 20
-152.206713017504
 30
0.0
 10
106.4368981179018
 20
-152.1619455175148
 30
0.0
 10
106.4368981179018
 20
-152.1068063508624
 30
0.0
  0
SPLINE
  5
89
330
1F
100
AcDbEntity
  8
_U+30EC_U+30A4_U+30E4_U+30FC 1
 62
   179
420
  2234388
370
     9
100
AcDbSpline
210
0.0
220
0.0
230
1.0
 70
    11
 71
     3
 72
    17
 73
    13
 74
     0
 42
0.0000000001
 43
0.0000000001
 12
1.0
 22
0.0
 32
0.0
 13
1.0
 23
0.0
 33
0.0
 40
0.0
 40
0.0
 40
0.0
 40
0.0
 40
1.0
 40
1.0
 40
1.0
 40
2.0
 40
2.0
 40
2.0
 40
3.0
 40
3.0
 40
3.0
 40
4.0
 40
4.0
 40
4.0
 40
4.0
 10
106.4368981179018
 20
-152.4072319063428
 30
0.0
 10
106.4368981179018
 20
-152.3514224619124
 30
0.0
 10
106.3921333067356
 20
-152.3066549619232
 30
0.0
 10
106.336991453784
 20
-152.3066549619232
 30
0.0
 10
106.2818875663009
 20
-152.3066549619232
 30
0.0
 10
106.2370847896662
 20
-152.3514224619124
 30
0.0
 10
106.2370847896662
 20
-152.4072319063428
 30
0.0
 10
106.2370847896662
 20
-152.4623710729953
 30
0.0
 10
106.2818875663009
 20
-152.5071385729845
 30
0.0
 10
106.336991453784
 20
-152.5071385729845
 30
0.0
 10
106.3921333067356
 20
-152.5071385729845
 30
0.0
 10
106.4368981179018
 20
-152.4623710729953
 30
0.0
 10
106.4368981179018
 20
-152.4072319063428
 30
0.0
  0
SPLINE
  5
8A
330
1F
100
AcDbEntity
  8
_U+30EC_U+30A4_U+30E4_U+30FC 1
 62
   179
420
  2234388
370
     9
100
AcDbSpline
210
0.0
220
0.0
230
1.0
 70
    11
 71
     3
 72
    17
 73
    13
 74
     0
 42
0.0000000001
 43
0.0000000001
 12
1.0
 22
0.0
 32
0.0
 13
1.0
 23
0.0
 33
0.0
 40
0.0
 40
0.0
 40
0.0
 40
0.0
 40
1.0
 40
1.0
 40
1.0
 40
2.0
 40
2.0
 40
2.0
 40
3.0
 40
3.0
 40
3.0
 40
4.0
 40
4.0
 40
4.0
 40
4.0
 10
92.43691236396012
 20
-157.4019302384274
 30
0.0
 10
92.43691236396012
 20
-157.3468263495519
 30
0.0
 10
92.39210958732535
 20
-157.3020235717858
 30
0.0
 10
92.33700569984228
 20
-157.3020235717858
 30
0.0
 10
92.28186653458233
 20
-157.3020235717858
 30
0.0
 10
92.23709903572446
 20
-157.3468263495519
 30
0.0
 10
92.23709903572446
 20
-157.4019302384274
 30
0.0
 10
92.23709903572446
 20
-157.4570694050799
 30
0.0
 10
92.28186653458233
 20
-157.5018369050691
 30
0.0
 10
92.33700569984228
 20
-157.5018369050691
 30
0.0
 10
92.39210958732535
 20
-157.5018369050691
 30
0.0
 10
92.43691236396012
 20
-157.4570694050799
 30
0.0
 10
92.43691236396012
 20
-157.4019302384274
 30
0.0
  0
SPLINE
  5
8B
330
1F
100
AcDbEntity
  8
_U+30EC_U+30A4_U+30E4_U+30FC 1
 62
   179
420
  2234388
370
     9
100
AcDbSpline
210
0.0
220
0.0
230
1.0
 70
    11
 71
     3
 72
    17
 73
    13
 74
     0
 42
0.0000000001
 43
0.0000000001
 12
1.0
 22
0.0
 32
0.0
 13
1.0
 23
0.0
 33
0.0
 40
0.0
 40
0.0
 40
0.0
 40
0.0
 40
1.0
 40
1.0
 40
1.0
 40
2.0
 40
2.0
 40
2.0
 40
3.0
 40
3.0
 40
3.0
 40
4.0
 40
4.0
 40
4.0
 40
4.0
 10
97.427306681089
 20
-157.4019302384274
 30
0.0
 10
97.427306681089
 20
-157.3468263495519
 30
0.0
 10
97.38250390445424
 20
-157.3020235717858
 30
0.0
 10
97.32740001697117
 20
-157.3020235717858
 30
0.0
 10
97.27226085171121
 20
-157.3020235717858
 30
0.0
 10
97.22749335285333
 20
-157.3468263495519
 30
0.0
 10
97.22749335285333
 20
-157.4019302384274
 30
0.0
 10
97.22749335285333
 20
-157.4570694050799
 30
0.0
 10
97.27226085171121
 20
-157.5018369050691
 30
0.0
 10
97.32740001697117
 20
-157.5018369050691
 30
0.0
 10
97.38250390445424
 20
-157.5018369050691
 30
0.0
 10
97.427306681089
 20
-157.4570694050799
 30
0.0
 10
97.427306681089
 20
-157.4019302384274
 30
0.0
  0
SPLINE
  5
8C
330
1F
100
AcDbEntity
  8
_U+30EC_U+30A4_U+30E4_U+30FC 1
 62
   179
420
  2234388
370
     9
100
AcDbSpline
210
0.0
220
0.0
230
1.0
 70
    11
 71
     3
 72
    17
 73
    13
 74
     0
 42
0.0000000001
 43
0.0000000001
 12
1.0
 22
0.0
 32
0.0
 13
1.0
 23
0.0
 33
0.0
 40
0.0
 40
0.0
 40
0.0
 40
0.0
 40
1.0
 40
1.0
 40
1.0
 40
2.0
 40
2.0
 40
2.0
 40
3.0
 40
3.0
 40
3.0
 40
4.0
 40
4.0
 40
4.0
 40
4.0
 10
102.4371416410572
 20
-161.4016894040943
 30
0.0
 10
102.4371416410572
 20
-161.3465855152188
 30
0.0
 10
102.3923715544196
 20
-161.301782737452
 30
0.0
 10
102.3372323891597
 20
-161.301782737452
 30
0.0
 10
102.2814229461391
 20
-161.301782737452
 30
0.0
 10
102.2366554472812
 20
-161.3465855152188
 30
0.0
 10
102.2366554472812
 20
-161.4016894040943
 30
0.0
 10
102.2366554472812
 20
-161.4574988485248
 30
0.0
 10
102.2814229461391
 20
-161.5023016262908
 30
0.0
 10
102.3372323891597
 20
-161.5023016262908
 30
0.0
 10
102.3923715544196
 20
-161.5023016262908
 30
0.0
 10
102.4371416410572
 20
-161.4574988485248
 30
0.0
 10
102.4371416410572
 20
-161.4016894040943
 30
0.0
  0
SPLINE
  5
8D
330
1F
100
AcDbEntity
  8
_U+30EC_U+30A4_U+30E4_U+30FC 1
 62
   179
420
  2234388
370
     9
100
AcDbSpline
210
0.0
220
0.0
230
1.0
 70
    11
 71
     3
 72
    17
 73
    13
 74
     0
 42
0.0000000001
 43
0.0000000001
 12
1.0
 22
0.0
 32
0.0
 13
1.0
 23
0.0
 33
0.0
 40
0.0
 40
0.0
 40
0.0
 40
0.0
 40
1.0
 40
1.0
 40
1.0
 40
2.0
 40
2.0
 40
2.0
 40
3.0
 40
3.0
 40
3.0
 40
4.0
 40
4.0
 40
4.0
 40
4.0
 10
92.43691236396012
 20
-161.4016894040943
 30
0.0
 10
92.43691236396012
 20
-161.3465855152188
 30
0.0
 10
92.39210958732535
 20
-161.301782737452
 30
0.0
 10
92.33700569984228
 20
-161.301782737452
 30
0.0
 10
92.28186653458233
 20
-161.301782737452
 30
0.0
 10
92.23709903572446
 20
-161.3465855152188
 30
0.0
 10
92.23709903572446
 20
-161.4016894040943
 30
0.0
 10
92.23709903572446
 20
-161.4574988485248
 30
0.0
 10
92.28186653458233
 20
-161.5023016262908
 30
0.0
 10
92.33700569984228
 20
-161.5023016262908
 30
0.0
 10
92.39210958732535
 20
-161.5023016262908
 30
0.0
 10
92.43691236396012
 20
-161.4574988485248
 30
0.0
 10
92.43691236396012
 20
-161.4016894040943
 30
0.0
  0
SPLINE
  5
8E
330
1F
100
AcDbEntity
  8
_U+30EC_U+30A4_U+30E4_U+30FC 1
 62
   179
420
  2234388
370
     9
100
AcDbSpline
210
0.0
220
0.0
230
1.0
 70
    11
 71
     3
 72
    17
 73
    13
 74
     0
 42
0.0000000001
 43
0.0000000001
 12
1.0
 22
0.0
 32
0.0
 13
1.0
 23
0.0
 33
0.0
 40
0.0
 40
0.0
 40
0.0
 40
0.0
 40
1.0
 40
1.0
 40
1.0
 40
2.0
 40
2.0
 40
2.0
 40
3.0
 40
3.0
 40
3.0
 40
4.0
 40
4.0
 40
4.0
 40
4.0
 10
118.4368808673123
 20
-138.5056002431515
 30
0.0
 10
118.4368808673123
 20
-138.4504610764984
 30
0.0
 10
118.3920780906776
 20
-138.4056935765098
 30
0.0
 10
118.3369742031945
 20
-138.4056935765098
 30
0.0
 10
118.2818350379345
 20
-138.4056935765098
 30
0.0
 10
118.2370675390767
 20
-138.4504610764984
 30
0.0
 10
118.2370675390767
 20
-138.5056002431515
 30
0.0
 10
118.2370675390767
 20
-138.5607041320264
 30
0.0
 10
118.2818350379345
 20
-138.6055069097931
 30
0.0
 10
118.3369742031945
 20
-138.6055069097931
 30
0.0
 10
118.3920780906776
 20
-138.6055069097931
 30
0.0
 10
118.4368808673123
 20
-138.5607041320264
 30
0.0
 10
118.4368808673123
 20
-138.5056002431515
 30
0.0
  0
SPLINE
  5
8F
330
1F
100
AcDbEntity
  8
_U+30EC_U+30A4_U+30E4_U+30FC 1
 62
   179
420
  2234388
370
     9
100
AcDbSpline
210
0.0
220
0.0
230
1.0
 70
    11
 71
     3
 72
    17
 73
    13
 74
     0
 42
0.0000000001
 43
0.0000000001
 12
1.0
 22
0.0
 32
0.0
 13
1.0
 23
0.0
 33
0.0
 40
0.0
 40
0.0
 40
0.0
 40
0.0
 40
1.0
 40
1.0
 40
1.0
 40
2.0
 40
2.0
 40
2.0
 40
3.0
 40
3.0
 40
3.0
 40
4.0
 40
4.0
 40
4.0
 40
4.0
 10
122.4373102096973
 20
-143.5058019085679
 30
0.0
 10
122.4373102096973
 20
-143.4506627419152
 30
0.0
 10
122.3925427108394
 20
-143.4058952419263
 30
0.0
 10
122.3367332678188
 20
-143.4058952419263
 30
0.0
 10
122.2815971916518
 20
-143.4058952419263
 30
0.0
 10
122.2367944138851
 20
-143.4506627419152
 30
0.0
 10
122.2367944138851
 20
-143.5058019085679
 30
0.0
 10
122.2367944138851
 20
-143.5609057974432
 30
0.0
 10
122.2815971916518
 20
-143.6057085752095
 30
0.0
 10
122.3367332678188
 20
-143.6057085752095
 30
0.0
 10
122.3925427108394
 20
-143.6057085752095
 30
0.0
 10
122.4373102096973
 20
-143.5609057974432
 30
0.0
 10
122.4373102096973
 20
-143.5058019085679
 30
0.0
  0
INSERT
  5
91
330
1F
100
AcDbEntity
  8
_U+30EC_U+30A4_U+30E4_U+30FC 1
100
AcDbBlockReference
  2
block 2
 10
0.0
 20
0.0
 30
0.0
  0
POLYLINE
  5
9C
330
1F
100
AcDbEntity
  8
_U+30EC_U+30A4_U+30E4_U+30FC 1
 62
   179
420
  2234388
370
     9
100
AcDb2dPolyline
 66
     1
 10
0.0
 20
0.0
 30
0.0
  0
VERTEX
  5
9D
330
9C
100
AcDbEntity
  8
_U+30EC_U+30A4_U+30E4_U+30FC 1
 62
   179
420
  2234388
370
     9
100
AcDbVertex
100
AcDb2dVertex
 10
93.33744817431887
 20
-138.5056002431515
 30
0.0
  0
VERTEX
  5
9E
330
9C
100
AcDbEntity
  8
_U+30EC_U+30A4_U+30E4_U+30FC 1
 62
   179
420
  2234388
370
     9
100
AcDbVertex
100
AcDb2dVertex
 10
118.3369742031945
 20
-138.5056002431515
 30
0.0
  0
SEQEND
  5
9F
330
9C
100
AcDbEntity
  8
_U+30EC_U+30A4_U+30E4_U+30FC 1
 62
   179
420
  2234388
370
     9
  0
POLYLINE
  5
A0
330
1F
100
AcDbEntity
  8
_U+30EC_U+30A4_U+30E4_U+30FC 1
 62
   179
420
  2234388
370
     9
100
AcDb2dPolyline
 66
     1
 10
0.0
 20
0.0
 30
0.0
  0
VERTEX
  5
A1
330
A0
100
AcDbEntity
  8
_U+30EC_U+30A4_U+30E4_U+30FC 1
 62
   179
420
  2234388
370
     9
100
AcDbVertex
100
AcDb2dVertex
 10
93.33744817431887
 20
-139.9656063538976
 30
0.0
  0
VERTEX
  5
A2
330
A0
100
AcDbEntity
  8
_U+30EC_U+30A4_U+30E4_U+30FC 1
 62
   179
420
  2234388
370
     9
100
AcDbVertex
100
AcDb2dVertex
 10
93.33744817431887
 20
-137.5058280211792
 30
0.0
  0
SEQEND
  5
A3
330
A0
100
AcDbEntity
  8
_U+30EC_U+30A4_U+30E4_U+30FC 1
 62
   179
420
  2234388
370
     9
  0
POLYLINE
  5
A4
330
1F
100
AcDbEntity
  8
_U+30EC_U+30A4_U+30E4_U+30FC 1
 62
   179
420
  2234388
370
     9
100
AcDb2dPolyline
 66
     1
 10
0.0
 20
0.0
 30
0.0
  0
VERTEX
  5
A5
330
A4
100
AcDbEntity
  8
_U+30EC_U+30A4_U+30E4_U+30FC 1
 62
   179
420
  2234388
370
     9
100
AcDbVertex
100
AcDb2dVertex
 10
118.3369742031945
 20
-139.9656063538976
 30
0.0
  0
VERTEX
  5
A6
330
A4
100
AcDbEntity
  8
_U+30EC_U+30A4_U+30E4_U+30FC 1
 62
   179
420
  2234388
370
     9
100
AcDbVertex
100
AcDb2dVertex
 10
118.3369742031945
 20
-137.5058280211792
 30
0.0
  0
SEQEND
  5
A7
330
A4
100
AcDbEntity
  8
_U+30EC_U+30A4_U+30E4_U+30FC 1
 62
   179
420
  2234388
370
     9
  0
INSERT
  5
A9
330
1F
100
AcDbEntity
  8
_U+30EC_U+30A4_U+30E4_U+30FC 1
100
AcDbBlockReference
  2
block 3
 10
0.0
 20
0.0
 30
0.0
  0
POLYLINE
  5
B0
330
1F
100
AcDbEntity
  8
_U+30EC_U+30A4_U+30E4_U+30FC 1
 62
   179
420
  2234388
370
     9
100
AcDb2dPolyline
 66
     1
 10
0.0
 20
0.0
 30
0.0
  0
VERTEX
  5
B1
330
B0
100
AcDbEntity
  8
_U+30EC_U+30A4_U+30E4_U+30FC 1
 62
   179
420
  2234388
370
     9
100
AcDbVertex
100
AcDb2dVertex
 10
93.33744817431887
 20
-138.5056002431515
 30
0.0
  0
VERTEX
  5
B2
330
B0
100
AcDbEntity
  8
_U+30EC_U+30A4_U+30E4_U+30FC 1
 62
   179
420
  2234388
370
     9
100
AcDbVertex
100
AcDb2dVertex
 10
91.33723350312637
 20
-138.5056002431515
 30
0.0
  0
SEQEND
  5
B3
330
B0
100
AcDbEntity
  8
_U+30EC_U+30A4_U+30E4_U+30FC 1
 62
   179
420
  2234388
370
     9
  0
POLYLINE
  5
B4
330
1F
100
AcDbEntity
  8
_U+30EC_U+30A4_U+30E4_U+30FC 1
 62
   179
420
  2234388
370
     9
100
AcDb2dPolyline
 66
     1
 10
0.0
 20
0.0
 30
0.0
  0
VERTEX
  5
B5
330
B4
100
AcDbEntity
  8
_U+30EC_U+30A4_U+30E4_U+30FC 1
 62
   179
420
  2234388
370
     9
100
AcDbVertex
100
AcDb2dVertex
 10
92.33700569984228
 20
-152.16123996196
 30
0.0
  0
VERTEX
  5
B6
330
B4
100
AcDbEntity
  8
_U+30EC_U+30A4_U+30E4_U+30FC 1
 62
   179
420
  2234388
370
     9
100
AcDbVertex
100
AcDb2dVertex
 10
92.33700569984228
 20
-137.5058280211792
 30
0.0
  0
SEQEND
  5
B7
330
B4
100
AcDbEntity
  8
_U+30EC_U+30A4_U+30E4_U+30FC 1
 62
   179
420
  2234388
370
     9
  0
INSERT
  5
B9
330
1F
100
AcDbEntity
  8
_U+30EC_U+30A4_U+30E4_U+30FC 1
100
AcDbBlockReference
  2
block 4
 10
0.0
 20
0.0
 30
0.0
  0
POLYLINE
  5
BE
330
1F
100
AcDbEntity
  8
_U+30EC_U+30A4_U+30E4_U+30FC 1
 62
   179
420
  2234388
370
     9
100
AcDb2dPolyline
 66
     1
 10
0.0
 20
0.0
 30
0.0
  0
VERTEX
  5
BF
330
BE
100
AcDbEntity
  8
_U+30EC_U+30A4_U+30E4_U+30FC 1
 62
   179
420
  2234388
370
     9
100
AcDbVertex
100
AcDb2dVertex
 10
106.336991453784
 20
-152.1068063508624
 30
0.0
  0
VERTEX
  5
C0
330
BE
100
AcDbEntity
  8
_U+30EC_U+30A4_U+30E4_U+30FC 1
 62
   179
420
  2234388
370
     9
100
AcDbVertex
100
AcDb2dVertex
 10
106.336991453784
 20
-146.8489005188435
 30
0.0
  0
SEQEND
  5
C1
330
BE
100
AcDbEntity
  8
_U+30EC_U+30A4_U+30E4_U+30FC 1
 62
   179
420
  2234388
370
     9
  0
POLYLINE
  5
C2
330
1F
100
AcDbEntity
  8
_U+30EC_U+30A4_U+30E4_U+30FC 1
 62
   179
420
  2234388
370
     9
100
AcDb2dPolyline
 66
     1
 10
0.0
 20
0.0
 30
0.0
  0
VERTEX
  5
C3
330
C2
100
AcDbEntity
  8
_U+30EC_U+30A4_U+30E4_U+30FC 1
 62
   179
420
  2234388
370
     9
100
AcDbVertex
100
AcDb2dVertex
 10
106.336991453784
 20
-150.8073494067425
 30
0.0
  0
VERTEX
  5
C4
330
C2
100
AcDbEntity
  8
_U+30EC_U+30A4_U+30E4_U+30FC 1
 62
   179
420
  2234388
370
     9
100
AcDbVertex
100
AcDb2dVertex
 10
106.336991453784
 20
-152.1075119064173
 30
0.0
  0
SEQEND
  5
C5
330
C2
100
AcDbEntity
  8
_U+30EC_U+30A4_U+30E4_U+30FC 1
 62
   179
420
  2234388
370
     9
  0
POLYLINE
  5
C6
330
1F
100
AcDbEntity
  8
_U+30EC_U+30A4_U+30E4_U+30FC 1
 62
   179
420
  2234388
370
     9
100
AcDb2dPolyline
 66
     1
 10
0.0
 20
0.0
 30
0.0
  0
VERTEX
  5
C7
330
C6
100
AcDbEntity
  8
_U+30EC_U+30A4_U+30E4_U+30FC 1
 62
   179
420
  2234388
370
     9
100
AcDbVertex
100
AcDb2dVertex
 10
104.8769853799208
 20
-152.4072319063428
 30
0.0
  0
VERTEX
  5
C8
330
C6
100
AcDbEntity
  8
_U+30EC_U+30A4_U+30E4_U+30FC 1
 62
   179
420
  2234388
370
     9
100
AcDbVertex
100
AcDb2dVertex
 10
107.3367636504999
 20
-152.4072319063428
 30
0.0
  0
SEQEND
  5
C9
330
C6
100
AcDbEntity
  8
_U+30EC_U+30A4_U+30E4_U+30FC 1
 62
   179
420
  2234388
370
     9
  0
INSERT
  5
CB
330
1F
100
AcDbEntity
  8
_U+30EC_U+30A4_U+30E4_U+30FC 1
100
AcDbBlockReference
  2
block 5
 10
0.0
 20
0.0
 30
0.0
  0
POLYLINE
  5
DB
330
1F
100
AcDbEntity
  8
_U+30EC_U+30A4_U+30E4_U+30FC 1
 62
   179
420
  2234388
370
     9
100
AcDb2dPolyline
 66
     1
 10
0.0
 20
0.0
 30
0.0
  0
VERTEX
  5
DC
330
DB
100
AcDbEntity
  8
_U+30EC_U+30A4_U+30E4_U+30FC 1
 62
   179
420
  2234388
370
     9
100
AcDbVertex
100
AcDb2dVertex
 10
92.33700569984228
 20
-157.4019302384274
 30
0.0
  0
VERTEX
  5
DD
330
DB
100
AcDbEntity
  8
_U+30EC_U+30A4_U+30E4_U+30FC 1
 62
   179
420
  2234388
370
     9
100
AcDbVertex
100
AcDb2dVertex
 10
97.32740001697117
 20
-157.4019302384274
 30
0.0
  0
SEQEND
  5
DE
330
DB
100
AcDbEntity
  8
_U+30EC_U+30A4_U+30E4_U+30FC 1
 62
   179
420
  2234388
370
     9
  0
POLYLINE
  5
DF
330
1F
100
AcDbEntity
  8
_U+30EC_U+30A4_U+30E4_U+30FC 1
 62
   179
420
  2234388
370
     9
100
AcDb2dPolyline
 66
     1
 10
0.0
 20
0.0
 30
0.0
  0
VERTEX
  5
E0
330
DF
100
AcDbEntity
  8
_U+30EC_U+30A4_U+30E4_U+30FC 1
 62
   179
420
  2234388
370
     9
100
AcDbVertex
100
AcDb2dVertex
 10
92.33700569984228
 20
-155.9418888499037
 30
0.0
  0
VERTEX
  5
E1
330
DF
100
AcDbEntity
  8
_U+30EC_U+30A4_U+30E4_U+30FC 1
 62
   179
420
  2234388
370
     9
100
AcDbVertex
100
AcDb2dVertex
 10
92.33700569984228
 20
-158.4017024603993
 30
0.0
  0
SEQEND
  5
E2
330
DF
100
AcDbEntity
  8
_U+30EC_U+30A4_U+30E4_U+30FC 1
 62
   179
420
  2234388
370
     9
  0
POLYLINE
  5
E3
330
1F
100
AcDbEntity
  8
_U+30EC_U+30A4_U+30E4_U+30FC 1
 62
   179
420
  2234388
370
     9
100
AcDb2dPolyline
 66
     1
 10
0.0
 20
0.0
 30
0.0
  0
VERTEX
  5
E4
330
E3
100
AcDbEntity
  8
_U+30EC_U+30A4_U+30E4_U+30FC 1
 62
   179
420
  2234388
370
     9
100
AcDbVertex
100
AcDb2dVertex
 10
97.32740001697117
 20
-155.434770794475
 30
0.0
  0
VERTEX
  5
E5
330
E3
100
AcDbEntity
  8
_U+30EC_U+30A4_U+30E4_U+30FC 1
 62
   179
420
  2234388
370
     9
100
AcDbVertex
100
AcDb2dVertex
 10
97.32740001697117
 20
-158.4017024603993
 30
0.0
  0
SEQEND
  5
E6
330
E3
100
AcDbEntity
  8
_U+30EC_U+30A4_U+30E4_U+30FC 1
 62
   179
420
  2234388
370
     9
  0
INSERT
  5
E8
330
1F
100
AcDbEntity
  8
_U+30EC_U+30A4_U+30E4_U+30FC 1
100
AcDbBlockReference
  2
block 6
 10
0.0
 20
0.0
 30
0.0
  0
POLYLINE
  5
ED
330
1F
100
AcDbEntity
  8
_U+30EC_U+30A4_U+30E4_U+30FC 1
 62
   179
420
  2234388
370
     9
100
AcDb2dPolyline
 66
     1
 10
0.0
 20
0.0
 30
0.0
  0
VERTEX
  5
EE
330
ED
100
AcDbEntity
  8
_U+30EC_U+30A4_U+30E4_U+30FC 1
 62
   179
420
  2234388
370
     9
100
AcDbVertex
100
AcDb2dVertex
 10
92.33700569984228
 20
-161.4016894040943
 30
0.0
  0
VERTEX
  5
EF
330
ED
100
AcDbEntity
  8
_U+30EC_U+30A4_U+30E4_U+30FC 1
 62
   179
420
  2234388
370
     9
100
AcDbVertex
100
AcDb2dVertex
 10
102.3372323891597
 20
-161.4016894040943
 30
0.0
  0
SEQEND
  5
F0
330
ED
100
AcDbEntity
  8
_U+30EC_U+30A4_U+30E4_U+30FC 1
 62
   179
420
  2234388
370
     9
  0
POLYLINE
  5
F1
330
1F
100
AcDbEntity
  8
_U+30EC_U+30A4_U+30E4_U+30FC 1
 62
   179
420
  2234388
370
     9
100
AcDb2dPolyline
 66
     1
 10
0.0
 20
0.0
 30
0.0
  0
VERTEX
  5
F2
330
F1
100
AcDbEntity
  8
_U+30EC_U+30A4_U+30E4_U+30FC 1
 62
   179
420
  2234388
370
     9
100
AcDbVertex
100
AcDb2dVertex
 10
92.33700569984228
 20
-155.9418888499037
 30
0.0
  0
VERTEX
  5
F3
330
F1
100
AcDbEntity
  8
_U+30EC_U+30A4_U+30E4_U+30FC 1
 62
   179
420
  2234388
370
     9
100
AcDbVertex
100
AcDb2dVertex
 10
92.33700569984228
 20
-162.4021319038442
 30
0.0
  0
SEQEND
  5
F4
330
F1
100
AcDbEntity
  8
_U+30EC_U+30A4_U+30E4_U+30FC 1
 62
   179
420
  2234388
370
     9
  0
POLYLINE
  5
F5
330
1F
100
AcDbEntity
  8
_U+30EC_U+30A4_U+30E4_U+30FC 1
 62
   179
420
  2234388
370
     9
100
AcDb2dPolyline
 66
     1
 10
0.0
 20
0.0
 30
0.0
  0
VERTEX
  5
F6
330
F5
100
AcDbEntity
  8
_U+30EC_U+30A4_U+30E4_U+30FC 1
 62
   179
420
  2234388
370
     9
100
AcDbVertex
100
AcDb2dVertex
 10
102.3372323891597
 20
-155.0461860723497
 30
0.0
  0
VERTEX
  5
F7
330
F5
100
AcDbEntity
  8
_U+30EC_U+30A4_U+30E4_U+30FC 1
 62
   179
420
  2234388
370
     9
100
AcDbVertex
100
AcDb2dVertex
 10
102.3372323891597
 20
-162.4021319038442
 30
0.0
  0
SEQEND
  5
F8
330
F5
100
AcDbEntity
  8
_U+30EC_U+30A4_U+30E4_U+30FC 1
 62
   179
420
  2234388
370
     9
  0
INSERT
  5
FA
330
1F
100
AcDbEntity
  8
_U+30EC_U+30A4_U+30E4_U+30FC 1
100
AcDbBlockReference
  2
block 7
 10
0.0
 20
0.0
 30
0.0
  0
POLYLINE
  5
102
330
1F
100
AcDbEntity
  8
_U+30EC_U+30A4_U+30E4_U+30FC 1
 62
   179
420
  2234388
370
     9
100
AcDb2dPolyline
 66
     1
 10
0.0
 20
0.0
 30
0.0
  0
VERTEX
  5
103
330
102
100
AcDbEntity
  8
_U+30EC_U+30A4_U+30E4_U+30FC 1
 62
   179
420
  2234388
370
     9
100
AcDbVertex
100
AcDb2dVertex
 10
122.3367332678188
 20
-143.5058019085679
 30
0.0
  0
VERTEX
  5
104
330
102
100
AcDbEntity
  8
_U+30EC_U+30A4_U+30E4_U+30FC 1
 62
   179
420
  2234388
370
     9
100
AcDbVertex
100
AcDb2dVertex
 10
122.3367332678188
 20
-152.0062294064428
 30
0.0
  0
SEQEND
  5
105
330
102
100
AcDbEntity
  8
_U+30EC_U+30A4_U+30E4_U+30FC 1
 62
   179
420
  2234388
370
     9
  0
POLYLINE
  5
106
330
1F
100
AcDbEntity
  8
_U+30EC_U+30A4_U+30E4_U+30FC 1
 62
   179
420
  2234388
370
     9
100
AcDb2dPolyline
 66
     1
 10
0.0
 20
0.0
 30
0.0
  0
VERTEX
  5
107
330
106
100
AcDbEntity
  8
_U+30EC_U+30A4_U+30E4_U+30FC 1
 62
   179
420
  2234388
370
     9
100
AcDbVertex
100
AcDb2dVertex
 10
120.8773621939393
 20
-143.5058019085679
 30
0.0
  0
VERTEX
  5
108
330
106
100
AcDbEntity
  8
_U+30EC_U+30A4_U+30E4_U+30FC 1
 62
   179
420
  2234388
370
     9
100
AcDbVertex
100
AcDb2dVertex
 10
123.3375285200642
 20
-143.5058019085679
 30
0.0
  0
SEQEND
  5
109
330
106
100
AcDbEntity
  8
_U+30EC_U+30A4_U+30E4_U+30FC 1
 62
   179
420
  2234388
370
     9
  0
POLYLINE
  5
10A
330
1F
100
AcDbEntity
  8
_U+30EC_U+30A4_U+30E4_U+30FC 1
 62
   179
420
  2234388
370
     9
100
AcDb2dPolyline
 66
     1
 10
0.0
 20
0.0
 30
0.0
  0
VERTEX
  5
10B
330
10A
100
AcDbEntity
  8
_U+30EC_U+30A4_U+30E4_U+30FC 1
 62
   179
420
  2234388
370
     9
100
AcDbVertex
100
AcDb2dVertex
 10
104.8769853799208
 20
-152.1068063508624
 30
0.0
  0
VERTEX
  5
10C
330
10A
100
AcDbEntity
  8
_U+30EC_U+30A4_U+30E4_U+30FC 1
 62
   179
420
  2234388
370
     9
100
AcDbVertex
100
AcDb2dVertex
 10
123.3375285200642
 20
-152.1068063508624
 30
0.0
  0
SEQEND
  5
10D
330
10A
100
AcDbEntity
  8
_U+30EC_U+30A4_U+30E4_U+30FC 1
 62
   179
420
  2234388
370
     9
  0
INSERT
  5
10F
330
1F
100
AcDbEntity
  8
_U+30EC_U+30A4_U+30E4_U+30FC 1
100
AcDbBlockReference
  2
block 8
 10
0.0
 20
0.0
 30
0.0
  0
INSERT
  5
121
330
1F
100
AcDbEntity
  8
_U+30EC_U+30A4_U+30E4_U+30FC 1
100
AcDbBlockReference
  2
block 9
 10
0.0
 20
0.0
 30
0.0
  0
ENDSEC
  0
SECTION
  2
OBJECTS
  0
DICTIONARY
  5
C
330
0
100
AcDbDictionary
281
     1
  3
ACAD_GROUP
350
D
  3
ACAD_LAYOUT
350
1A
  3
ACAD_MATERIAL
350
3B
  3
ACAD_MLEADERSTYLE
350
138
  3
ACAD_MLINESTYLE
350
17
  3
ACAD_PLOTSETTINGS
350
19
  3
ACAD_PLOTSTYLENAME
350
E
  3
ACAD_TABLESTYLE
350
137
  3
ACAD_VISUALSTYLE
350
2A
  0
SUN
  5
3F
330
29
100
AcDbSun
 90
        1
290
     0
 63
     7
421
 16777215
 40
1.0
291
     1
 91
  2455826
 92
 54000000
292
     0
 70
     2
 71
   256
280
     1
  0
DICTIONARY
  5
D
102
{ACAD_REACTORS
330
C
102
}
330
C
100
AcDbDictionary
281
     1
  0
DICTIONARY
  5
1A
102
{ACAD_REACTORS
330
C
102
}
330
C
100
AcDbDictionary
281
     1
  3
Layout1
350
1E
  3
Layout2
350
26
  3
Model
350
22
  0
DICTIONARY
  5
3B
102
{ACAD_REACTORS
330
C
102
}
330
C
100
AcDbDictionary
281
     1
  3
ByBlock
350
3D
  3
ByLayer
350
3C
  3
Global
350
3E
  0
DICTIONARY
  5
138
102
{ACAD_REACTORS
330
C
102
}
330
C
100
AcDbDictionary
281
     1
  0
DICTIONARY
  5
17
102
{ACAD_REACTORS
330
C
102
}
330
C
100
AcDbDictionary
281
     1
  3
Standard
350
18
  0
DICTIONARY
  5
19
102
{ACAD_REACTORS
330
C
102
}
330
C
100
AcDbDictionary
281
     1
  0
ACDBDICTIONARYWDFLT
  5
E
102
{ACAD_REACTORS
330
C
102
}
330
C
100
AcDbDictionary
281
     1
  3
Normal
350
F
100
AcDbDictionaryWithDefault
340
F
  0
DICTIONARY
  5
137
102
{ACAD_REACTORS
330
C
102
}
330
C
100
AcDbDictionary
281
     1
  0
DICTIONARY
  5
2A
102
{ACAD_REACTORS
330
C
102
}
330
C
100
AcDbDictionary
281
     1
  3
2dWireframe
350
2F
  3
3D Hidden
350
31
  3
3dWireframe
350
30
  3
Basic
350
32
  3
Brighten
350
36
  3
ColorChange
350
3A
  3
Conceptual
350
34
  3
Dim
350
35
  3
Facepattern
350
39
  3
Flat
350
2B
  3
FlatWithEdges
350
2C
  3
Gouraud
350
2D
  3
GouraudWithEdges
350
2E
  3
Linepattern
350
38
  3
Realistic
350
33
  3
Thicken
350
37
  0
LAYOUT
  5
1E
102
{ACAD_REACTORS
330
1A
102
}
330
1A
100
AcDbPlotSettings
  1

  2
none_device
  4

  6

 40
0.0
 41
0.0
 42
0.0
 43
0.0
 44
0.0
 45
0.0
 46
0.0
 47
0.0
 48
0.0
 49
0.0
140
0.0
141
0.0
142
1.0
143
1.0
 70
   688
 72
     0
 73
     0
 74
     5
  7

 75
    16
 76
     0
 77
     2
 78
   300
147
1.0
148
0.0
149
0.0
100
AcDbLayout
  1
Layout1
 70
     1
 71
     1
 10
0.0
 20
0.0
 11
12.0
 21
9.0
 12
0.0
 22
0.0
 32
0.0
 14
1.000000000000000E+20
 24
1.000000000000000E+20
 34
1.000000000000000E+20
 15
-1.000000000000000E+20
 25
-1.000000000000000E+20
 35
-1.000000000000000E+20
146
0.0
 13
0.0
 23
0.0
 33
0.0
 16
1.0
 26
0.0
 36
0.0
 17
0.0
 27
1.0
 37
0.0
 76
     0
330
1B
  0
LAYOUT
  5
26
102
{ACAD_REACTORS
330
1A
102
}
330
1A
100
AcDbPlotSettings
  1

  2
none_device
  4

  6

 40
0.0
 41
0.0
 42
0.0
 43
0.0
 44
0.0
 45
0.0
 46
0.0
 47
0.0
 48
0.0
 49
0.0
140
0.0
141
0.0
142
1.0
143
1.0
 70
   688
 72
     0
 73
     0
 74
     5
  7

 75
    16
 76
     0
 77
     2
 78
   300
147
1.0
148
0.0
149
0.0
100
AcDbLayout
  1
Layout2
 70
     1
 71
     2
 10
0.0
 20
0.0
 11
0.0
 21
0.0
 12
0.0
 22
0.0
 32
0.0
 14
0.0
 24
0.0
 34
0.0
 15
0.0
 25
0.0
 35
0.0
146
0.0
 13
0.0
 23
0.0
 33
0.0
 16
1.0
 26
0.0
 36
0.0
 17
0.0
 27
1.0
 37
0.0
 76
     0
330
23
  0
LAYOUT
  5
22
102
{ACAD_REACTORS
330
1A
102
}
330
1A
100
AcDbPlotSettings
  1

  2
none_device
  4

  6

 40
0.0
 41
0.0
 42
0.0
 43
0.0
 44
0.0
 45
0.0
 46
0.0
 47
0.0
 48
0.0
 49
0.0
140
0.0
141
0.0
142
1.0
143
1.0
 70
  1712
 72
     0
 73
     0
 74
     0
  7

 75
     0
 76
     0
 77
     2
 78
   300
147
1.0
148
0.0
149
0.0
100
AcDbLayout
  1
Model
 70
     1
 71
     0
 10
0.0
 20
0.0
 11
12.0
 21
9.0
 12
0.0
 22
0.0
 32
0.0
 14
1.000000000000000E+20
 24
1.000000000000000E+20
 34
1.000000000000000E+20
 15
-1.000000000000000E+20
 25
-1.000000000000000E+20
 35
-1.000000000000000E+20
146
0.0
 13
0.0
 23
0.0
 33
0.0
 16
1.0
 26
0.0
 36
0.0
 17
0.0
 27
1.0
 37
0.0
 76
     0
330
1F
331
29
  0
MATERIAL
  5
3D
102
{ACAD_REACTORS
330
3B
102
}
330
3B
100
AcDbMaterial
  1
ByBlock
 72
     1
 94
      127
  0
MATERIAL
  5
3C
102
{ACAD_REACTORS
330
3B
102
}
330
3B
100
AcDbMaterial
  1
ByLayer
 72
     1
 94
      127
  0
MATERIAL
  5
3E
102
{ACAD_REACTORS
330
3B
102
}
330
3B
100
AcDbMaterial
  1
Global
 72
     1
 94
      127
  0
MLINESTYLE
  5
18
102
{ACAD_REACTORS
330
17
102
}
330
17
100
AcDbMlineStyle
  2
Standard
 70
     0
  3

 62
   256
 51
90.0
 52
90.0
 71
     2
 49
0.5
 62
   256
  6
BYLAYER
 49
-0.5
 62
   256
  6
BYLAYER
  0
ACDBPLACEHOLDER
  5
F
102
{ACAD_REACTORS
330
E
102
}
330
E
  0
VISUALSTYLE
  5
2F
102
{ACAD_REACTORS
330
2A
102
}
330
2A
100
AcDbVisualStyle
  2
2dWireframe
 70
     4
177
     2
291
     0
 71
     0
176
     1
 72
     2
176
     1
 73
     0
176
     1
 90
        0
176
     1
 40
-0.6
176
     1
 41
-30.0
176
     1
 62
     5
 63
     7
421
 16777215
176
     1
 74
     1
176
     1
 91
        4
176
     1
 64
     7
176
     1
 65
   257
176
     1
 75
     1
176
     1
175
     1
176
     1
 42
1.0
176
     1
 92
        0
176
     1
 66
   257
176
     1
 43
1.0
176
     1
 76
     1
176
     1
 77
     6
176
     1
 78
     2
176
     1
 67
     7
176
     1
 79
     5
176
     1
170
     0
176
     1
171
     0
176
     1
290
     0
176
     1
 93
        1
176
     1
 44
0.0
176
     1
173
     0
176
     1
  0
VISUALSTYLE
  5
31
102
{ACAD_REACTORS
330
2A
102
}
330
2A
100
AcDbVisualStyle
  2
3D Hidden
 70
     6
177
     2
291
     0
 71
     1
176
     1
 72
     2
176
     1
 73
     2
176
     1
 90
        0
176
     1
 40
-0.6
176
     1
 41
-30.0
176
     1
 62
     5
 63
     7
421
 16777215
176
     1
 74
     2
176
     1
 91
        2
176
     1
 64
     7
176
     1
 65
   257
176
     1
 75
     2
176
     1
175
     1
176
     1
 42
40.0
176
     1
 92
        0
176
     1
 66
   257
176
     1
 43
1.0
176
     1
 76
     1
176
     1
 77
     6
176
     1
 78
     2
176
     1
 67
     7
176
     1
 79
     3
176
     1
170
     0
176
     1
171
     0
176
     1
290
     0
176
     1
 93
        1
176
     1
 44
0.0
176
     1
173
     0
176
     1
  0
VISUALSTYLE
  5
30
102
{ACAD_REACTORS
330
2A
102
}
330
2A
100
AcDbVisualStyle
  2
3dWireframe
 70
     5
177
     2
291
     0
 71
     0
176
     1
 72
     2
176
     1
 73
     0
176
     1
 90
        0
176
     1
 40
-0.6
176
     1
 41
-30.0
176
     1
 62
     5
 63
     7
421
 16777215
176
     1
 74
     1
176
     1
 91
        4
176
     1
 64
     7
176
     1
 65
   257
176
     1
 75
     1
176
     1
175
     1
176
     1
 42
1.0
176
     1
 92
        0
176
     1
 66
   257
176
     1
 43
1.0
176
     1
 76
     1
176
     1
 77
     6
176
     1
 78
     2
176
     1
 67
     7
176
     1
 79
     5
176
     1
170
     0
176
     1
171
     0
176
     1
290
     0
176
     1
 93
        1
176
     1
 44
0.0
176
     1
173
     0
176
     1
  0
VISUALSTYLE
  5
32
102
{ACAD_REACTORS
330
2A
102
}
330
2A
100
AcDbVisualStyle
  2
Basic
 70
     7
177
     2
291
     1
 71
     1
176
     1
 72
     0
176
     1
 73
     1
176
     1
 90
        0
176
     1
 40
-0.6
176
     1
 41
-30.0
176
     1
 62
     5
 63
     7
421
 16777215
176
     1
 74
     0
176
     1
 91
        4
176
     1
 64
     7
176
     1
 65
   257
176
     1
 75
     1
176
     1
175
     1
176
     1
 42
1.0
176
     1
 92
        8
176
     1
 66
     7
176
     1
 43
1.0
176
     1
 76
     1
176
     1
 77
     6
176
     1
 78
     2
176
     1
 67
     7
176
     1
 79
     5
176
     1
170
     0
176
     1
171
     0
176
     1
290
     0
176
     1
 93
        1
176
     1
 44
0.0
176
     1
173
     0
176
     1
  0
VISUALSTYLE
  5
36
102
{ACAD_REACTORS
330
2A
102
}
330
2A
100
AcDbVisualStyle
  2
Brighten
 70
    12
177
     2
291
     1
 71
     2
176
     1
 72
     2
176
     1
 73
     0
176
     1
 90
        0
176
     1
 40
-0.6
176
     1
 41
-30.0
176
     1
 62
     5
 63
     7
421
 16777215
176
     1
 74
     1
176
     1
 91
        4
176
     1
 64
     7
176
     1
 65
   257
176
     1
 75
     1
176
     1
175
     1
176
     1
 42
1.0
176
     1
 92
        8
176
     1
 66
     7
176
     1
 43
1.0
176
     1
 76
     1
176
     1
 77
     6
176
     1
 78
     2
176
     1
 67
     7
176
     1
 79
     5
176
     1
170
     0
176
     1
171
     0
176
     1
290
     0
176
     1
 93
        1
176
     1
 44
50.0
176
     1
173
     0
176
     1
  0
VISUALSTYLE
  5
3A
102
{ACAD_REACTORS
330
2A
102
}
330
2A
100
AcDbVisualStyle
  2
ColorChange
 70
    16
177
     2
291
     1
 71
     2
176
     1
 72
     2
176
     1
 73
     3
176
     1
 90
        0
176
     1
 40
-0.6
176
     1
 41
-30.0
176
     1
 62
     5
 63
     8
421
  8421504
176
     1
 74
     1
176
     1
 91
        4
176
     1
 64
     7
176
     1
 65
   257
176
     1
 75
     1
176
     1
175
     1
176
     1
 42
1.0
176
     1
 92
        8
176
     1
 66
     8
424
  8421504
176
     1
 43
1.0
176
     1
 76
     1
176
     1
 77
     6
176
     1
 78
     2
176
     1
 67
     7
176
     1
 79
     5
176
     1
170
     0
176
     1
171
     0
176
     1
290
     0
176
     1
 93
        1
176
     1
 44
0.0
176
     1
173
     0
176
     1
  0
VISUALSTYLE
  5
34
102
{ACAD_REACTORS
330
2A
102
}
330
2A
100
AcDbVisualStyle
  2
Conceptual
 70
     9
177
     2
291
     0
 71
     3
176
     1
 72
     2
176
     1
 73
     0
176
     1
 90
        0
176
     1
 40
-0.6
176
     1
 41
-30.0
176
     1
 62
     5
 63
     7
421
 16777215
176
     1
 74
     2
176
     1
 91
        2
176
     1
 64
     7
176
     1
 65
   257
176
     1
 75
     1
176
     1
175
     1
176
     1
 42
40.0
176
     1
 92
        8
176
     1
 66
     7
176
     1
 43
1.0
176
     1
 76
     1
176
     1
 77
     6
176
     1
 78
     2
176
     1
 67
     7
176
     1
 79
     3
176
     1
170
     0
176
     1
171
     0
176
     1
290
     0
176
     1
 93
        1
176
     1
 44
0.0
176
     1
173
     0
176
     1
  0
VISUALSTYLE
  5
35
102
{ACAD_REACTORS
330
2A
102
}
330
2A
100
AcDbVisualStyle
  2
Dim
 70
    11
177
     2
291
     1
 71
     2
176
     1
 72
     2
176
     1
 73
     0
176
     1
 90
        0
176
     1
 40
-0.6
176
     1
 41
-30.0
176
     1
 62
     5
 63
     7
421
 16777215
176
     1
 74
     1
176
     1
 91
        4
176
     1
 64
     7
176
     1
 65
   257
176
     1
 75
     1
176
     1
175
     1
176
     1
 42
1.0
176
     1
 92
        8
176
     1
 66
     7
176
     1
 43
1.0
176
     1
 76
     1
176
     1
 77
     6
176
     1
 78
     2
176
     1
 67
     7
176
     1
 79
     5
176
     1
170
     0
176
     1
171
     0
176
     1
290
     0
176
     1
 93
        1
176
     1
 44
-50.0
176
     1
173
     0
176
     1
  0
VISUALSTYLE
  5
39
102
{ACAD_REACTORS
330
2A
102
}
330
2A
100
AcDbVisualStyle
  2
Facepattern
 70
    15
177
     2
291
     1
 71
     2
176
     1
 72
     2
176
     1
 73
     0
176
     1
 90
        0
176
     1
 40
-0.6
176
     1
 41
-30.0
176
     1
 62
     5
 63
     7
421
 16777215
176
     1
 74
     1
176
     1
 91
        4
176
     1
 64
     7
176
     1
 65
   257
176
     1
 75
     1
176
     1
175
     1
176
     1
 42
1.0
176
     1
 92
        8
176
     1
 66
     7
176
     1
 43
1.0
176
     1
 76
     1
176
     1
 77
     6
176
     1
 78
     2
176
     1
 67
     7
176
     1
 79
     5
176
     1
170
     0
176
     1
171
     0
176
     1
290
     0
176
     1
 93
        1
176
     1
 44
0.0
176
     1
173
     0
176
     1
  0
VISUALSTYLE
  5
2B
102
{ACAD_REACTORS
330
2A
102
}
330
2A
100
AcDbVisualStyle
  2
Flat
 70
     0
177
     2
291
     1
 71
     2
176
     1
 72
     1
176
     1
 73
     1
176
     1
 90
        2
176
     1
 40
-0.6
176
     1
 41
30.0
176
     1
 62
     5
 63
     7
421
 16777215
176
     1
 74
     0
176
     1
 91
        4
176
     1
 64
     7
176
     1
 65
   257
176
     1
 75
     1
176
     1
175
     1
176
     1
 42
1.0
176
     1
 92
        8
176
     1
 66
     7
176
     1
 43
1.0
176
     1
 76
     1
176
     1
 77
     6
176
     1
 78
     2
176
     1
 67
     7
176
     1
 79
     5
176
     1
170
     0
176
     1
171
     0
176
     1
290
     0
176
     1
 93
       13
176
     1
 44
0.0
176
     1
173
     0
176
     1
  0
VISUALSTYLE
  5
2C
102
{ACAD_REACTORS
330
2A
102
}
330
2A
100
AcDbVisualStyle
  2
FlatWithEdges
 70
     1
177
     2
291
     1
 71
     2
176
     1
 72
     1
176
     1
 73
     1
176
     1
 90
        2
176
     1
 40
-0.6
176
     1
 41
30.0
176
     1
 62
     5
 63
     7
421
 16777215
176
     1
 74
     1
176
     1
 91
        4
176
     1
 64
     7
176
     1
 65
   257
176
     1
 75
     1
176
     1
175
     1
176
     1
 42
1.0
176
     1
 92
        0
176
     1
 66
   257
176
     1
 43
1.0
176
     1
 76
     1
176
     1
 77
     6
176
     1
 78
     2
176
     1
 67
     7
176
     1
 79
     5
176
     1
170
     0
176
     1
171
     0
176
     1
290
     0
176
     1
 93
       13
176
     1
 44
0.0
176
     1
173
     0
176
     1
  0
VISUALSTYLE
  5
2D
102
{ACAD_REACTORS
330
2A
102
}
330
2A
100
AcDbVisualStyle
  2
Gouraud
 70
     2
177
     2
291
     1
 71
     2
176
     1
 72
     2
176
     1
 73
     1
176
     1
 90
        2
176
     1
 40
-0.6
176
     1
 41
30.0
176
     1
 62
     5
 63
     7
421
 16777215
176
     1
 74
     0
176
     1
 91
        4
176
     1
 64
     7
176
     1
 65
   257
176
     1
 75
     1
176
     1
175
     1
176
     1
 42
1.0
176
     1
 92
        0
176
     1
 66
     7
176
     1
 43
1.0
176
     1
 76
     1
176
     1
 77
     6
176
     1
 78
     2
176
     1
 67
     7
176
     1
 79
     5
176
     1
170
     0
176
     1
171
     0
176
     1
290
     0
176
     1
 93
       13
176
     1
 44
0.0
176
     1
173
     0
176
     1
  0
VISUALSTYLE
  5
2E
102
{ACAD_REACTORS
330
2A
102
}
330
2A
100
AcDbVisualStyle
  2
GouraudWithEdges
 70
     3
177
     2
291
     1
 71
     2
176
     1
 72
     2
176
     1
 73
     1
176
     1
 90
        2
176
     1
 40
-0.6
176
     1
 41
30.0
176
     1
 62
     5
 63
     7
421
 16777215
176
     1
 74
     1
176
     1
 91
        4
176
     1
 64
     7
176
     1
 65
   257
176
     1
 75
     1
176
     1
175
     1
176
     1
 42
1.0
176
     1
 92
        0
176
     1
 66
   257
176
     1
 43
1.0
176
     1
 76
     1
176
     1
 77
     6
176
     1
 78
     2
176
     1
 67
     7
176
     1
 79
     5
176
     1
170
     0
176
     1
171
     0
176
     1
290
     0
176
     1
 93
       13
176
     1
 44
0.0
176
     1
173
     0
176
     1
  0
VISUALSTYLE
  5
38
102
{ACAD_REACTORS
330
2A
102
}
330
2A
100
AcDbVisualStyle
  2
Linepattern
 70
    14
177
     2
291
     1
 71
     2
176
     1
 72
     2
176
     1
 73
     0
176
     1
 90
        0
176
     1
 40
-0.6
176
     1
 41
-30.0
176
     1
 62
     5
 63
     7
421
 16777215
176
     1
 74
     1
176
     1
 91
        4
176
     1
 64
     7
176
     1
 65
   257
176
     1
 75
     7
176
     1
175
     7
176
     1
 42
1.0
176
     1
 92
        8
176
     1
 66
     7
176
     1
 43
1.0
176
     1
 76
     1
176
     1
 77
     6
176
     1
 78
     2
176
     1
 67
     7
176
     1
 79
     5
176
     1
170
     0
176
     1
171
     0
176
     1
290
     0
176
     1
 93
        1
176
     1
 44
0.0
176
     1
173
     0
176
     1
  0
VISUALSTYLE
  5
33
102
{ACAD_REACTORS
330
2A
102
}
330
2A
100
AcDbVisualStyle
  2
Realistic
 70
     8
177
     2
291
     0
 71
     2
176
     1
 72
     2
176
     1
 73
     0
176
     1
 90
        0
176
     1
 40
-0.6
176
     1
 41
-30.0
176
     1
 62
     5
 63
     7
421
 16777215
176
     1
 74
     1
176
     1
 91
        0
176
     1
 64
     7
176
     1
 65
   257
176
     1
 75
     1
176
     1
175
     1
176
     1
 42
1.0
176
     1
 92
        8
176
     1
 66
     8
424
  7895160
176
     1
 43
1.0
176
     1
 76
     1
176
     1
 77
     6
176
     1
 78
     2
176
     1
 67
     7
176
     1
 79
     5
176
     1
170
     0
176
     1
171
     0
176
     1
290
     0
176
     1
 93
       13
176
     1
 44
0.0
176
     1
173
     0
176
     1
  0
VISUALSTYLE
  5
37
102
{ACAD_REACTORS
330
2A
102
}
330
2A
100
AcDbVisualStyle
  2
Thicken
 70
    13
177
     2
291
     1
 71
     2
176
     1
 72
     2
176
     1
 73
     0
176
     1
 90
        0
176
     1
 40
-0.6
176
     1
 41
-30.0
176
     1
 62
     5
 63
     7
421
 16777215
176
     1
 74
     1
176
     1
 91
        4
176
     1
 64
     7
176
     1
 65
   257
176
     1
 75
     1
176
     1
175
     1
176
     1
 42
1.0
176
     1
 92
       12
176
     1
 66
     7
176
     1
 43
1.0
176
     1
 76
     1
176
     1
 77
     6
176
     1
 78
     2
176
     1
 67
     7
176
     1
 79
     5
176
     1
170
     0
176
     1
171
     0
176
     1
290
     0
176
     1
 93
        1
176
     1
 44
0.0
176
     1
173
     0
176
     1
  0
ENDSEC
  0
EOF
