  0
SECTION
  2
HEADER
  9
$ACADVER
  1
AC1024
  9
$ACADMAINTVER
 70
   226
  9
$DWGCODEPAGE
  3
ANSI_932
  9
$INSBASE
 10
0.0
 20
0.0
 30
0.0
  9
$EXTMIN
 10
1.000000000000000E+20
 20
1.000000000000000E+20
 30
1.000000000000000E+20
  9
$EXTMAX
 10
-1.000000000000000E+20
 20
-1.000000000000000E+20
 30
-1.000000000000000E+20
  9
$LIMMIN
 10
0.0
 20
0.0
  9
$LIMMAX
 10
12.0
 20
9.0
  9
$ORTHOMODE
 70
     0
  9
$REGENMODE
 70
     1
  9
$FILLMODE
 70
     1
  9
$QTEXTMODE
 70
     0
  9
$MIRRTEXT
 70
     0
  9
$LTSCALE
 40
1.0
  9
$ATTMODE
 70
     1
  9
$TEXTSIZE
 40
0.2
  9
$TRACEWID
 40
0.05
  9
$TEXTSTYLE
  7
Standard
  9
$CLAYER
  8
0
  9
$CELTYPE
  6
ByLayer
  9
$CECOLOR
 62
   256
  9
$CELTSCALE
 40
1.0
  9
$DISPSILH
 70
     0
  9
$DIMSCALE
 40
1.0
  9
$DIMASZ
 40
0.18
  9
$DIMEXO
 40
0.0625
  9
$DIMDLI
 40
0.38
  9
$DIMRND
 40
0.0
  9
$DIMDLE
 40
0.0
  9
$DIMEXE
 40
0.18
  9
$DIMTP
 40
0.0
  9
$DIMTM
 40
0.0
  9
$DIMTXT
 40
0.18
  9
$DIMCEN
 40
0.09
  9
$DIMTSZ
 40
0.0
  9
$DIMTOL
 70
     0
  9
$DIMLIM
 70
     0
  9
$DIMTIH
 70
     1
  9
$DIMTOH
 70
     1
  9
$DIMSE1
 70
     0
  9
$DIMSE2
 70
     0
  9
$DIMTAD
 70
     0
  9
$DIMZIN
 70
     0
  9
$DIMBLK
  1

  9
$DIMASO
 70
     1
  9
$DIMSHO
 70
     1
  9
$DIMPOST
  1

  9
$DIMAPOST
  1

  9
$DIMALT
 70
     0
  9
$DIMALTD
 70
     2
  9
$DIMALTF
 40
25.4
  9
$DIMLFAC
 40
1.0
  9
$DIMTOFL
 70
     0
  9
$DIMTVP
 40
0.0
  9
$DIMTIX
 70
     0
  9
$DIMSOXD
 70
     0
  9
$DIMSAH
 70
     0
  9
$DIMBLK1
  1

  9
$DIMBLK2
  1

  9
$DIMSTYLE
  2
Standard
  9
$DIMCLRD
 70
     0
  9
$DIMCLRE
 70
     0
  9
$DIMCLRT
 70
     0
  9
$DIMTFAC
 40
1.0
  9
$DIMGAP
 40
0.09
  9
$DIMJUST
 70
     0
  9
$DIMSD1
 70
     0
  9
$DIMSD2
 70
     0
  9
$DIMTOLJ
 70
     1
  9
$DIMTZIN
 70
     0
  9
$DIMALTZ
 70
     0
  9
$DIMALTTZ
 70
     0
  9
$DIMUPT
 70
     0
  9
$DIMDEC
 70
     4
  9
$DIMTDEC
 70
     4
  9
$DIMALTU
 70
     2
  9
$DIMALTTD
 70
     2
  9
$DIMTXSTY
  7
Standard
  9
$DIMAUNIT
 70
     0
  9
$DIMADEC
 70
     0
  9
$DIMALTRND
 40
0.0
  9
$DIMAZIN
 70
     0
  9
$DIMDSEP
 70
    46
  9
$DIMATFIT
 70
     3
  9
$DIMFRAC
 70
     0
  9
$DIMLDRBLK
  1

  9
$DIMLUNIT
 70
     2
  9
$DIMLWD
 70
    -2
  9
$DIMLWE
 70
    -2
  9
$DIMTMOVE
 70
     0
  9
$DIMFXL
 40
1.0
  9
$DIMFXLON
 70
     0
  9
$DIMJOGANG
 40
0.7853981633974483
  9
$DIMTFILL
 70
     0
  9
$DIMTFILLCLR
 70
     0
  9
$DIMARCSYM
 70
     0
  9
$DIMLTYPE
  6

  9
$DIMLTEX1
  6

  9
$DIMLTEX2
  6

  9
$DIMTXTDIRECTION
 70
     0
  9
$LUNITS
 70
     2
  9
$LUPREC
 70
     4
  9
$SKETCHINC
 40
0.1
  9
$FILLETRAD
 40
0.0
  9
$AUNITS
 70
     0
  9
$AUPREC
 70
     0
  9
$MENU
  1
.
  9
$ELEVATION
 40
0.0
  9
$PELEVATION
 40
0.0
  9
$THICKNESS
 40
0.0
  9
$LIMCHECK
 70
     0
  9
$CHAMFERA
 40
0.0
  9
$CHAMFERB
 40
0.0
  9
$CHAMFERC
 40
0.0
  9
$CHAMFERD
 40
0.0
  9
$SKPOLY
 70
     0
  9
$TDCREATE
 40
2459676.423275463
  9
$TDUCREATE
 40
2459676.048275463
  9
$TDUPDATE
 40
2459676.423275463
  9
$TDUUPDATE
 40
2459676.048275463
  9
$TDINDWG
 40
0.0000000000
  9
$TDUSRTIMER
 40
0.0000000000
  9
$USRTIMER
 70
     1
  9
$ANGBASE
 50
0.0
  9
$ANGDIR
 70
     0
  9
$PDMODE
 70
     0
  9
$PDSIZE
 40
0.0
  9
$PLINEWID
 40
0.0
  9
$SPLFRAME
 70
     0
  9
$SPLINETYPE
 70
     6
  9
$SPLINESEGS
 70
     8
  9
$HANDSEED
  5
141
  9
$SURFTAB1
 70
     6
  9
$SURFTAB2
 70
     6
  9
$SURFTYPE
 70
     6
  9
$SURFU
 70
     6
  9
$SURFV
 70
     6
  9
$UCSBASE
  2

  9
$UCSNAME
  2

  9
$UCSORG
 10
0.0
 20
0.0
 30
0.0
  9
$UCSXDIR
 10
1.0
 20
0.0
 30
0.0
  9
$UCSYDIR
 10
0.0
 20
1.0
 30
0.0
  9
$UCSORTHOREF
  2

  9
$UCSORTHOVIEW
 70
     0
  9
$UCSORGTOP
 10
0.0
 20
0.0
 30
0.0
  9
$UCSORGBOTTOM
 10
0.0
 20
0.0
 30
0.0
  9
$UCSORGLEFT
 10
0.0
 20
0.0
 30
0.0
  9
$UCSORGRIGHT
 10
0.0
 20
0.0
 30
0.0
  9
$UCSORGFRONT
 10
0.0
 20
0.0
 30
0.0
  9
$UCSORGBACK
 10
0.0
 20
0.0
 30
0.0
  9
$PUCSBASE
  2

  9
$PUCSNAME
  2

  9
$PUCSORG
 10
0.0
 20
0.0
 30
0.0
  9
$PUCSXDIR
 10
1.0
 20
0.0
 30
0.0
  9
$PUCSYDIR
 10
0.0
 20
1.0
 30
0.0
  9
$PUCSORTHOREF
  2

  9
$PUCSORTHOVIEW
 70
     0
  9
$PUCSORGTOP
 10
0.0
 20
0.0
 30
0.0
  9
$PUCSORGBOTTOM
 10
0.0
 20
0.0
 30
0.0
  9
$PUCSORGLEFT
 10
0.0
 20
0.0
 30
0.0
  9
$PUCSORGRIGHT
 10
0.0
 20
0.0
 30
0.0
  9
$PUCSORGFRONT
 10
0.0
 20
0.0
 30
0.0
  9
$PUCSORGBACK
 10
0.0
 20
0.0
 30
0.0
  9
$USERI1
 70
     0
  9
$USERI2
 70
     0
  9
$USERI3
 70
     0
  9
$USERI4
 70
     0
  9
$USERI5
 70
     0
  9
$USERR1
 40
0.0
  9
$USERR2
 40
0.0
  9
$USERR3
 40
0.0
  9
$USERR4
 40
0.0
  9
$USERR5
 40
0.0
  9
$WORLDVIEW
 70
     1
  9
$SHADEDGE
 70
     3
  9
$SHADEDIF
 70
    70
  9
$TILEMODE
 70
     1
  9
$MAXACTVP
 70
    64
  9
$PINSBASE
 10
0.0
 20
0.0
 30
0.0
  9
$PLIMCHECK
 70
     0
  9
$PEXTMIN
 10
1.000000000000000E+20
 20
1.000000000000000E+20
 30
1.000000000000000E+20
  9
$PEXTMAX
 10
-1.000000000000000E+20
 20
-1.000000000000000E+20
 30
-1.000000000000000E+20
  9
$PLIMMIN
 10
0.0
 20
0.0
  9
$PLIMMAX
 10
12.0
 20
9.0
  9
$UNITMODE
 70
     0
  9
$VISRETAIN
 70
     1
  9
$PLINEGEN
 70
     0
  9
$PSLTSCALE
 70
     1
  9
$TREEDEPTH
 70
  3020
  9
$CMLSTYLE
  2
Standard
  9
$CMLJUST
 70
     0
  9
$CMLSCALE
 40
1.0
  9
$PROXYGRAPHICS
 70
     1
  9
$MEASUREMENT
 70
     0
  9
$CELWEIGHT
370
    -1
  9
$ENDCAPS
280
     0
  9
$JOINSTYLE
280
     0
  9
$LWDISPLAY
290
     1
  9
$INSUNITS
 70
     4
  9
$HYPERLINKBASE
  1

  9
$STYLESHEET
  1

  9
$XEDIT
290
     1
  9
$CEPSNTYPE
380
     0
  9
$PSTYLEMODE
290
     1
  9
$FINGERPRINTGUID
  2
{F12401B7-DC48-C94F-974C-4CA4ED6B6724}
  9
$VERSIONGUID
  2
{3FE68B21-F15D-3749-B832-B66D2F58A4E5}
  9
$EXTNAMES
290
     1
  9
$PSVPSCALE
 40
0.0
  9
$OLESTARTUP
290
     0
  9
$SORTENTS
280
   127
  9
$INDEXCTL
280
     0
  9
$HIDETEXT
280
     1
  9
$XCLIPFRAME
280
     2
  9
$HALOGAP
280
     0
  9
$OBSCOLOR
 70
   257
  9
$OBSLTYPE
280
     0
  9
$INTERSECTIONDISPLAY
280
     0
  9
$INTERSECTIONCOLOR
 70
   257
  9
$DIMASSOC
280
     2
  9
$PROJECTNAME
  1

  9
$CAMERADISPLAY
290
     0
  9
$LENSLENGTH
 40
50.0
  9
$CAMERAHEIGHT
 40
0.0
  9
$STEPSPERSEC
 40
2.0
  9
$STEPSIZE
 40
6.0
  9
$3DDWFPREC
 40
2.0
  9
$PSOLWIDTH
 40
0.25
  9
$PSOLHEIGHT
 40
4.0
  9
$LOFTANG1
 40
1.570796326794896
  9
$LOFTANG2
 40
1.570796326794896
  9
$LOFTMAG1
 40
0.0
  9
$LOFTMAG2
 40
0.0
  9
$LOFTPARAM
 70
     7
  9
$LOFTNORMALS
280
     1
  9
$LATITUDE
 40
37.795
  9
$LONGITUDE
 40
-122.394
  9
$NORTHDIRECTION
 40
0.0
  9
$TIMEZONE
 70
 -8000
  9
$LIGHTGLYPHDISPLAY
280
     1
  9
$TILEMODELIGHTSYNCH
280
     1
  9
$CMATERIAL
347
11
  9
$SOLIDHIST
280
     0
  9
$SHOWHIST
280
     1
  9
$DWFFRAME
280
     2
  9
$DGNFRAME
280
     0
  9
$REALWORLDSCALE
290
     1
  9
$INTERFERECOLOR
 62
     1
  9
$INTERFEREOBJVS
345
33
  9
$INTERFEREVPVS
346
30
  9
$CSHADOW
280
     0
  9
$SHADOWPLANELOCATION
 40
0.0
  0
ENDSEC
  0
SECTION
  2
CLASSES
  0
CLASS
  1
ACDBDICTIONARYWDFLT
  2
AcDbDictionaryWithDefault
  3
ObjectDBX Classes
 90
        0
 91
        1
280
     0
281
     0
  0
CLASS
  1
MATERIAL
  2
AcDbMaterial
  3
ObjectDBX Classes
 90
     1153
 91
        3
280
     0
281
     0
  0
CLASS
  1
VISUALSTYLE
  2
AcDbVisualStyle
  3
ObjectDBX Classes
 90
     4095
 91
       24
280
     0
281
     0
  0
CLASS
  1
SCALE
  2
AcDbScale
  3
ObjectDBX Classes
 90
     1153
 91
       17
280
     0
281
     0
  0
CLASS
  1
TABLESTYLE
  2
AcDbTableStyle
  3
ObjectDBX Classes
 90
     4095
 91
        1
280
     0
281
     0
  0
CLASS
  1
MLEADERSTYLE
  2
AcDbMLeaderStyle
  3
ACDB_MLEADERSTYLE_CLASS
 90
     4095
 91
        1
280
     0
281
     0
  0
CLASS
  1
ACDBSECTIONVIEWSTYLE
  2
AcDbSectionViewStyle
  3
ObjectDBX Classes
 90
     1025
 91
        1
280
     0
281
     0
  0
CLASS
  1
ACDBDETAILVIEWSTYLE
  2
AcDbDetailViewStyle
  3
ObjectDBX Classes
 90
     1025
 91
        1
280
     0
281
     0
  0
CLASS
  1
DICTIONARYVAR
  2
AcDbDictionaryVar
  3
ObjectDBX Classes
 90
        0
 91
        5
280
     0
281
     0
  0
CLASS
  1
CELLSTYLEMAP
  2
AcDbCellStyleMap
  3
ObjectDBX Classes
 90
     1152
 91
        1
280
     0
281
     0
  0
ENDSEC
  0
SECTION
  2
TABLES
  0
TABLE
  2
VPORT
  5
8
330
0
100
AcDbSymbolTable
 70
     1
  0
VPORT
  5
57
330
8
100
AcDbSymbolTableRecord
100
AcDbViewportTableRecord
  2
*Active
 70
     0
 10
0.0
 20
0.0
 11
1.0
 21
1.0
 12
0.0
 22
0.0
 13
0.0
 23
0.0
 14
1.0
 24
1.0
 15
0.0
 25
0.0
 16
0.0
 26
0.0
 36
1.0
 17
104.9999999737534
 27
-148.4999999628701
 37
0.0
 40
302.939999924255
 41
0.7070707070707534
 42
50.0
 43
0.0
 44
0.0
 50
0.0
 51
0.0
 71
     0
 72
   100
 73
     1
 74
     0
 75
     1
 76
     0
 77
     0
 78
     0
281
     0
 65
     1
110
0.0
120
0.0
130
0.0
111
1.0
121
0.0
131
0.0
112
0.0
122
1.0
132
0.0
 79
     0
146
0.0
 60
     3
 61
     5
292
     1
282
     1
141
0.0
142
0.0
 63
   250
421
  3355443
  0
ENDTAB
  0
TABLE
  2
LTYPE
  5
5
330
0
100
AcDbSymbolTable
 70
     2
  0
LTYPE
  5
5B
330
5
100
AcDbSymbolTableRecord
100
AcDbLinetypeTableRecord
  2
ByBlock
 70
     0
  3

 72
    65
 73
     0
 40
0.0
  0
LTYPE
  5
5C
330
5
100
AcDbSymbolTableRecord
100
AcDbLinetypeTableRecord
  2
ByLayer
 70
     0
  3

 72
    65
 73
     0
 40
0.0
  0
LTYPE
  5
5D
330
5
100
AcDbSymbolTableRecord
100
AcDbLinetypeTableRecord
  2
Continuous
 70
     0
  3
Solid line
 72
    65
 73
     0
 40
0.0
  0
LTYPE
  5
7E
330
5
100
AcDbSymbolTableRecord
100
AcDbLinetypeTableRecord
  2
AI-Linetype-0
 70
     0
  3
Adobe Illustrator Linetype No. 0
 72
    65
 73
     2
 40
1.411111110758333
 49
0.7055555553791667
 74
     0
 49
-0.7055555553791667
 74
     0
  0
ENDTAB
  0
TABLE
  2
LAYER
  5
2
330
0
100
AcDbSymbolTable
 70
     2
  0
LAYER
  5
54
330
2
100
AcDbSymbolTableRecord
100
AcDbLayerTableRecord
  2
0
 70
     0
 62
     7
  6
Continuous
370
    -3
390
F
347
21
  0
LAYER
  5
78
330
2
100
AcDbSymbolTableRecord
100
AcDbLayerTableRecord
  2
レイヤー 1
 70
     0
 62
     7
  6
Continuous
370
     0
390
F
347
21
  0
ENDTAB
  0
TABLE
  2
STYLE
  5
3
330
0
100
AcDbSymbolTable
 70
     2
  0
STYLE
  5
55
330
3
100
AcDbSymbolTableRecord
100
AcDbTextStyleTableRecord
  2
Standard
 70
     0
 40
0.0
 41
1.0
 50
0.0
 71
     0
 42
0.2
  3
txt
  4

  0
STYLE
  5
5A
330
3
100
AcDbSymbolTableRecord
100
AcDbTextStyleTableRecord
  2
Annotative
 70
     0
 40
0.0
 41
1.0
 50
0.0
 71
     0
 42
0.2
  3
txt
  4

1001
AcadAnnotative
1000
AnnotativeData
1002
{
1070
     1
1070
     1
1002
}
  0
ENDTAB
  0
TABLE
  2
VIEW
  5
6
330
0
100
AcDbSymbolTable
 70
     0
  0
ENDTAB
  0
TABLE
  2
UCS
  5
7
330
0
100
AcDbSymbolTable
 70
     0
  0
ENDTAB
  0
TABLE
  2
APPID
  5
9
330
0
100
AcDbSymbolTable
 70
     2
  0
APPID
  5
56
330
9
100
AcDbSymbolTableRecord
100
AcDbRegAppTableRecord
  2
ACAD
 70
     0
  0
APPID
  5
5E
330
9
100
AcDbSymbolTableRecord
100
AcDbRegAppTableRecord
  2
AcadAnnotative
 70
     0
  0
ENDTAB
  0
TABLE
  2
DIMSTYLE
  5
A
330
0
100
AcDbSymbolTable
 70
     2
100
AcDbDimStyleTable
 71
     0
  0
DIMSTYLE
105
58
330
A
100
AcDbSymbolTableRecord
100
AcDbDimStyleTableRecord
  2
Standard
 70
     0
340
55
  0
DIMSTYLE
105
59
330
A
100
AcDbSymbolTableRecord
100
AcDbDimStyleTableRecord
  2
Annotative
 70
     0
340
55
1001
AcadAnnotative
1000
AnnotativeData
1002
{
1070
     1
1070
     1
1002
}
  0
ENDTAB
  0
TABLE
  2
BLOCK_RECORD
  5
1
330
0
100
AcDbSymbolTable
 70
    15
  0
BLOCK_RECORD
  5
70
330
1
100
AcDbSymbolTableRecord
100
AcDbBlockTableRecord
  2
*Model_Space
340
73
 70
     0
280
     1
281
     0
  0
BLOCK_RECORD
  5
6C
330
1
100
AcDbSymbolTableRecord
100
AcDbBlockTableRecord
  2
*Paper_Space
340
6F
 70
     0
280
     1
281
     0
  0
BLOCK_RECORD
  5
74
330
1
100
AcDbSymbolTableRecord
100
AcDbBlockTableRecord
  2
*Paper_Space0
340
77
 70
     0
280
     1
281
     0
  0
BLOCK_RECORD
  5
79
330
1
100
AcDbSymbolTableRecord
100
AcDbBlockTableRecord
  2
Block_0
340
0
102
{BLKREFS
331
7A
102
}
 70
     0
280
     1
281
     0
  0
BLOCK_RECORD
  5
7F
330
1
100
AcDbSymbolTableRecord
100
AcDbBlockTableRecord
  2
Block_1
340
0
102
{BLKREFS
331
80
102
}
 70
     0
280
     1
281
     0
  0
BLOCK_RECORD
  5
86
330
1
100
AcDbSymbolTableRecord
100
AcDbBlockTableRecord
  2
Block_2
340
0
102
{BLKREFS
331
87
102
}
 70
     0
280
     1
281
     0
  0
BLOCK_RECORD
  5
8A
330
1
100
AcDbSymbolTableRecord
100
AcDbBlockTableRecord
  2
Block_3
340
0
102
{BLKREFS
331
8B
102
}
 70
     0
280
     1
281
     0
  0
BLOCK_RECORD
  5
A1
330
1
100
AcDbSymbolTableRecord
100
AcDbBlockTableRecord
  2
Block_4
340
0
102
{BLKREFS
331
A2
102
}
 70
     0
280
     1
281
     0
  0
BLOCK_RECORD
  5
B7
330
1
100
AcDbSymbolTableRecord
100
AcDbBlockTableRecord
  2
Block_5
340
0
102
{BLKREFS
331
B8
102
}
 70
     0
280
     1
281
     0
  0
BLOCK_RECORD
  5
BB
330
1
100
AcDbSymbolTableRecord
100
AcDbBlockTableRecord
  2
Block_6
340
0
102
{BLKREFS
331
BC
102
}
 70
     0
280
     1
281
     0
  0
BLOCK_RECORD
  5
C5
330
1
100
AcDbSymbolTableRecord
100
AcDbBlockTableRecord
  2
Block_7
340
0
102
{BLKREFS
331
C6
102
}
 70
     0
280
     1
281
     0
  0
BLOCK_RECORD
  5
D0
330
1
100
AcDbSymbolTableRecord
100
AcDbBlockTableRecord
  2
Block_8
340
0
102
{BLKREFS
331
D1
102
}
 70
     0
280
     1
281
     0
  0
BLOCK_RECORD
  5
D4
330
1
100
AcDbSymbolTableRecord
100
AcDbBlockTableRecord
  2
Block_9
340
0
102
{BLKREFS
331
D5
102
}
 70
     0
280
     1
281
     0
  0
BLOCK_RECORD
  5
E1
330
1
100
AcDbSymbolTableRecord
100
AcDbBlockTableRecord
  2
Block_10
340
0
102
{BLKREFS
331
E2
102
}
 70
     0
280
     1
281
     0
  0
BLOCK_RECORD
  5
E5
330
1
100
AcDbSymbolTableRecord
100
AcDbBlockTableRecord
  2
Block_11
340
0
102
{BLKREFS
331
E6
102
}
 70
     0
280
     1
281
     0
  0
BLOCK_RECORD
  5
F2
330
1
100
AcDbSymbolTableRecord
100
AcDbBlockTableRecord
  2
Block_12
340
0
102
{BLKREFS
331
F3
102
}
 70
     0
280
     1
281
     0
  0
BLOCK_RECORD
  5
F6
330
1
100
AcDbSymbolTableRecord
100
AcDbBlockTableRecord
  2
Block_13
340
0
102
{BLKREFS
331
F7
102
}
 70
     0
280
     1
281
     0
  0
ENDTAB
  0
ENDSEC
  0
SECTION
  2
BLOCKS
  0
BLOCK
  5
71
330
70
100
AcDbEntity
  8
0
100
AcDbBlockBegin
  2
*Model_Space
 70
     0
 10
0.0
 20
0.0
 30
0.0
  3
*Model_Space
  1

  0
ENDBLK
  5
72
330
70
100
AcDbEntity
  8
0
100
AcDbBlockEnd
  0
BLOCK
  5
6D
330
6C
100
AcDbEntity
 67
     1
  8
0
100
AcDbBlockBegin
  2
*Paper_Space
 70
     0
 10
0.0
 20
0.0
 30
0.0
  3
*Paper_Space
  1

  0
ENDBLK
  5
6E
330
6C
100
AcDbEntity
 67
     1
  8
0
100
AcDbBlockEnd
  0
BLOCK
  5
75
330
74
100
AcDbEntity
 67
     1
  8
0
100
AcDbBlockBegin
  2
*Paper_Space0
 70
     0
 10
0.0
 20
0.0
 30
0.0
  3
*Paper_Space0
  1

  0
ENDBLK
  5
76
330
74
100
AcDbEntity
 67
     1
  8
0
100
AcDbBlockEnd
  0
BLOCK
  5
7B
330
79
100
AcDbEntity
  8
0
100
AcDbBlockBegin
  2
Block_0
 70
     0
 10
0.0
 20
0.0
 30
0.0
  3
Block_0
  1

  0
LINE
  5
7D
330
79
100
AcDbEntity
  8
レイヤー 1
  6
AI-Linetype-0
 62
   154
420
    23468
370
    25
100
AcDbLine
 10
106.9531042984446
 20
-150.7357914724698
 30
0.0
 11
116.9989586742545
 21
-150.7357914724698
 31
0.0
  0
INSERT
  5
80
330
79
100
AcDbEntity
  8
レイヤー 1
100
AcDbBlockReference
  2
Block_1
 10
0.0
 20
0.0
 30
0.0
  0
INSERT
  5
87
330
79
100
AcDbEntity
  8
レイヤー 1
100
AcDbBlockReference
  2
Block_2
 10
0.0
 20
0.0
 30
0.0
  0
ENDBLK
  5
7C
330
79
100
AcDbEntity
  8
0
100
AcDbBlockEnd
  0
BLOCK
  5
81
330
7F
100
AcDbEntity
  8
0
100
AcDbBlockBegin
  2
Block_1
 70
     0
 10
0.0
 20
0.0
 30
0.0
  3
Block_1
  1

  0
LINE
  5
83
330
7F
100
AcDbEntity
  8
レイヤー 1
 62
    18
420
        0
370
     9
100
AcDbLine
 10
111.7600818487599
 20
-150.5297138089424
 30
0.0
 11
111.4932369908995
 21
-149.5659415756714
 31
0.0
  0
LINE
  5
84
330
7F
100
AcDbEntity
  8
レイヤー 1
 62
    18
420
        0
370
     9
100
AcDbLine
 10
111.7600818487599
 20
-150.5297138089424
 30
0.0
 11
111.7256476413828
 21
-148.9157532461377
 31
0.0
  0
LINE
  5
85
330
7F
100
AcDbEntity
  8
レイヤー 1
 62
    18
420
        0
370
     9
100
AcDbLine
 10
111.7600818487599
 20
-150.5297138089424
 30
0.0
 11
112.0109299262658
 21
-149.561533353555
 31
0.0
  0
ENDBLK
  5
82
330
7F
100
AcDbEntity
  8
0
100
AcDbBlockEnd
  0
BLOCK
  5
88
330
86
100
AcDbEntity
  8
0
100
AcDbBlockBegin
  2
Block_2
 70
     0
 10
0.0
 20
0.0
 30
0.0
  3
Block_2
  1

  0
INSERT
  5
8B
330
86
100
AcDbEntity
  8
レイヤー 1
100
AcDbBlockReference
  2
Block_3
 10
0.0
 20
0.0
 30
0.0
  0
ENDBLK
  5
89
330
86
100
AcDbEntity
  8
0
100
AcDbBlockEnd
  0
BLOCK
  5
8C
330
8A
100
AcDbEntity
  8
0
100
AcDbBlockBegin
  2
Block_3
 70
     0
 10
0.0
 20
0.0
 30
0.0
  3
Block_3
  1

  0
SPLINE
  5
8E
330
8A
100
AcDbEntity
  8
レイヤー 1
100
AcDbSpline
210
0.0
220
0.0
230
1.0
 70
     9
 71
     3
 72
    17
 73
    13
 74
     0
 42
0.0000000001
 43
0.0000000001
 40
0.0
 40
0.0
 40
0.0
 40
0.0
 40
1.0
 40
1.0
 40
1.0
 40
2.0
 40
2.0
 40
2.0
 40
3.0
 40
3.0
 40
3.0
 40
4.0
 40
4.0
 40
4.0
 40
4.0
 10
107.7739555937162
 20
-147.8493733354335
 30
0.0
 10
107.7570746258385
 20
-147.8788289018323
 30
0.0
 10
107.7064317222053
 20
-147.9720187347084
 30
0.0
 10
107.695751926201
 20
-147.9909667598772
 30
0.0
 10
107.8859211969868
 20
-148.0502224022235
 30
0.0
 10
107.9072807889954
 20
-148.0565958288712
 30
0.0
 10
107.9792832846371
 20
-148.0841565927532
 30
0.0
 10
108.0340603028526
 20
-147.9973401865249
 30
0.0
 10
108.0574869521523
 20
-147.9232706335921
 30
0.0
 10
108.0723008627388
 20
-147.8493733354335
 30
0.0
 10
108.0723008627388
 20
-147.8493733354335
 30
0.0
 10
107.7739555937162
 20
-147.8493733354335
 30
0.0
 10
107.7739555937162
 20
-147.8493733354335
 30
0.0
  0
SPLINE
  5
8F
330
8A
100
AcDbEntity
  8
レイヤー 1
100
AcDbSpline
210
0.0
220
0.0
230
1.0
 70
    11
 71
     3
 72
    20
 73
    16
 74
     0
 42
0.0000000001
 43
0.0000000001
 40
0.0
 40
0.0
 40
0.0
 40
0.0
 40
1.0
 40
1.0
 40
1.0
 40
2.0
 40
2.0
 40
2.0
 40
3.0
 40
3.0
 40
3.0
 40
4.0
 40
4.0
 40
4.0
 40
5.0
 40
5.0
 40
5.0
 40
5.0
 10
107.7105658367876
 20
-146.9989515148995
 30
0.0
 10
107.7105658367876
 20
-146.9989515148995
 30
0.0
 10
107.6788709583233
 20
-146.9989515148995
 30
0.0
 10
107.6788709583233
 20
-146.9989515148995
 30
0.0
 10
107.7253797473742
 20
-147.098342519649
 30
0.0
 10
107.7570746258385
 20
-147.1786132444553
 30
0.0
 10
107.7908365615939
 20
-147.3055650130868
 30
0.0
 10
107.7908365615939
 20
-147.3055650130868
 30
0.0
 10
107.998231309806
 20
-147.3055650130868
 30
0.0
 10
107.998231309806
 20
-147.3055650130868
 30
0.0
 10
108.0299261882703
 20
-147.212547434985
 30
0.0
 10
108.05335283757
 20
-147.1279703408221
 30
0.0
 10
108.0764349773212
 20
-146.9989515148995
 30
0.0
 10
108.0764349773212
 20
-146.9989515148995
 30
0.0
 10
107.7105658367876
 20
-146.9989515148995
 30
0.0
 10
107.7105658367876
 20
-146.9989515148995
 30
0.0
  0
SPLINE
  5
90
330
8A
100
AcDbEntity
  8
レイヤー 1
100
AcDbSpline
210
0.0
220
0.0
230
1.0
 70
     9
 71
     3
 72
   242
 73
   238
 74
     0
 42
0.0000000001
 43
0.0000000001
 40
0.0
 40
0.0
 40
0.0
 40
0.0
 40
1.0
 40
1.0
 40
1.0
 40
2.0
 40
2.0
 40
2.0
 40
3.0
 40
3.0
 40
3.0
 40
4.0
 40
4.0
 40
4.0
 40
5.0
 40
5.0
 40
5.0
 40
6.0
 40
6.0
 40
6.0
 40
7.0
 40
7.0
 40
7.0
 40
8.0
 40
8.0
 40
8.0
 40
9.0
 40
9.0
 40
9.0
 40
10.0
 40
10.0
 40
10.0
 40
11.0
 40
11.0
 40
11.0
 40
12.0
 40
12.0
 40
12.0
 40
13.0
 40
13.0
 40
13.0
 40
14.0
 40
14.0
 40
14.0
 40
15.0
 40
15.0
 40
15.0
 40
16.0
 40
16.0
 40
16.0
 40
17.0
 40
17.0
 40
17.0
 40
18.0
 40
18.0
 40
18.0
 40
19.0
 40
19.0
 40
19.0
 40
20.0
 40
20.0
 40
20.0
 40
21.0
 40
21.0
 40
21.0
 40
22.0
 40
22.0
 40
22.0
 40
23.0
 40
23.0
 40
23.0
 40
24.0
 40
24.0
 40
24.0
 40
25.0
 40
25.0
 40
25.0
 40
26.0
 40
26.0
 40
26.0
 40
27.0
 40
27.0
 40
27.0
 40
28.0
 40
28.0
 40
28.0
 40
29.0
 40
29.0
 40
29.0
 40
30.0
 40
30.0
 40
30.0
 40
31.0
 40
31.0
 40
31.0
 40
32.0
 40
32.0
 40
32.0
 40
33.0
 40
33.0
 40
33.0
 40
34.0
 40
34.0
 40
34.0
 40
35.0
 40
35.0
 40
35.0
 40
36.0
 40
36.0
 40
36.0
 40
37.0
 40
37.0
 40
37.0
 40
38.0
 40
38.0
 40
38.0
 40
39.0
 40
39.0
 40
39.0
 40
40.0
 40
40.0
 40
40.0
 40
41.0
 40
41.0
 40
41.0
 40
42.0
 40
42.0
 40
42.0
 40
43.0
 40
43.0
 40
43.0
 40
44.0
 40
44.0
 40
44.0
 40
45.0
 40
45.0
 40
45.0
 40
46.0
 40
46.0
 40
46.0
 40
47.0
 40
47.0
 40
47.0
 40
48.0
 40
48.0
 40
48.0
 40
49.0
 40
49.0
 40
49.0
 40
50.0
 40
50.0
 40
50.0
 40
51.0
 40
51.0
 40
51.0
 40
52.0
 40
52.0
 40
52.0
 40
53.0
 40
53.0
 40
53.0
 40
54.0
 40
54.0
 40
54.0
 40
55.0
 40
55.0
 40
55.0
 40
56.0
 40
56.0
 40
56.0
 40
57.0
 40
57.0
 40
57.0
 40
58.0
 40
58.0
 40
58.0
 40
59.0
 40
59.0
 40
59.0
 40
60.0
 40
60.0
 40
60.0
 40
61.0
 40
61.0
 40
61.0
 40
62.0
 40
62.0
 40
62.0
 40
63.0
 40
63.0
 40
63.0
 40
64.0
 40
64.0
 40
64.0
 40
65.0
 40
65.0
 40
65.0
 40
66.0
 40
66.0
 40
66.0
 40
67.0
 40
67.0
 40
67.0
 40
68.0
 40
68.0
 40
68.0
 40
69.0
 40
69.0
 40
69.0
 40
70.0
 40
70.0
 40
70.0
 40
71.0
 40
71.0
 40
71.0
 40
72.0
 40
72.0
 40
72.0
 40
73.0
 40
73.0
 40
73.0
 40
74.0
 40
74.0
 40
74.0
 40
75.0
 40
75.0
 40
75.0
 40
76.0
 40
76.0
 40
76.0
 40
77.0
 40
77.0
 40
77.0
 40
78.0
 40
78.0
 40
78.0
 40
79.0
 40
79.0
 40
79.0
 40
79.0
 10
108.3389512532972
 20
-147.4642116601826
 30
0.0
 10
108.3389512532972
 20
-147.4642116601826
 30
0.0
 10
108.0850477160343
 20
-147.4642116601826
 30
0.0
 10
108.0850477160343
 20
-147.4642116601826
 30
0.0
 10
108.0850477160343
 20
-147.4642116601826
 30
0.0
 10
107.8077175294717
 20
-147.4642116601826
 30
0.0
 10
107.8077175294717
 20
-147.4642116601826
 30
0.0
 10
107.8077175294717
 20
-147.4642116601826
 30
0.0
 10
107.9348415528774
 20
-147.5065863346511
 30
0.0
 10
107.9348415528774
 20
-147.5065863346511
 30
0.0
 10
107.9451768393331
 20
-147.5108927040077
 30
0.0
 10
107.9579236926285
 20
-147.5170938758811
 30
0.0
 10
107.9579236926285
 20
-147.5298407291766
 30
0.0
 10
107.9579236926285
 20
-147.5510280664108
 30
0.0
 10
107.9262288141642
 20
-147.5574014930585
 30
0.0
 10
107.9052137317042
 20
-147.5615356076408
 30
0.0
 10
107.8945339357
 20
-147.5847900021663
 30
0.0
 10
107.8649061145268
 20
-147.6504190711603
 30
0.0
 10
107.8459580893579
 20
-147.69486080292
 30
0.0
 10
107.8459580893579
 20
-147.69486080292
 30
0.0
 10
108.1167425944986
 20
-147.69486080292
 30
0.0
 10
108.1167425944986
 20
-147.69486080292
 30
0.0
 10
108.2076931153092
 20
-147.69486080292
 30
0.0
 10
108.4044080675169
 20
-147.6905544335634
 30
0.0
 10
108.5460014919607
 20
-147.6821139496246
 30
0.0
 10
108.5460014919607
 20
-147.6821139496246
 30
0.0
 10
108.5460014919607
 20
-147.8598808766635
 30
0.0
 10
108.5460014919607
 20
-147.8598808766635
 30
0.0
 10
108.4636637098632
 20
-147.8555745073069
 30
0.0
 10
108.4423041178547
 20
-147.8555745073069
 30
0.0
 10
108.2624701335246
 20
-147.8514403927246
 30
0.0
 10
108.2307752550603
 20
-148.0057806704638
 30
0.0
 10
108.1863335233006
 20
-148.0862236500444
 30
0.0
 10
108.1418917915409
 20
-148.1559868336207
 30
0.0
 10
108.2624701335246
 20
-148.215242475967
 30
0.0
 10
108.3685790744703
 20
-148.2829386022522
 30
0.0
 10
108.4719319390278
 20
-148.3654486391239
 30
0.0
 10
108.4719319390278
 20
-148.3654486391239
 30
0.0
 10
108.3537651638838
 20
-148.5325357701585
 30
0.0
 10
108.3537651638838
 20
-148.5325357701585
 30
0.0
 10
108.3303385145841
 20
-148.5135877449897
 30
0.0
 10
108.3175916612886
 20
-148.5051472610508
 30
0.0
 10
108.205626058018
 20
-148.4203979121136
 30
0.0
 10
108.1567057021275
 20
-148.3823296070016
 30
0.0
 10
108.0977945693297
 20
-148.346500613955
 30
0.0
 10
108.0171793349748
 20
-148.3020588821953
 30
0.0
 10
107.8056504721805
 20
-148.488266293173
 30
0.0
 10
107.6003227812596
 20
-148.5115206876985
 30
0.0
 10
107.3105902509501
 20
-148.5411485088716
 30
0.0
 10
107.3105902509501
 20
-148.5411485088716
 30
0.0
 10
107.2068928768441
 20
-148.3613145245416
 30
0.0
 10
107.2068928768441
 20
-148.3613145245416
 30
0.0
 10
107.5241861710356
 20
-148.357008155185
 30
0.0
 10
107.6998860407833
 20
-148.3316867033684
 30
0.0
 10
107.8521592612314
 20
-148.2216159026147
 30
0.0
 10
107.7336479765388
 20
-148.1708007442073
 30
0.0
 10
107.6447645130193
 20
-148.1434122350995
 30
0.0
 10
107.6089355199727
 20
-148.1306653818041
 30
0.0
 10
107.5899874948039
 20
-148.1582261456861
 30
0.0
 10
107.5751735842173
 20
-148.177174170855
 30
0.0
 10
107.5476128203353
 20
-148.2111083613847
 30
0.0
 10
107.5476128203353
 20
-148.2111083613847
 30
0.0
 10
107.3508978681275
 20
-148.128598324513
 30
0.0
 10
107.3508978681275
 20
-148.128598324513
 30
0.0
 10
107.433235650225
 20
-148.0481553449324
 30
0.0
 10
107.4945583498625
 20
-147.9528984547652
 30
0.0
 10
107.5517469349176
 20
-147.8514403927246
 30
0.0
 10
107.3615776641318
 20
-147.8555745073069
 30
0.0
 10
107.3402180721233
 20
-147.8555745073069
 30
0.0
 10
107.2578802900258
 20
-147.8598808766635
 30
0.0
 10
107.2578802900258
 20
-147.8598808766635
 30
0.0
 10
107.2578802900258
 20
-147.6821139496246
 30
0.0
 10
107.2578802900258
 20
-147.6821139496246
 30
0.0
 10
107.3974066571784
 20
-147.6884873762723
 30
0.0
 10
107.6068684626816
 20
-147.6927937456289
 30
0.0
 10
107.6323621692724
 20
-147.6927937456289
 30
0.0
 10
107.6492431371502
 20
-147.6588595550992
 30
0.0
 10
107.7040201553656
 20
-147.5382812131154
 30
0.0
 10
107.723312690083
 20
-147.4642116601826
 30
0.0
 10
107.7040201553656
 20
-147.4642116601826
 30
0.0
 10
107.5265977378753
 20
-147.4705850868303
 30
0.0
 10
107.3319498429587
 20
-147.4833319401257
 30
0.0
 10
107.3319498429587
 20
-147.4833319401257
 30
0.0
 10
107.3319498429587
 20
-147.6166571354048
 30
0.0
 10
107.3319498429587
 20
-147.6166571354048
 30
0.0
 10
107.2830294870681
 20
-147.6419785872214
 30
0.0
 10
107.2237738447218
 20
-147.6736734656857
 30
0.0
 10
107.0907931589912
 20
-147.7393025346797
 30
0.0
 10
107.0907931589912
 20
-147.7393025346797
 30
0.0
 10
107.0907931589912
 20
-147.8852023284801
 30
0.0
 10
107.0907931589912
 20
-147.8852023284801
 30
0.0
 10
107.0907931589912
 20
-147.8852023284801
 30
0.0
 10
107.0907931589912
 20
-148.3528740406027
 30
0.0
 10
107.0907931589912
 20
-148.3528740406027
 30
0.0
 10
107.0907931589912
 20
-148.4796535544599
 30
0.0
 10
107.054619656396
 20
-148.5389091968062
 30
0.0
 10
106.77108829796
 20
-148.5304687128674
 30
0.0
 10
106.77108829796
 20
-148.5304687128674
 30
0.0
 10
106.667390923854
 20
-148.3232462194296
 30
0.0
 10
106.667390923854
 20
-148.3232462194296
 30
0.0
 10
106.7311251903311
 20
-148.3358208179508
 30
0.0
 10
106.7797010366731
 20
-148.3401271873073
 30
0.0
 10
106.8200086538505
 20
-148.3401271873073
 30
0.0
 10
106.8961452640746
 20
-148.3401271873073
 30
0.0
 10
106.9064805505303
 20
-148.3168727927819
 30
0.0
 10
106.9064805505303
 20
-148.2512437237879
 30
0.0
 10
106.9064805505303
 20
-148.2512437237879
 30
0.0
 10
106.9064805505303
 20
-147.8218125715515
 30
0.0
 10
106.9064805505303
 20
-147.8218125715515
 30
0.0
 10
106.8093288578463
 20
-147.8619479339546
 30
0.0
 10
106.7924478899685
 20
-147.8683213606023
 30
0.0
 10
106.7459391009176
 20
-147.8874416405455
 30
0.0
 10
106.7414604767868
 20
-147.9084567230055
 30
0.0
 10
106.7373263622045
 20
-147.9380845441786
 30
0.0
 10
106.7183783370357
 20
-147.9380845441786
 30
0.0
 10
106.7097655983225
 20
-147.9380845441786
 30
0.0
 10
106.6994303118668
 20
-147.9339504295964
 30
0.0
 10
106.6928846304448
 20
-147.9106960350709
 30
0.0
 10
106.6928846304448
 20
-147.9106960350709
 30
0.0
 10
106.6401746695205
 20
-147.7181151974455
 30
0.0
 10
106.6401746695205
 20
-147.7181151974455
 30
0.0
 10
106.7859022085466
 20
-147.6716064083946
 30
0.0
 10
106.8517035323148
 20
-147.6483520138691
 30
0.0
 10
106.9064805505303
 20
-147.6271646766349
 30
0.0
 10
106.9064805505303
 20
-147.6271646766349
 30
0.0
 10
106.9064805505303
 20
-147.2146144922762
 30
0.0
 10
106.9064805505303
 20
-147.2146144922762
 30
0.0
 10
106.9064805505303
 20
-147.2146144922762
 30
0.0
 10
106.853770589606
 20
-147.2146144922762
 30
0.0
 10
106.853770589606
 20
-147.2146144922762
 30
0.0
 10
106.853770589606
 20
-147.2146144922762
 30
0.0
 10
106.7755669220908
 20
-147.2146144922762
 30
0.0
 10
106.7755669220908
 20
-147.2146144922762
 30
0.0
 10
106.7076985410314
 20
-147.2146144922762
 30
0.0
 10
106.6994303118668
 20
-147.2146144922762
 30
0.0
 10
106.6632568092717
 20
-147.2209879189239
 30
0.0
 10
106.6632568092717
 20
-147.2209879189239
 30
0.0
 10
106.6632568092717
 20
-147.0263400240073
 30
0.0
 10
106.6632568092717
 20
-147.0263400240073
 30
0.0
 10
106.6908175731537
 20
-147.032713450655
 30
0.0
 10
106.6994303118668
 20
-147.032713450655
 30
0.0
 10
106.7690212406688
 20
-147.032713450655
 30
0.0
 10
106.7690212406688
 20
-147.032713450655
 30
0.0
 10
106.902346435948
 20
-147.032713450655
 30
0.0
 10
106.902346435948
 20
-147.032713450655
 30
0.0
 10
106.902346435948
 20
-146.9629502670787
 30
0.0
 10
106.902346435948
 20
-146.8804402302069
 30
0.0
 10
106.9002793786568
 20
-146.8761338608504
 30
0.0
 10
106.8916666399437
 20
-146.6962998765204
 30
0.0
 10
106.8916666399437
 20
-146.6773518513515
 30
0.0
 10
106.8895995826526
 20
-146.6308430623006
 30
0.0
 10
106.8895995826526
 20
-146.6308430623006
 30
0.0
 10
107.1056070695777
 20
-146.6392835462395
 30
0.0
 10
107.1056070695777
 20
-146.6392835462395
 30
0.0
 10
107.1159423560335
 20
-146.6392835462395
 30
0.0
 10
107.137301948042
 20
-146.6413506035306
 30
0.0
 10
107.137301948042
 20
-146.6582315714084
 30
0.0
 10
107.137301948042
 20
-146.6773518513515
 30
0.0
 10
107.1224880374555
 20
-146.6878593925815
 30
0.0
 10
107.0969943308646
 20
-146.7069796725246
 30
0.0
 10
107.0969943308646
 20
-146.7576225761578
 30
0.0
 10
107.0907931589912
 20
-146.9862046616041
 30
0.0
 10
107.0928602162823
 20
-147.032713450655
 30
0.0
 10
107.2217067874307
 20
-147.032713450655
 30
0.0
 10
107.2344536407261
 20
-147.032713450655
 30
0.0
 10
107.3319498429587
 20
-147.0242729667161
 30
0.0
 10
107.3319498429587
 20
-147.0242729667161
 30
0.0
 10
107.3319498429587
 20
-147.2189208616327
 30
0.0
 10
107.3319498429587
 20
-147.2189208616327
 30
0.0
 10
107.2937092830724
 20
-147.2166815495674
 30
0.0
 10
107.2261854115615
 20
-147.212547434985
 30
0.0
 10
107.0907931589912
 20
-147.2146144922762
 30
0.0
 10
107.0907931589912
 20
-147.2146144922762
 30
0.0
 10
107.0907931589912
 20
-147.553095123702
 30
0.0
 10
107.0907931589912
 20
-147.553095123702
 30
0.0
 10
107.1455701772066
 20
-147.5298407291766
 30
0.0
 10
107.2113715009749
 20
-147.5022799652945
 30
0.0
 10
107.2599473473169
 20
-147.4790255707691
 30
0.0
 10
107.2599473473169
 20
-147.4790255707691
 30
0.0
 10
107.2599473473169
 20
-147.3014308985045
 30
0.0
 10
107.2599473473169
 20
-147.3014308985045
 30
0.0
 10
107.3739800078787
 20
-147.3140054970256
 30
0.0
 10
107.4924912925713
 20
-147.3140054970256
 30
0.0
 10
107.6089355199727
 20
-147.3140054970256
 30
0.0
 10
107.585508870673
 20
-147.2189208616327
 30
0.0
 10
107.5582926163396
 20
-147.136410824761
 30
0.0
 10
107.4945583498625
 20
-147.0030856294819
 30
0.0
 10
107.4501166181027
 20
-147.005152686773
 30
0.0
 10
107.3677788360053
 20
-147.0094590561296
 30
0.0
 10
107.329538276119
 20
-147.0115261134207
 30
0.0
 10
107.329538276119
 20
-147.0115261134207
 30
0.0
 10
107.329538276119
 20
-146.8316921290907
 30
0.0
 10
107.329538276119
 20
-146.8316921290907
 30
0.0
 10
107.4545952422335
 20
-146.8401326130295
 30
0.0
 10
107.6278835451416
 20
-146.8444389823861
 30
0.0
 10
107.7105658367876
 20
-146.8444389823861
 30
0.0
 10
107.7105658367876
 20
-146.8444389823861
 30
0.0
 10
107.7929036188851
 20
-146.8444389823861
 30
0.0
 10
107.7929036188851
 20
-146.8444389823861
 30
0.0
 10
107.7929036188851
 20
-146.6814859659338
 30
0.0
 10
107.7929036188851
 20
-146.6709784247037
 30
0.0
 10
107.7908365615939
 20
-146.616029151714
 30
0.0
 10
107.7908365615939
 20
-146.616029151714
 30
0.0
 10
108.0151122776837
 20
-146.6413506035306
 30
0.0
 10
108.0151122776837
 20
-146.6413506035306
 30
0.0
 10
108.019246392266
 20
-146.6413506035306
 30
0.0
 10
108.0406059842746
 20
-146.6434176608218
 30
0.0
 10
108.0406059842746
 20
-146.6602986286995
 30
0.0
 10
108.0406059842746
 20
-146.6751125392861
 30
0.0
 10
108.0299261882703
 20
-146.6837252779992
 30
0.0
 10
108.0023654243883
 20
-146.6985391885858
 30
0.0
 10
107.9961642525148
 20
-146.7639960028055
 30
0.0
 10
107.9940971952237
 20
-146.7851833400398
 30
0.0
 10
107.9940971952237
 20
-146.8444389823861
 30
0.0
 10
107.9940971952237
 20
-146.8444389823861
 30
0.0
 10
108.0891818306166
 20
-146.8444389823861
 30
0.0
 10
108.0891818306166
 20
-146.8444389823861
 30
0.0
 10
108.171519612714
 20
-146.8444389823861
 30
0.0
 10
108.3451524251706
 20
-146.8401326130295
 30
0.0
 10
108.4698648817367
 20
-146.8316921290907
 30
0.0
 10
108.4698648817367
 20
-146.8316921290907
 30
0.0
 10
108.4698648817367
 20
-147.0115261134207
 30
0.0
 10
108.4698648817367
 20
-147.0115261134207
 30
0.0
 10
108.4402370605635
 20
-147.0094590561296
 30
0.0
 10
108.3217257758709
 20
-147.005152686773
 30
0.0
 10
108.281762668242
 20
-147.0030856294819
 30
0.0
 10
108.2669487576555
 20
-147.0539007878893
 30
0.0
 10
108.2331868219
 20
-147.1660386459342
 30
0.0
 10
108.1673854981317
 20
-147.3055650130868
 30
0.0
 10
108.2097601726003
 20
-147.3055650130868
 30
0.0
 10
108.4867458496144
 20
-147.2866169879179
 30
0.0
 10
108.5480685492518
 20
-147.2843776758525
 30
0.0
 10
108.5480685492518
 20
-147.2843776758525
 30
0.0
 10
108.5480685492518
 20
-147.4685180295391
 30
0.0
 10
108.5480685492518
 20
-147.4685180295391
 30
0.0
 10
108.5187852376272
 20
-147.4685180295391
 30
0.0
 10
108.501559760201
 20
-147.4642116601826
 30
0.0
 10
108.3389512532972
 20
-147.4642116601826
 30
0.0
  0
HATCH
  5
91
330
8A
100
AcDbEntity
  8
レイヤー 1
 62
    18
420
        0
440
 33554687
100
AcDbHatch
 10
0.0
 20
0.0
 30
0.0
210
0.0
220
0.0
230
1.0
  2
SOLID
 70
     1
 71
     1
 91
        3
 92
        1
 93
        1
 72
     4
 94
        3
 73
     0
 74
     0
 95
       17
 96
       13
 40
0.0
 40
0.0
 40
0.0
 40
0.0
 40
1.0
 40
1.0
 40
1.0
 40
2.0
 40
2.0
 40
2.0
 40
3.0
 40
3.0
 40
3.0
 40
4.0
 40
4.0
 40
4.0
 40
4.0
 10
107.7739555937162
 20
-147.8493733354335
 10
107.7570746258385
 20
-147.8788289018323
 10
107.7064317222053
 20
-147.9720187347084
 10
107.695751926201
 20
-147.9909667598772
 10
107.8859211969868
 20
-148.0502224022235
 10
107.9072807889954
 20
-148.0565958288712
 10
107.9792832846371
 20
-148.0841565927532
 10
108.0340603028526
 20
-147.9973401865249
 10
108.0574869521523
 20
-147.9232706335921
 10
108.0723008627388
 20
-147.8493733354335
 10
108.0723008627388
 20
-147.8493733354335
 10
107.7739555937162
 20
-147.8493733354335
 10
107.7739555937162
 20
-147.8493733354335
 97
        0
 97
        1
330
8E
 92
        1
 93
        1
 72
     4
 94
        3
 73
     0
 74
     0
 95
       20
 96
       16
 40
0.0
 40
0.0
 40
0.0
 40
0.0
 40
1.0
 40
1.0
 40
1.0
 40
2.0
 40
2.0
 40
2.0
 40
3.0
 40
3.0
 40
3.0
 40
4.0
 40
4.0
 40
4.0
 40
5.0
 40
5.0
 40
5.0
 40
5.0
 10
107.7105658367876
 20
-146.9989515148995
 10
107.7105658367876
 20
-146.9989515148995
 10
107.6788709583233
 20
-146.9989515148995
 10
107.6788709583233
 20
-146.9989515148995
 10
107.7253797473742
 20
-147.098342519649
 10
107.7570746258385
 20
-147.1786132444553
 10
107.7908365615939
 20
-147.3055650130868
 10
107.7908365615939
 20
-147.3055650130868
 10
107.998231309806
 20
-147.3055650130868
 10
107.998231309806
 20
-147.3055650130868
 10
108.0299261882703
 20
-147.212547434985
 10
108.05335283757
 20
-147.1279703408221
 10
108.0764349773212
 20
-146.9989515148995
 10
108.0764349773212
 20
-146.9989515148995
 10
107.7105658367876
 20
-146.9989515148995
 10
107.7105658367876
 20
-146.9989515148995
 97
        0
 97
        1
330
8F
 92
        1
 93
        1
 72
     4
 94
        3
 73
     0
 74
     0
 95
      242
 96
      238
 40
0.0
 40
0.0
 40
0.0
 40
0.0
 40
1.0
 40
1.0
 40
1.0
 40
2.0
 40
2.0
 40
2.0
 40
3.0
 40
3.0
 40
3.0
 40
4.0
 40
4.0
 40
4.0
 40
5.0
 40
5.0
 40
5.0
 40
6.0
 40
6.0
 40
6.0
 40
7.0
 40
7.0
 40
7.0
 40
8.0
 40
8.0
 40
8.0
 40
9.0
 40
9.0
 40
9.0
 40
10.0
 40
10.0
 40
10.0
 40
11.0
 40
11.0
 40
11.0
 40
12.0
 40
12.0
 40
12.0
 40
13.0
 40
13.0
 40
13.0
 40
14.0
 40
14.0
 40
14.0
 40
15.0
 40
15.0
 40
15.0
 40
16.0
 40
16.0
 40
16.0
 40
17.0
 40
17.0
 40
17.0
 40
18.0
 40
18.0
 40
18.0
 40
19.0
 40
19.0
 40
19.0
 40
20.0
 40
20.0
 40
20.0
 40
21.0
 40
21.0
 40
21.0
 40
22.0
 40
22.0
 40
22.0
 40
23.0
 40
23.0
 40
23.0
 40
24.0
 40
24.0
 40
24.0
 40
25.0
 40
25.0
 40
25.0
 40
26.0
 40
26.0
 40
26.0
 40
27.0
 40
27.0
 40
27.0
 40
28.0
 40
28.0
 40
28.0
 40
29.0
 40
29.0
 40
29.0
 40
30.0
 40
30.0
 40
30.0
 40
31.0
 40
31.0
 40
31.0
 40
32.0
 40
32.0
 40
32.0
 40
33.0
 40
33.0
 40
33.0
 40
34.0
 40
34.0
 40
34.0
 40
35.0
 40
35.0
 40
35.0
 40
36.0
 40
36.0
 40
36.0
 40
37.0
 40
37.0
 40
37.0
 40
38.0
 40
38.0
 40
38.0
 40
39.0
 40
39.0
 40
39.0
 40
40.0
 40
40.0
 40
40.0
 40
41.0
 40
41.0
 40
41.0
 40
42.0
 40
42.0
 40
42.0
 40
43.0
 40
43.0
 40
43.0
 40
44.0
 40
44.0
 40
44.0
 40
45.0
 40
45.0
 40
45.0
 40
46.0
 40
46.0
 40
46.0
 40
47.0
 40
47.0
 40
47.0
 40
48.0
 40
48.0
 40
48.0
 40
49.0
 40
49.0
 40
49.0
 40
50.0
 40
50.0
 40
50.0
 40
51.0
 40
51.0
 40
51.0
 40
52.0
 40
52.0
 40
52.0
 40
53.0
 40
53.0
 40
53.0
 40
54.0
 40
54.0
 40
54.0
 40
55.0
 40
55.0
 40
55.0
 40
56.0
 40
56.0
 40
56.0
 40
57.0
 40
57.0
 40
57.0
 40
58.0
 40
58.0
 40
58.0
 40
59.0
 40
59.0
 40
59.0
 40
60.0
 40
60.0
 40
60.0
 40
61.0
 40
61.0
 40
61.0
 40
62.0
 40
62.0
 40
62.0
 40
63.0
 40
63.0
 40
63.0
 40
64.0
 40
64.0
 40
64.0
 40
65.0
 40
65.0
 40
65.0
 40
66.0
 40
66.0
 40
66.0
 40
67.0
 40
67.0
 40
67.0
 40
68.0
 40
68.0
 40
68.0
 40
69.0
 40
69.0
 40
69.0
 40
70.0
 40
70.0
 40
70.0
 40
71.0
 40
71.0
 40
71.0
 40
72.0
 40
72.0
 40
72.0
 40
73.0
 40
73.0
 40
73.0
 40
74.0
 40
74.0
 40
74.0
 40
75.0
 40
75.0
 40
75.0
 40
76.0
 40
76.0
 40
76.0
 40
77.0
 40
77.0
 40
77.0
 40
78.0
 40
78.0
 40
78.0
 40
79.0
 40
79.0
 40
79.0
 40
79.0
 10
108.3389512532972
 20
-147.4642116601826
 10
108.3389512532972
 20
-147.4642116601826
 10
108.0850477160343
 20
-147.4642116601826
 10
108.0850477160343
 20
-147.4642116601826
 10
108.0850477160343
 20
-147.4642116601826
 10
107.8077175294717
 20
-147.4642116601826
 10
107.8077175294717
 20
-147.4642116601826
 10
107.8077175294717
 20
-147.4642116601826
 10
107.9348415528774
 20
-147.5065863346511
 10
107.9348415528774
 20
-147.5065863346511
 10
107.9451768393331
 20
-147.5108927040077
 10
107.9579236926285
 20
-147.5170938758811
 10
107.9579236926285
 20
-147.5298407291766
 10
107.9579236926285
 20
-147.5510280664108
 10
107.9262288141642
 20
-147.5574014930585
 10
107.9052137317042
 20
-147.5615356076408
 10
107.8945339357
 20
-147.5847900021663
 10
107.8649061145268
 20
-147.6504190711603
 10
107.8459580893579
 20
-147.69486080292
 10
107.8459580893579
 20
-147.69486080292
 10
108.1167425944986
 20
-147.69486080292
 10
108.1167425944986
 20
-147.69486080292
 10
108.2076931153092
 20
-147.69486080292
 10
108.4044080675169
 20
-147.6905544335634
 10
108.5460014919607
 20
-147.6821139496246
 10
108.5460014919607
 20
-147.6821139496246
 10
108.5460014919607
 20
-147.8598808766635
 10
108.5460014919607
 20
-147.8598808766635
 10
108.4636637098632
 20
-147.8555745073069
 10
108.4423041178547
 20
-147.8555745073069
 10
108.2624701335246
 20
-147.8514403927246
 10
108.2307752550603
 20
-148.0057806704638
 10
108.1863335233006
 20
-148.0862236500444
 10
108.1418917915409
 20
-148.1559868336207
 10
108.2624701335246
 20
-148.215242475967
 10
108.3685790744703
 20
-148.2829386022522
 10
108.4719319390278
 20
-148.3654486391239
 10
108.4719319390278
 20
-148.3654486391239
 10
108.3537651638838
 20
-148.5325357701585
 10
108.3537651638838
 20
-148.5325357701585
 10
108.3303385145841
 20
-148.5135877449897
 10
108.3175916612886
 20
-148.5051472610508
 10
108.205626058018
 20
-148.4203979121136
 10
108.1567057021275
 20
-148.3823296070016
 10
108.0977945693297
 20
-148.346500613955
 10
108.0171793349748
 20
-148.3020588821953
 10
107.8056504721805
 20
-148.488266293173
 10
107.6003227812596
 20
-148.5115206876985
 10
107.3105902509501
 20
-148.5411485088716
 10
107.3105902509501
 20
-148.5411485088716
 10
107.2068928768441
 20
-148.3613145245416
 10
107.2068928768441
 20
-148.3613145245416
 10
107.5241861710356
 20
-148.357008155185
 10
107.6998860407833
 20
-148.3316867033684
 10
107.8521592612314
 20
-148.2216159026147
 10
107.7336479765388
 20
-148.1708007442073
 10
107.6447645130193
 20
-148.1434122350995
 10
107.6089355199727
 20
-148.1306653818041
 10
107.5899874948039
 20
-148.1582261456861
 10
107.5751735842173
 20
-148.177174170855
 10
107.5476128203353
 20
-148.2111083613847
 10
107.5476128203353
 20
-148.2111083613847
 10
107.3508978681275
 20
-148.128598324513
 10
107.3508978681275
 20
-148.128598324513
 10
107.433235650225
 20
-148.0481553449324
 10
107.4945583498625
 20
-147.9528984547652
 10
107.5517469349176
 20
-147.8514403927246
 10
107.3615776641318
 20
-147.8555745073069
 10
107.3402180721233
 20
-147.8555745073069
 10
107.2578802900258
 20
-147.8598808766635
 10
107.2578802900258
 20
-147.8598808766635
 10
107.2578802900258
 20
-147.6821139496246
 10
107.2578802900258
 20
-147.6821139496246
 10
107.3974066571784
 20
-147.6884873762723
 10
107.6068684626816
 20
-147.6927937456289
 10
107.6323621692724
 20
-147.6927937456289
 10
107.6492431371502
 20
-147.6588595550992
 10
107.7040201553656
 20
-147.5382812131154
 10
107.723312690083
 20
-147.4642116601826
 10
107.7040201553656
 20
-147.4642116601826
 10
107.5265977378753
 20
-147.4705850868303
 10
107.3319498429587
 20
-147.4833319401257
 10
107.3319498429587
 20
-147.4833319401257
 10
107.3319498429587
 20
-147.6166571354048
 10
107.3319498429587
 20
-147.6166571354048
 10
107.2830294870681
 20
-147.6419785872214
 10
107.2237738447218
 20
-147.6736734656857
 10
107.0907931589912
 20
-147.7393025346797
 10
107.0907931589912
 20
-147.7393025346797
 10
107.0907931589912
 20
-147.8852023284801
 10
107.0907931589912
 20
-147.8852023284801
 10
107.0907931589912
 20
-147.8852023284801
 10
107.0907931589912
 20
-148.3528740406027
 10
107.0907931589912
 20
-148.3528740406027
 10
107.0907931589912
 20
-148.4796535544599
 10
107.054619656396
 20
-148.5389091968062
 10
106.77108829796
 20
-148.5304687128674
 10
106.77108829796
 20
-148.5304687128674
 10
106.667390923854
 20
-148.3232462194296
 10
106.667390923854
 20
-148.3232462194296
 10
106.7311251903311
 20
-148.3358208179508
 10
106.7797010366731
 20
-148.3401271873073
 10
106.8200086538505
 20
-148.3401271873073
 10
106.8961452640746
 20
-148.3401271873073
 10
106.9064805505303
 20
-148.3168727927819
 10
106.9064805505303
 20
-148.2512437237879
 10
106.9064805505303
 20
-148.2512437237879
 10
106.9064805505303
 20
-147.8218125715515
 10
106.9064805505303
 20
-147.8218125715515
 10
106.8093288578463
 20
-147.8619479339546
 10
106.7924478899685
 20
-147.8683213606023
 10
106.7459391009176
 20
-147.8874416405455
 10
106.7414604767868
 20
-147.9084567230055
 10
106.7373263622045
 20
-147.9380845441786
 10
106.7183783370357
 20
-147.9380845441786
 10
106.7097655983225
 20
-147.9380845441786
 10
106.6994303118668
 20
-147.9339504295964
 10
106.6928846304448
 20
-147.9106960350709
 10
106.6928846304448
 20
-147.9106960350709
 10
106.6401746695205
 20
-147.7181151974455
 10
106.6401746695205
 20
-147.7181151974455
 10
106.7859022085466
 20
-147.6716064083946
 10
106.8517035323148
 20
-147.6483520138691
 10
106.9064805505303
 20
-147.6271646766349
 10
106.9064805505303
 20
-147.6271646766349
 10
106.9064805505303
 20
-147.2146144922762
 10
106.9064805505303
 20
-147.2146144922762
 10
106.9064805505303
 20
-147.2146144922762
 10
106.853770589606
 20
-147.2146144922762
 10
106.853770589606
 20
-147.2146144922762
 10
106.853770589606
 20
-147.2146144922762
 10
106.7755669220908
 20
-147.2146144922762
 10
106.7755669220908
 20
-147.2146144922762
 10
106.7076985410314
 20
-147.2146144922762
 10
106.6994303118668
 20
-147.2146144922762
 10
106.6632568092717
 20
-147.2209879189239
 10
106.6632568092717
 20
-147.2209879189239
 10
106.6632568092717
 20
-147.0263400240073
 10
106.6632568092717
 20
-147.0263400240073
 10
106.6908175731537
 20
-147.032713450655
 10
106.6994303118668
 20
-147.032713450655
 10
106.7690212406688
 20
-147.032713450655
 10
106.7690212406688
 20
-147.032713450655
 10
106.902346435948
 20
-147.032713450655
 10
106.902346435948
 20
-147.032713450655
 10
106.902346435948
 20
-146.9629502670787
 10
106.902346435948
 20
-146.8804402302069
 10
106.9002793786568
 20
-146.8761338608504
 10
106.8916666399437
 20
-146.6962998765204
 10
106.8916666399437
 20
-146.6773518513515
 10
106.8895995826526
 20
-146.6308430623006
 10
106.8895995826526
 20
-146.6308430623006
 10
107.1056070695777
 20
-146.6392835462395
 10
107.1056070695777
 20
-146.6392835462395
 10
107.1159423560335
 20
-146.6392835462395
 10
107.137301948042
 20
-146.6413506035306
 10
107.137301948042
 20
-146.6582315714084
 10
107.137301948042
 20
-146.6773518513515
 10
107.1224880374555
 20
-146.6878593925815
 10
107.0969943308646
 20
-146.7069796725246
 10
107.0969943308646
 20
-146.7576225761578
 10
107.0907931589912
 20
-146.9862046616041
 10
107.0928602162823
 20
-147.032713450655
 10
107.2217067874307
 20
-147.032713450655
 10
107.2344536407261
 20
-147.032713450655
 10
107.3319498429587
 20
-147.0242729667161
 10
107.3319498429587
 20
-147.0242729667161
 10
107.3319498429587
 20
-147.2189208616327
 10
107.3319498429587
 20
-147.2189208616327
 10
107.2937092830724
 20
-147.2166815495674
 10
107.2261854115615
 20
-147.212547434985
 10
107.0907931589912
 20
-147.2146144922762
 10
107.0907931589912
 20
-147.2146144922762
 10
107.0907931589912
 20
-147.553095123702
 10
107.0907931589912
 20
-147.553095123702
 10
107.1455701772066
 20
-147.5298407291766
 10
107.2113715009749
 20
-147.5022799652945
 10
107.2599473473169
 20
-147.4790255707691
 10
107.2599473473169
 20
-147.4790255707691
 10
107.2599473473169
 20
-147.3014308985045
 10
107.2599473473169
 20
-147.3014308985045
 10
107.3739800078787
 20
-147.3140054970256
 10
107.4924912925713
 20
-147.3140054970256
 10
107.6089355199727
 20
-147.3140054970256
 10
107.585508870673
 20
-147.2189208616327
 10
107.5582926163396
 20
-147.136410824761
 10
107.4945583498625
 20
-147.0030856294819
 10
107.4501166181027
 20
-147.005152686773
 10
107.3677788360053
 20
-147.0094590561296
 10
107.329538276119
 20
-147.0115261134207
 10
107.329538276119
 20
-147.0115261134207
 10
107.329538276119
 20
-146.8316921290907
 10
107.329538276119
 20
-146.8316921290907
 10
107.4545952422335
 20
-146.8401326130295
 10
107.6278835451416
 20
-146.8444389823861
 10
107.7105658367876
 20
-146.8444389823861
 10
107.7105658367876
 20
-146.8444389823861
 10
107.7929036188851
 20
-146.8444389823861
 10
107.7929036188851
 20
-146.8444389823861
 10
107.7929036188851
 20
-146.6814859659338
 10
107.7929036188851
 20
-146.6709784247037
 10
107.7908365615939
 20
-146.616029151714
 10
107.7908365615939
 20
-146.616029151714
 10
108.0151122776837
 20
-146.6413506035306
 10
108.0151122776837
 20
-146.6413506035306
 10
108.019246392266
 20
-146.6413506035306
 10
108.0406059842746
 20
-146.6434176608218
 10
108.0406059842746
 20
-146.6602986286995
 10
108.0406059842746
 20
-146.6751125392861
 10
108.0299261882703
 20
-146.6837252779992
 10
108.0023654243883
 20
-146.6985391885858
 10
107.9961642525148
 20
-146.7639960028055
 10
107.9940971952237
 20
-146.7851833400398
 10
107.9940971952237
 20
-146.8444389823861
 10
107.9940971952237
 20
-146.8444389823861
 10
108.0891818306166
 20
-146.8444389823861
 10
108.0891818306166
 20
-146.8444389823861
 10
108.171519612714
 20
-146.8444389823861
 10
108.3451524251706
 20
-146.8401326130295
 10
108.4698648817367
 20
-146.8316921290907
 10
108.4698648817367
 20
-146.8316921290907
 10
108.4698648817367
 20
-147.0115261134207
 10
108.4698648817367
 20
-147.0115261134207
 10
108.4402370605635
 20
-147.0094590561296
 10
108.3217257758709
 20
-147.005152686773
 10
108.281762668242
 20
-147.0030856294819
 10
108.2669487576555
 20
-147.0539007878893
 10
108.2331868219
 20
-147.1660386459342
 10
108.1673854981317
 20
-147.3055650130868
 10
108.2097601726003
 20
-147.3055650130868
 10
108.4867458496144
 20
-147.2866169879179
 10
108.5480685492518
 20
-147.2843776758525
 10
108.5480685492518
 20
-147.2843776758525
 10
108.5480685492518
 20
-147.4685180295391
 10
108.5480685492518
 20
-147.4685180295391
 10
108.5187852376272
 20
-147.4685180295391
 10
108.501559760201
 20
-147.4642116601826
 10
108.3389512532972
 20
-147.4642116601826
 97
        0
 97
        1
330
90
 75
     2
 76
     1
 98
        1
 10
0.0
 20
0.0
450
        0
451
        0
460
0.0
461
0.0
452
        0
462
0.0
453
        0
470

  0
SPLINE
  5
92
330
8A
100
AcDbEntity
  8
レイヤー 1
100
AcDbSpline
210
0.0
220
0.0
230
1.0
 70
    11
 71
     3
 72
    17
 73
    13
 74
     0
 42
0.0000000001
 43
0.0000000001
 40
0.0
 40
0.0
 40
0.0
 40
0.0
 40
1.0
 40
1.0
 40
1.0
 40
2.0
 40
2.0
 40
2.0
 40
3.0
 40
3.0
 40
3.0
 40
4.0
 40
4.0
 40
4.0
 40
4.0
 10
110.1951687007498
 20
-148.2639905770833
 30
0.0
 10
110.1951687007498
 20
-148.2639905770833
 30
0.0
 10
109.488579616725
 20
-148.2639905770833
 30
0.0
 10
109.488579616725
 20
-148.2639905770833
 30
0.0
 10
109.488579616725
 20
-148.2639905770833
 30
0.0
 10
109.488579616725
 20
-148.3781954924193
 30
0.0
 10
109.488579616725
 20
-148.3781954924193
 30
0.0
 10
109.488579616725
 20
-148.3781954924193
 30
0.0
 10
110.1951687007498
 20
-148.3781954924193
 30
0.0
 10
110.1951687007498
 20
-148.3781954924193
 30
0.0
 10
110.1951687007498
 20
-148.3781954924193
 30
0.0
 10
110.1951687007498
 20
-148.2639905770833
 30
0.0
 10
110.1951687007498
 20
-148.2639905770833
 30
0.0
  0
SPLINE
  5
93
330
8A
100
AcDbEntity
  8
レイヤー 1
100
AcDbSpline
210
0.0
220
0.0
230
1.0
 70
    11
 71
     3
 72
    17
 73
    13
 74
     0
 42
0.0000000001
 43
0.0000000001
 40
0.0
 40
0.0
 40
0.0
 40
0.0
 40
1.0
 40
1.0
 40
1.0
 40
2.0
 40
2.0
 40
2.0
 40
3.0
 40
3.0
 40
3.0
 40
4.0
 40
4.0
 40
4.0
 40
4.0
 10
110.1951687007498
 20
-148.0205945810504
 30
0.0
 10
110.1951687007498
 20
-148.0205945810504
 30
0.0
 10
109.488579616725
 20
-148.0205945810504
 30
0.0
 10
109.488579616725
 20
-148.0205945810504
 30
0.0
 10
109.488579616725
 20
-148.0205945810504
 30
0.0
 10
109.488579616725
 20
-148.1349717511607
 30
0.0
 10
109.488579616725
 20
-148.1349717511607
 30
0.0
 10
109.488579616725
 20
-148.1349717511607
 30
0.0
 10
110.1951687007498
 20
-148.1349717511607
 30
0.0
 10
110.1951687007498
 20
-148.1349717511607
 30
0.0
 10
110.1951687007498
 20
-148.1349717511607
 30
0.0
 10
110.1951687007498
 20
-148.0205945810504
 30
0.0
 10
110.1951687007498
 20
-148.0205945810504
 30
0.0
  0
SPLINE
  5
94
330
8A
100
AcDbEntity
  8
レイヤー 1
100
AcDbSpline
210
0.0
220
0.0
230
1.0
 70
    11
 71
     3
 72
    17
 73
    13
 74
     0
 42
0.0000000001
 43
0.0000000001
 40
0.0
 40
0.0
 40
0.0
 40
0.0
 40
1.0
 40
1.0
 40
1.0
 40
2.0
 40
2.0
 40
2.0
 40
3.0
 40
3.0
 40
3.0
 40
4.0
 40
4.0
 40
4.0
 40
4.0
 10
110.1951687007498
 20
-147.7878783810218
 30
0.0
 10
110.1951687007498
 20
-147.7878783810218
 30
0.0
 10
109.488579616725
 20
-147.7878783810218
 30
0.0
 10
109.488579616725
 20
-147.7878783810218
 30
0.0
 10
109.488579616725
 20
-147.7878783810218
 30
0.0
 10
109.488579616725
 20
-147.8958821244843
 30
0.0
 10
109.488579616725
 20
-147.8958821244843
 30
0.0
 10
109.488579616725
 20
-147.8958821244843
 30
0.0
 10
110.1951687007498
 20
-147.8958821244843
 30
0.0
 10
110.1951687007498
 20
-147.8958821244843
 30
0.0
 10
110.1951687007498
 20
-147.8958821244843
 30
0.0
 10
110.1951687007498
 20
-147.7878783810218
 30
0.0
 10
110.1951687007498
 20
-147.7878783810218
 30
0.0
  0
SPLINE
  5
95
330
8A
100
AcDbEntity
  8
レイヤー 1
100
AcDbSpline
210
0.0
220
0.0
230
1.0
 70
     9
 71
     3
 72
   203
 73
   199
 74
     0
 42
0.0000000001
 43
0.0000000001
 40
0.0
 40
0.0
 40
0.0
 40
0.0
 40
1.0
 40
1.0
 40
1.0
 40
2.0
 40
2.0
 40
2.0
 40
3.0
 40
3.0
 40
3.0
 40
4.0
 40
4.0
 40
4.0
 40
5.0
 40
5.0
 40
5.0
 40
6.0
 40
6.0
 40
6.0
 40
7.0
 40
7.0
 40
7.0
 40
8.0
 40
8.0
 40
8.0
 40
9.0
 40
9.0
 40
9.0
 40
10.0
 40
10.0
 40
10.0
 40
11.0
 40
11.0
 40
11.0
 40
12.0
 40
12.0
 40
12.0
 40
13.0
 40
13.0
 40
13.0
 40
14.0
 40
14.0
 40
14.0
 40
15.0
 40
15.0
 40
15.0
 40
16.0
 40
16.0
 40
16.0
 40
17.0
 40
17.0
 40
17.0
 40
18.0
 40
18.0
 40
18.0
 40
19.0
 40
19.0
 40
19.0
 40
20.0
 40
20.0
 40
20.0
 40
21.0
 40
21.0
 40
21.0
 40
22.0
 40
22.0
 40
22.0
 40
23.0
 40
23.0
 40
23.0
 40
24.0
 40
24.0
 40
24.0
 40
25.0
 40
25.0
 40
25.0
 40
26.0
 40
26.0
 40
26.0
 40
27.0
 40
27.0
 40
27.0
 40
28.0
 40
28.0
 40
28.0
 40
29.0
 40
29.0
 40
29.0
 40
30.0
 40
30.0
 40
30.0
 40
31.0
 40
31.0
 40
31.0
 40
32.0
 40
32.0
 40
32.0
 40
33.0
 40
33.0
 40
33.0
 40
34.0
 40
34.0
 40
34.0
 40
35.0
 40
35.0
 40
35.0
 40
36.0
 40
36.0
 40
36.0
 40
37.0
 40
37.0
 40
37.0
 40
38.0
 40
38.0
 40
38.0
 40
39.0
 40
39.0
 40
39.0
 40
40.0
 40
40.0
 40
40.0
 40
41.0
 40
41.0
 40
41.0
 40
42.0
 40
42.0
 40
42.0
 40
43.0
 40
43.0
 40
43.0
 40
44.0
 40
44.0
 40
44.0
 40
45.0
 40
45.0
 40
45.0
 40
46.0
 40
46.0
 40
46.0
 40
47.0
 40
47.0
 40
47.0
 40
48.0
 40
48.0
 40
48.0
 40
49.0
 40
49.0
 40
49.0
 40
50.0
 40
50.0
 40
50.0
 40
51.0
 40
51.0
 40
51.0
 40
52.0
 40
52.0
 40
52.0
 40
53.0
 40
53.0
 40
53.0
 40
54.0
 40
54.0
 40
54.0
 40
55.0
 40
55.0
 40
55.0
 40
56.0
 40
56.0
 40
56.0
 40
57.0
 40
57.0
 40
57.0
 40
58.0
 40
58.0
 40
58.0
 40
59.0
 40
59.0
 40
59.0
 40
60.0
 40
60.0
 40
60.0
 40
61.0
 40
61.0
 40
61.0
 40
62.0
 40
62.0
 40
62.0
 40
63.0
 40
63.0
 40
63.0
 40
64.0
 40
64.0
 40
64.0
 40
65.0
 40
65.0
 40
65.0
 40
66.0
 40
66.0
 40
66.0
 40
66.0
 10
110.0301486270063
 20
-147.5319077864677
 30
0.0
 10
110.0301486270063
 20
-147.5319077864677
 30
0.0
 10
109.4716986488473
 20
-147.5319077864677
 30
0.0
 10
109.4716986488473
 20
-147.5319077864677
 30
0.0
 10
109.4610188528431
 20
-147.5763495182274
 30
0.0
 10
109.4527506236785
 20
-147.6080443966917
 30
0.0
 10
109.440003770383
 20
-147.646284956578
 30
0.0
 10
109.4654974769739
 20
-147.646284956578
 30
0.0
 10
109.4803113875604
 20
-147.6483520138691
 30
0.0
 10
109.4865125594339
 20
-147.6483520138691
 30
0.0
 10
109.4865125594339
 20
-147.6483520138691
 30
0.0
 10
109.6749592824771
 20
-147.6483520138691
 30
0.0
 10
109.6749592824771
 20
-147.6483520138691
 30
0.0
 10
109.6749592824771
 20
-147.6483520138691
 30
0.0
 10
110.0494411617237
 20
-147.6483520138691
 30
0.0
 10
110.0494411617237
 20
-147.6483520138691
 30
0.0
 10
110.1000840653569
 20
-147.6483520138691
 30
0.0
 10
110.383615423793
 20
-147.6356051605737
 30
0.0
 10
110.4153103022573
 20
-147.6356051605737
 30
0.0
 10
110.4132432449661
 20
-147.6631659244557
 30
0.0
 10
110.4111761876749
 20
-147.6821139496246
 30
0.0
 10
110.4111761876749
 20
-147.7117417707978
 30
0.0
 10
110.4087646208353
 20
-147.743436649262
 30
0.0
 10
110.4087646208353
 20
-147.8788289018323
 30
0.0
 10
110.4087646208353
 20
-147.9063896657144
 30
0.0
 10
110.4087646208353
 20
-147.9063896657144
 30
0.0
 10
110.4087646208353
 20
-148.1518527190384
 30
0.0
 10
110.4087646208353
 20
-148.1518527190384
 30
0.0
 10
110.4087646208353
 20
-148.1962944507981
 30
0.0
 10
110.4132432449661
 20
-148.3930094030059
 30
0.0
 10
110.4173773595484
 20
-148.5452826234539
 30
0.0
 10
110.4173773595484
 20
-148.5452826234539
 30
0.0
 10
110.1910345861675
 20
-148.5452826234539
 30
0.0
 10
110.1910345861675
 20
-148.5452826234539
 30
0.0
 10
110.1910345861675
 20
-148.5452826234539
 30
0.0
 10
110.1931016434587
 20
-148.5115206876985
 30
0.0
 10
110.1931016434587
 20
-148.5115206876985
 30
0.0
 10
110.1931016434587
 20
-148.5115206876985
 30
0.0
 10
109.4906466740162
 20
-148.5115206876985
 30
0.0
 10
109.4906466740162
 20
-148.5115206876985
 30
0.0
 10
109.4906466740162
 20
-148.5115206876985
 30
0.0
 10
109.4930582408559
 20
-148.5452826234539
 30
0.0
 10
109.4930582408559
 20
-148.5452826234539
 30
0.0
 10
109.4930582408559
 20
-148.5452826234539
 30
0.0
 10
109.2749836966396
 20
-148.5452826234539
 30
0.0
 10
109.2749836966396
 20
-148.5452826234539
 30
0.0
 10
109.2791178112219
 20
-148.4903333504642
 30
0.0
 10
109.2791178112219
 20
-148.4775864971688
 30
0.0
 10
109.2856634926438
 20
-148.3633815818327
 30
0.0
 10
109.287730549935
 20
-148.3358208179508
 30
0.0
 10
109.2897976072261
 20
-148.2026678774458
 30
0.0
 10
109.2897976072261
 20
-148.1835475975027
 30
0.0
 10
109.2897976072261
 20
-148.1835475975027
 30
0.0
 10
109.2897976072261
 20
-147.9804592186472
 30
0.0
 10
109.2897976072261
 20
-147.9804592186472
 30
0.0
 10
109.1502712400735
 20
-148.2300563865536
 30
0.0
 10
108.9811170517478
 20
-148.3613145245416
 30
0.0
 10
108.8753526203506
 20
-148.4267713387613
 30
0.0
 10
108.8753526203506
 20
-148.4267713387613
 30
0.0
 10
108.701719807894
 20
-148.2872449716087
 30
0.0
 10
108.701719807894
 20
-148.2872449716087
 30
0.0
 10
108.7906032714134
 20
-148.2364298132013
 30
0.0
 10
108.9342637531484
 20
-148.149613406973
 30
0.0
 10
109.0720675725584
 20
-147.9551377668306
 30
0.0
 10
109.1630180933689
 20
-147.8281859981992
 30
0.0
 10
109.2284749075887
 20
-147.68435326169
 30
0.0
 10
109.2622368433441
 20
-147.5319077864677
 30
0.0
 10
109.0338270126721
 20
-147.5341470985331
 30
0.0
 10
108.853993028342
 20
-147.5405205251808
 30
0.0
 10
108.7589083929491
 20
-147.542587582472
 30
0.0
 10
108.7589083929491
 20
-147.542587582472
 30
0.0
 10
108.7589083929491
 20
-147.3648206554331
 30
0.0
 10
108.7589083929491
 20
-147.3648206554331
 30
0.0
 10
108.9556233451569
 20
-147.3711940820808
 30
0.0
 10
109.239154703593
 20
-147.3755004514373
 30
0.0
 10
109.3893608667499
 20
-147.3755004514373
 30
0.0
 10
109.3893608667499
 20
-147.3755004514373
 30
0.0
 10
109.6029567868354
 20
-147.3755004514373
 30
0.0
 10
109.6029567868354
 20
-147.3755004514373
 30
0.0
 10
109.6029567868354
 20
-147.3755004514373
 30
0.0
 10
109.6029567868354
 20
-147.2674967079748
 30
0.0
 10
109.6029567868354
 20
-147.2674967079748
 30
0.0
 10
109.6029567868354
 20
-147.2674967079748
 30
0.0
 10
109.4568847382608
 20
-147.2674967079748
 30
0.0
 10
109.4568847382608
 20
-147.2674967079748
 30
0.0
 10
109.287730549935
 20
-147.2674967079748
 30
0.0
 10
109.1185763616092
 20
-147.2718030773313
 30
0.0
 10
108.9514892305746
 20
-147.278176503979
 30
0.0
 10
108.9514892305746
 20
-147.278176503979
 30
0.0
 10
108.9514892305746
 20
-147.1067830035879
 30
0.0
 10
108.9514892305746
 20
-147.1067830035879
 30
0.0
 10
109.1058295083138
 20
-147.1172905448179
 30
0.0
 10
109.2918646645173
 20
-147.1172905448179
 30
0.0
 10
109.4568847382608
 20
-147.1172905448179
 30
0.0
 10
109.4568847382608
 20
-147.1172905448179
 30
0.0
 10
109.6029567868354
 20
-147.1172905448179
 30
0.0
 10
109.6029567868354
 20
-147.1172905448179
 30
0.0
 10
109.6029567868354
 20
-147.1172905448179
 30
0.0
 10
109.6029567868354
 20
-146.9989515148995
 30
0.0
 10
109.6029567868354
 20
-146.9989515148995
 30
0.0
 10
109.6029567868354
 20
-146.9989515148995
 30
0.0
 10
109.4716986488473
 20
-146.9989515148995
 30
0.0
 10
109.4716986488473
 20
-146.9989515148995
 30
0.0
 10
109.4251898597965
 20
-146.9989515148995
 30
0.0
 10
109.2222737357152
 20
-147.0073919988384
 30
0.0
 10
109.1798990612467
 20
-147.0073919988384
 30
0.0
 10
108.9766384276169
 20
-147.0115261134207
 30
0.0
 10
108.9005018173929
 20
-147.0135931707119
 30
0.0
 10
108.8222981498777
 20
-147.0158324827773
 30
0.0
 10
108.8222981498777
 20
-147.0158324827773
 30
0.0
 10
108.8222981498777
 20
-146.8316921290907
 30
0.0
 10
108.8222981498777
 20
-146.8316921290907
 30
0.0
 10
108.936675319988
 20
-146.8401326130295
 30
0.0
 10
108.9811170517478
 20
-146.8401326130295
 30
0.0
 10
109.363867160159
 20
-146.8487453517426
 30
0.0
 10
109.3004774032304
 20
-146.7534884615755
 30
0.0
 10
109.2729166393484
 20
-146.7259276976935
 30
0.0
 10
109.2370876463018
 20
-146.6899264498726
 30
0.0
 10
109.2370876463018
 20
-146.6899264498726
 30
0.0
 10
109.412443006501
 20
-146.6074164130009
 30
0.0
 10
109.412443006501
 20
-146.6074164130009
 30
0.0
 10
109.4527506236785
 20
-146.6434176608218
 30
0.0
 10
109.4971923554382
 20
-146.6857923352903
 30
0.0
 10
109.5712619083711
 20
-146.7956908812698
 30
0.0
 10
109.5712619083711
 20
-146.7956908812698
 30
0.0
 10
109.4568847382608
 20
-146.8508124090338
 30
0.0
 10
109.4568847382608
 20
-146.8508124090338
 30
0.0
 10
109.4568847382608
 20
-146.8508124090338
 30
0.0
 10
109.467564534265
 20
-146.8508124090338
 30
0.0
 10
109.467564534265
 20
-146.8508124090338
 30
0.0
 10
109.467564534265
 20
-146.8508124090338
 30
0.0
 10
109.9901855193774
 20
-146.8508124090338
 30
0.0
 10
109.9901855193774
 20
-146.8508124090338
 30
0.0
 10
109.9901855193774
 20
-146.8508124090338
 30
0.0
 10
109.894756374436
 20
-146.8063706772741
 30
0.0
 10
109.894756374436
 20
-146.8063706772741
 30
0.0
 10
109.922317138318
 20
-146.7683023721621
 30
0.0
 10
109.9795057233732
 20
-146.6878593925815
 30
0.0
 10
109.9943196339597
 20
-146.6137898396486
 30
0.0
 10
109.9943196339597
 20
-146.6137898396486
 30
0.0
 10
110.2079155540452
 20
-146.6773518513515
 30
0.0
 10
110.2079155540452
 20
-146.6773518513515
 30
0.0
 10
110.2165282927583
 20
-146.6794189086426
 30
0.0
 10
110.2375433752184
 20
-146.6899264498726
 30
0.0
 10
110.2375433752184
 20
-146.7111137871069
 30
0.0
 10
110.2375433752184
 20
-146.7491820922189
 30
0.0
 10
110.1720865609986
 20
-146.7491820922189
 30
0.0
 10
110.1527940262812
 20
-146.7491820922189
 30
0.0
 10
110.1424587398255
 20
-146.7683023721621
 30
0.0
 10
110.1190320905258
 20
-146.8084377345652
 30
0.0
 10
110.0894042693526
 20
-146.8487453517426
 30
0.0
 10
110.4893798551901
 20
-146.8423719250949
 30
0.0
 10
110.5190076763633
 20
-146.8401326130295
 30
0.0
 10
110.5951442865873
 20
-146.8339314411561
 30
0.0
 10
110.5951442865873
 20
-146.8339314411561
 30
0.0
 10
110.5951442865873
 20
-147.0158324827773
 30
0.0
 10
110.5951442865873
 20
-147.0158324827773
 30
0.0
 10
110.5761962614184
 20
-147.0158324827773
 30
0.0
 10
110.5507025548276
 20
-147.0135931707119
 30
0.0
 10
110.3305609533201
 20
-147.005152686773
 30
0.0
 10
110.2799180496869
 20
-147.0030856294819
 30
0.0
 10
110.0597764481795
 20
-146.9989515148995
 30
0.0
 10
110.0153347164198
 20
-146.9989515148995
 30
0.0
 10
110.0153347164198
 20
-146.9989515148995
 30
0.0
 10
109.7996717390431
 20
-146.9989515148995
 30
0.0
 10
109.7996717390431
 20
-146.9989515148995
 30
0.0
 10
109.7996717390431
 20
-146.9989515148995
 30
0.0
 10
109.7996717390431
 20
-147.1172905448179
 30
0.0
 10
109.7996717390431
 20
-147.1172905448179
 30
0.0
 10
109.7996717390431
 20
-147.1172905448179
 30
0.0
 10
109.9729600419512
 20
-147.1172905448179
 30
0.0
 10
109.9729600419512
 20
-147.1172905448179
 30
0.0
 10
110.1359130584035
 20
-147.1172905448179
 30
0.0
 10
110.3264268387378
 20
-147.1172905448179
 30
0.0
 10
110.4828341737682
 20
-147.1067830035879
 30
0.0
 10
110.4828341737682
 20
-147.1067830035879
 30
0.0
 10
110.4828341737682
 20
-147.278176503979
 30
0.0
 10
110.4828341737682
 20
-147.278176503979
 30
0.0
 10
110.273372368265
 20
-147.2697360200402
 30
0.0
 10
110.0766574160572
 20
-147.2674967079748
 30
0.0
 10
109.9729600419512
 20
-147.2674967079748
 30
0.0
 10
109.9729600419512
 20
-147.2674967079748
 30
0.0
 10
109.7996717390431
 20
-147.2674967079748
 30
0.0
 10
109.7996717390431
 20
-147.2674967079748
 30
0.0
 10
109.7996717390431
 20
-147.2674967079748
 30
0.0
 10
109.7996717390431
 20
-147.3755004514373
 30
0.0
 10
109.7996717390431
 20
-147.3755004514373
 30
0.0
 10
109.7996717390431
 20
-147.3755004514373
 30
0.0
 10
110.0301486270063
 20
-147.3755004514373
 30
0.0
 10
110.0301486270063
 20
-147.3755004514373
 30
0.0
 10
110.1634738222855
 20
-147.3755004514373
 30
0.0
 10
110.4511392953039
 20
-147.3711940820808
 30
0.0
 10
110.660601100807
 20
-147.3648206554331
 30
0.0
 10
110.660601100807
 20
-147.3648206554331
 30
0.0
 10
110.660601100807
 20
-147.542587582472
 30
0.0
 10
110.660601100807
 20
-147.542587582472
 30
0.0
 10
110.4680202631816
 20
-147.5362141558243
 30
0.0
 10
110.1552055931209
 20
-147.5319077864677
 30
0.0
 10
110.0301486270063
 20
-147.5319077864677
 30
0.0
  0
HATCH
  5
96
330
8A
100
AcDbEntity
  8
レイヤー 1
 62
    18
420
        0
440
 33554687
100
AcDbHatch
 10
0.0
 20
0.0
 30
0.0
210
0.0
220
0.0
230
1.0
  2
SOLID
 70
     1
 71
     1
 91
        4
 92
        1
 93
        1
 72
     4
 94
        3
 73
     0
 74
     0
 95
       17
 96
       13
 40
0.0
 40
0.0
 40
0.0
 40
0.0
 40
1.0
 40
1.0
 40
1.0
 40
2.0
 40
2.0
 40
2.0
 40
3.0
 40
3.0
 40
3.0
 40
4.0
 40
4.0
 40
4.0
 40
4.0
 10
110.1951687007498
 20
-148.2639905770833
 10
110.1951687007498
 20
-148.2639905770833
 10
109.488579616725
 20
-148.2639905770833
 10
109.488579616725
 20
-148.2639905770833
 10
109.488579616725
 20
-148.2639905770833
 10
109.488579616725
 20
-148.3781954924193
 10
109.488579616725
 20
-148.3781954924193
 10
109.488579616725
 20
-148.3781954924193
 10
110.1951687007498
 20
-148.3781954924193
 10
110.1951687007498
 20
-148.3781954924193
 10
110.1951687007498
 20
-148.3781954924193
 10
110.1951687007498
 20
-148.2639905770833
 10
110.1951687007498
 20
-148.2639905770833
 97
        0
 97
        1
330
92
 92
        1
 93
        1
 72
     4
 94
        3
 73
     0
 74
     0
 95
       17
 96
       13
 40
0.0
 40
0.0
 40
0.0
 40
0.0
 40
1.0
 40
1.0
 40
1.0
 40
2.0
 40
2.0
 40
2.0
 40
3.0
 40
3.0
 40
3.0
 40
4.0
 40
4.0
 40
4.0
 40
4.0
 10
110.1951687007498
 20
-148.0205945810504
 10
110.1951687007498
 20
-148.0205945810504
 10
109.488579616725
 20
-148.0205945810504
 10
109.488579616725
 20
-148.0205945810504
 10
109.488579616725
 20
-148.0205945810504
 10
109.488579616725
 20
-148.1349717511607
 10
109.488579616725
 20
-148.1349717511607
 10
109.488579616725
 20
-148.1349717511607
 10
110.1951687007498
 20
-148.1349717511607
 10
110.1951687007498
 20
-148.1349717511607
 10
110.1951687007498
 20
-148.1349717511607
 10
110.1951687007498
 20
-148.0205945810504
 10
110.1951687007498
 20
-148.0205945810504
 97
        0
 97
        1
330
93
 92
        1
 93
        1
 72
     4
 94
        3
 73
     0
 74
     0
 95
       17
 96
       13
 40
0.0
 40
0.0
 40
0.0
 40
0.0
 40
1.0
 40
1.0
 40
1.0
 40
2.0
 40
2.0
 40
2.0
 40
3.0
 40
3.0
 40
3.0
 40
4.0
 40
4.0
 40
4.0
 40
4.0
 10
110.1951687007498
 20
-147.7878783810218
 10
110.1951687007498
 20
-147.7878783810218
 10
109.488579616725
 20
-147.7878783810218
 10
109.488579616725
 20
-147.7878783810218
 10
109.488579616725
 20
-147.7878783810218
 10
109.488579616725
 20
-147.8958821244843
 10
109.488579616725
 20
-147.8958821244843
 10
109.488579616725
 20
-147.8958821244843
 10
110.1951687007498
 20
-147.8958821244843
 10
110.1951687007498
 20
-147.8958821244843
 10
110.1951687007498
 20
-147.8958821244843
 10
110.1951687007498
 20
-147.7878783810218
 10
110.1951687007498
 20
-147.7878783810218
 97
        0
 97
        1
330
94
 92
        1
 93
        1
 72
     4
 94
        3
 73
     0
 74
     0
 95
      203
 96
      199
 40
0.0
 40
0.0
 40
0.0
 40
0.0
 40
1.0
 40
1.0
 40
1.0
 40
2.0
 40
2.0
 40
2.0
 40
3.0
 40
3.0
 40
3.0
 40
4.0
 40
4.0
 40
4.0
 40
5.0
 40
5.0
 40
5.0
 40
6.0
 40
6.0
 40
6.0
 40
7.0
 40
7.0
 40
7.0
 40
8.0
 40
8.0
 40
8.0
 40
9.0
 40
9.0
 40
9.0
 40
10.0
 40
10.0
 40
10.0
 40
11.0
 40
11.0
 40
11.0
 40
12.0
 40
12.0
 40
12.0
 40
13.0
 40
13.0
 40
13.0
 40
14.0
 40
14.0
 40
14.0
 40
15.0
 40
15.0
 40
15.0
 40
16.0
 40
16.0
 40
16.0
 40
17.0
 40
17.0
 40
17.0
 40
18.0
 40
18.0
 40
18.0
 40
19.0
 40
19.0
 40
19.0
 40
20.0
 40
20.0
 40
20.0
 40
21.0
 40
21.0
 40
21.0
 40
22.0
 40
22.0
 40
22.0
 40
23.0
 40
23.0
 40
23.0
 40
24.0
 40
24.0
 40
24.0
 40
25.0
 40
25.0
 40
25.0
 40
26.0
 40
26.0
 40
26.0
 40
27.0
 40
27.0
 40
27.0
 40
28.0
 40
28.0
 40
28.0
 40
29.0
 40
29.0
 40
29.0
 40
30.0
 40
30.0
 40
30.0
 40
31.0
 40
31.0
 40
31.0
 40
32.0
 40
32.0
 40
32.0
 40
33.0
 40
33.0
 40
33.0
 40
34.0
 40
34.0
 40
34.0
 40
35.0
 40
35.0
 40
35.0
 40
36.0
 40
36.0
 40
36.0
 40
37.0
 40
37.0
 40
37.0
 40
38.0
 40
38.0
 40
38.0
 40
39.0
 40
39.0
 40
39.0
 40
40.0
 40
40.0
 40
40.0
 40
41.0
 40
41.0
 40
41.0
 40
42.0
 40
42.0
 40
42.0
 40
43.0
 40
43.0
 40
43.0
 40
44.0
 40
44.0
 40
44.0
 40
45.0
 40
45.0
 40
45.0
 40
46.0
 40
46.0
 40
46.0
 40
47.0
 40
47.0
 40
47.0
 40
48.0
 40
48.0
 40
48.0
 40
49.0
 40
49.0
 40
49.0
 40
50.0
 40
50.0
 40
50.0
 40
51.0
 40
51.0
 40
51.0
 40
52.0
 40
52.0
 40
52.0
 40
53.0
 40
53.0
 40
53.0
 40
54.0
 40
54.0
 40
54.0
 40
55.0
 40
55.0
 40
55.0
 40
56.0
 40
56.0
 40
56.0
 40
57.0
 40
57.0
 40
57.0
 40
58.0
 40
58.0
 40
58.0
 40
59.0
 40
59.0
 40
59.0
 40
60.0
 40
60.0
 40
60.0
 40
61.0
 40
61.0
 40
61.0
 40
62.0
 40
62.0
 40
62.0
 40
63.0
 40
63.0
 40
63.0
 40
64.0
 40
64.0
 40
64.0
 40
65.0
 40
65.0
 40
65.0
 40
66.0
 40
66.0
 40
66.0
 40
66.0
 10
110.0301486270063
 20
-147.5319077864677
 10
110.0301486270063
 20
-147.5319077864677
 10
109.4716986488473
 20
-147.5319077864677
 10
109.4716986488473
 20
-147.5319077864677
 10
109.4610188528431
 20
-147.5763495182274
 10
109.4527506236785
 20
-147.6080443966917
 10
109.440003770383
 20
-147.646284956578
 10
109.4654974769739
 20
-147.646284956578
 10
109.4803113875604
 20
-147.6483520138691
 10
109.4865125594339
 20
-147.6483520138691
 10
109.4865125594339
 20
-147.6483520138691
 10
109.6749592824771
 20
-147.6483520138691
 10
109.6749592824771
 20
-147.6483520138691
 10
109.6749592824771
 20
-147.6483520138691
 10
110.0494411617237
 20
-147.6483520138691
 10
110.0494411617237
 20
-147.6483520138691
 10
110.1000840653569
 20
-147.6483520138691
 10
110.383615423793
 20
-147.6356051605737
 10
110.4153103022573
 20
-147.6356051605737
 10
110.4132432449661
 20
-147.6631659244557
 10
110.4111761876749
 20
-147.6821139496246
 10
110.4111761876749
 20
-147.7117417707978
 10
110.4087646208353
 20
-147.743436649262
 10
110.4087646208353
 20
-147.8788289018323
 10
110.4087646208353
 20
-147.9063896657144
 10
110.4087646208353
 20
-147.9063896657144
 10
110.4087646208353
 20
-148.1518527190384
 10
110.4087646208353
 20
-148.1518527190384
 10
110.4087646208353
 20
-148.1962944507981
 10
110.4132432449661
 20
-148.3930094030059
 10
110.4173773595484
 20
-148.5452826234539
 10
110.4173773595484
 20
-148.5452826234539
 10
110.1910345861675
 20
-148.5452826234539
 10
110.1910345861675
 20
-148.5452826234539
 10
110.1910345861675
 20
-148.5452826234539
 10
110.1931016434587
 20
-148.5115206876985
 10
110.1931016434587
 20
-148.5115206876985
 10
110.1931016434587
 20
-148.5115206876985
 10
109.4906466740162
 20
-148.5115206876985
 10
109.4906466740162
 20
-148.5115206876985
 10
109.4906466740162
 20
-148.5115206876985
 10
109.4930582408559
 20
-148.5452826234539
 10
109.4930582408559
 20
-148.5452826234539
 10
109.4930582408559
 20
-148.5452826234539
 10
109.2749836966396
 20
-148.5452826234539
 10
109.2749836966396
 20
-148.5452826234539
 10
109.2791178112219
 20
-148.4903333504642
 10
109.2791178112219
 20
-148.4775864971688
 10
109.2856634926438
 20
-148.3633815818327
 10
109.287730549935
 20
-148.3358208179508
 10
109.2897976072261
 20
-148.2026678774458
 10
109.2897976072261
 20
-148.1835475975027
 10
109.2897976072261
 20
-148.1835475975027
 10
109.2897976072261
 20
-147.9804592186472
 10
109.2897976072261
 20
-147.9804592186472
 10
109.1502712400735
 20
-148.2300563865536
 10
108.9811170517478
 20
-148.3613145245416
 10
108.8753526203506
 20
-148.4267713387613
 10
108.8753526203506
 20
-148.4267713387613
 10
108.701719807894
 20
-148.2872449716087
 10
108.701719807894
 20
-148.2872449716087
 10
108.7906032714134
 20
-148.2364298132013
 10
108.9342637531484
 20
-148.149613406973
 10
109.0720675725584
 20
-147.9551377668306
 10
109.1630180933689
 20
-147.8281859981992
 10
109.2284749075887
 20
-147.68435326169
 10
109.2622368433441
 20
-147.5319077864677
 10
109.0338270126721
 20
-147.5341470985331
 10
108.853993028342
 20
-147.5405205251808
 10
108.7589083929491
 20
-147.542587582472
 10
108.7589083929491
 20
-147.542587582472
 10
108.7589083929491
 20
-147.3648206554331
 10
108.7589083929491
 20
-147.3648206554331
 10
108.9556233451569
 20
-147.3711940820808
 10
109.239154703593
 20
-147.3755004514373
 10
109.3893608667499
 20
-147.3755004514373
 10
109.3893608667499
 20
-147.3755004514373
 10
109.6029567868354
 20
-147.3755004514373
 10
109.6029567868354
 20
-147.3755004514373
 10
109.6029567868354
 20
-147.3755004514373
 10
109.6029567868354
 20
-147.2674967079748
 10
109.6029567868354
 20
-147.2674967079748
 10
109.6029567868354
 20
-147.2674967079748
 10
109.4568847382608
 20
-147.2674967079748
 10
109.4568847382608
 20
-147.2674967079748
 10
109.287730549935
 20
-147.2674967079748
 10
109.1185763616092
 20
-147.2718030773313
 10
108.9514892305746
 20
-147.278176503979
 10
108.9514892305746
 20
-147.278176503979
 10
108.9514892305746
 20
-147.1067830035879
 10
108.9514892305746
 20
-147.1067830035879
 10
109.1058295083138
 20
-147.1172905448179
 10
109.2918646645173
 20
-147.1172905448179
 10
109.4568847382608
 20
-147.1172905448179
 10
109.4568847382608
 20
-147.1172905448179
 10
109.6029567868354
 20
-147.1172905448179
 10
109.6029567868354
 20
-147.1172905448179
 10
109.6029567868354
 20
-147.1172905448179
 10
109.6029567868354
 20
-146.9989515148995
 10
109.6029567868354
 20
-146.9989515148995
 10
109.6029567868354
 20
-146.9989515148995
 10
109.4716986488473
 20
-146.9989515148995
 10
109.4716986488473
 20
-146.9989515148995
 10
109.4251898597965
 20
-146.9989515148995
 10
109.2222737357152
 20
-147.0073919988384
 10
109.1798990612467
 20
-147.0073919988384
 10
108.9766384276169
 20
-147.0115261134207
 10
108.9005018173929
 20
-147.0135931707119
 10
108.8222981498777
 20
-147.0158324827773
 10
108.8222981498777
 20
-147.0158324827773
 10
108.8222981498777
 20
-146.8316921290907
 10
108.8222981498777
 20
-146.8316921290907
 10
108.936675319988
 20
-146.8401326130295
 10
108.9811170517478
 20
-146.8401326130295
 10
109.363867160159
 20
-146.8487453517426
 10
109.3004774032304
 20
-146.7534884615755
 10
109.2729166393484
 20
-146.7259276976935
 10
109.2370876463018
 20
-146.6899264498726
 10
109.2370876463018
 20
-146.6899264498726
 10
109.412443006501
 20
-146.6074164130009
 10
109.412443006501
 20
-146.6074164130009
 10
109.4527506236785
 20
-146.6434176608218
 10
109.4971923554382
 20
-146.6857923352903
 10
109.5712619083711
 20
-146.7956908812698
 10
109.5712619083711
 20
-146.7956908812698
 10
109.4568847382608
 20
-146.8508124090338
 10
109.4568847382608
 20
-146.8508124090338
 10
109.4568847382608
 20
-146.8508124090338
 10
109.467564534265
 20
-146.8508124090338
 10
109.467564534265
 20
-146.8508124090338
 10
109.467564534265
 20
-146.8508124090338
 10
109.9901855193774
 20
-146.8508124090338
 10
109.9901855193774
 20
-146.8508124090338
 10
109.9901855193774
 20
-146.8508124090338
 10
109.894756374436
 20
-146.8063706772741
 10
109.894756374436
 20
-146.8063706772741
 10
109.922317138318
 20
-146.7683023721621
 10
109.9795057233732
 20
-146.6878593925815
 10
109.9943196339597
 20
-146.6137898396486
 10
109.9943196339597
 20
-146.6137898396486
 10
110.2079155540452
 20
-146.6773518513515
 10
110.2079155540452
 20
-146.6773518513515
 10
110.2165282927583
 20
-146.6794189086426
 10
110.2375433752184
 20
-146.6899264498726
 10
110.2375433752184
 20
-146.7111137871069
 10
110.2375433752184
 20
-146.7491820922189
 10
110.1720865609986
 20
-146.7491820922189
 10
110.1527940262812
 20
-146.7491820922189
 10
110.1424587398255
 20
-146.7683023721621
 10
110.1190320905258
 20
-146.8084377345652
 10
110.0894042693526
 20
-146.8487453517426
 10
110.4893798551901
 20
-146.8423719250949
 10
110.5190076763633
 20
-146.8401326130295
 10
110.5951442865873
 20
-146.8339314411561
 10
110.5951442865873
 20
-146.8339314411561
 10
110.5951442865873
 20
-147.0158324827773
 10
110.5951442865873
 20
-147.0158324827773
 10
110.5761962614184
 20
-147.0158324827773
 10
110.5507025548276
 20
-147.0135931707119
 10
110.3305609533201
 20
-147.005152686773
 10
110.2799180496869
 20
-147.0030856294819
 10
110.0597764481795
 20
-146.9989515148995
 10
110.0153347164198
 20
-146.9989515148995
 10
110.0153347164198
 20
-146.9989515148995
 10
109.7996717390431
 20
-146.9989515148995
 10
109.7996717390431
 20
-146.9989515148995
 10
109.7996717390431
 20
-146.9989515148995
 10
109.7996717390431
 20
-147.1172905448179
 10
109.7996717390431
 20
-147.1172905448179
 10
109.7996717390431
 20
-147.1172905448179
 10
109.9729600419512
 20
-147.1172905448179
 10
109.9729600419512
 20
-147.1172905448179
 10
110.1359130584035
 20
-147.1172905448179
 10
110.3264268387378
 20
-147.1172905448179
 10
110.4828341737682
 20
-147.1067830035879
 10
110.4828341737682
 20
-147.1067830035879
 10
110.4828341737682
 20
-147.278176503979
 10
110.4828341737682
 20
-147.278176503979
 10
110.273372368265
 20
-147.2697360200402
 10
110.0766574160572
 20
-147.2674967079748
 10
109.9729600419512
 20
-147.2674967079748
 10
109.9729600419512
 20
-147.2674967079748
 10
109.7996717390431
 20
-147.2674967079748
 10
109.7996717390431
 20
-147.2674967079748
 10
109.7996717390431
 20
-147.2674967079748
 10
109.7996717390431
 20
-147.3755004514373
 10
109.7996717390431
 20
-147.3755004514373
 10
109.7996717390431
 20
-147.3755004514373
 10
110.0301486270063
 20
-147.3755004514373
 10
110.0301486270063
 20
-147.3755004514373
 10
110.1634738222855
 20
-147.3755004514373
 10
110.4511392953039
 20
-147.3711940820808
 10
110.660601100807
 20
-147.3648206554331
 10
110.660601100807
 20
-147.3648206554331
 10
110.660601100807
 20
-147.542587582472
 10
110.660601100807
 20
-147.542587582472
 10
110.4680202631816
 20
-147.5362141558243
 10
110.1552055931209
 20
-147.5319077864677
 10
110.0301486270063
 20
-147.5319077864677
 97
        0
 97
        1
330
95
 75
     2
 76
     1
 98
        1
 10
0.0
 20
0.0
450
        0
451
        0
460
0.0
461
0.0
452
        0
462
0.0
453
        0
470

  0
SPLINE
  5
97
330
8A
100
AcDbEntity
  8
レイヤー 1
100
AcDbSpline
210
0.0
220
0.0
230
1.0
 70
     9
 71
     3
 72
    29
 73
    25
 74
     0
 42
0.0000000001
 43
0.0000000001
 40
0.0
 40
0.0
 40
0.0
 40
0.0
 40
1.0
 40
1.0
 40
1.0
 40
2.0
 40
2.0
 40
2.0
 40
3.0
 40
3.0
 40
3.0
 40
4.0
 40
4.0
 40
4.0
 40
5.0
 40
5.0
 40
5.0
 40
6.0
 40
6.0
 40
6.0
 40
7.0
 40
7.0
 40
7.0
 40
8.0
 40
8.0
 40
8.0
 40
8.0
 10
111.9056586091764
 20
-146.9798312349564
 30
0.0
 10
111.9056586091764
 20
-146.9798312349564
 30
0.0
 10
111.5525363219382
 20
-146.9798312349564
 30
0.0
 10
111.5525363219382
 20
-146.9798312349564
 30
0.0
 10
111.4402262091191
 20
-146.9798312349564
 30
0.0
 10
111.3006998419665
 20
-146.9862046616041
 30
0.0
 10
111.1928683532781
 20
-146.9989515148995
 30
0.0
 10
111.1928683532781
 20
-146.9989515148995
 30
0.0
 10
111.1928683532781
 20
-146.7639960028055
 30
0.0
 10
111.1928683532781
 20
-146.7639960028055
 30
0.0
 10
111.3113796379707
 20
-146.7788099133921
 30
0.0
 10
111.4953477368831
 20
-146.7831162827486
 30
0.0
 10
111.5525363219382
 20
-146.7831162827486
 30
0.0
 10
111.5525363219382
 20
-146.7831162827486
 30
0.0
 10
111.9056586091764
 20
-146.7831162827486
 30
0.0
 10
111.9056586091764
 20
-146.7831162827486
 30
0.0
 10
111.9246066343452
 20
-146.7831162827486
 30
0.0
 10
112.127867267975
 20
-146.7831162827486
 30
0.0
 10
112.2694606924187
 20
-146.7639960028055
 30
0.0
 10
112.2694606924187
 20
-146.7639960028055
 30
0.0
 10
112.2694606924187
 20
-146.9989515148995
 30
0.0
 10
112.2694606924187
 20
-146.9989515148995
 30
0.0
 10
112.1130533573884
 20
-146.9798312349564
 30
0.0
 10
111.9225395770541
 20
-146.9798312349564
 30
0.0
 10
111.9056586091764
 20
-146.9798312349564
 30
0.0
  0
SPLINE
  5
98
330
8A
100
AcDbEntity
  8
レイヤー 1
100
AcDbSpline
210
0.0
220
0.0
230
1.0
 70
     9
 71
     3
 72
    47
 73
    43
 74
     0
 42
0.0000000001
 43
0.0000000001
 40
0.0
 40
0.0
 40
0.0
 40
0.0
 40
1.0
 40
1.0
 40
1.0
 40
2.0
 40
2.0
 40
2.0
 40
3.0
 40
3.0
 40
3.0
 40
4.0
 40
4.0
 40
4.0
 40
5.0
 40
5.0
 40
5.0
 40
6.0
 40
6.0
 40
6.0
 40
7.0
 40
7.0
 40
7.0
 40
8.0
 40
8.0
 40
8.0
 40
9.0
 40
9.0
 40
9.0
 40
10.0
 40
10.0
 40
10.0
 40
11.0
 40
11.0
 40
11.0
 40
12.0
 40
12.0
 40
12.0
 40
13.0
 40
13.0
 40
13.0
 40
14.0
 40
14.0
 40
14.0
 40
14.0
 10
112.0072889259912
 20
-147.5086533919423
 30
0.0
 10
112.0072889259912
 20
-147.5086533919423
 30
0.0
 10
111.9056586091764
 20
-147.5086533919423
 30
0.0
 10
111.9056586091764
 20
-147.5086533919423
 30
0.0
 10
111.9056586091764
 20
-147.5954697981706
 30
0.0
 10
111.8846435267163
 20
-147.9847655880038
 30
0.0
 10
111.6879285745085
 20
-148.204734934737
 30
0.0
 10
111.5356553540605
 20
-148.3738891230627
 30
0.0
 10
111.3282606058485
 20
-148.4438245614133
 30
0.0
 10
111.2435112569113
 20
-148.4712130705211
 30
0.0
 10
111.2435112569113
 20
-148.4712130705211
 30
0.0
 10
111.0488633619947
 20
-148.3041259394864
 30
0.0
 10
111.0488633619947
 20
-148.3041259394864
 30
0.0
 10
111.1463595642273
 20
-148.291379086191
 30
0.0
 10
111.3217149244265
 20
-148.2681246916656
 30
0.0
 10
111.5101616474697
 20
-148.0798502233967
 30
0.0
 10
111.5842312004025
 20
-148.0080199825292
 30
0.0
 10
111.6879285745085
 20
-147.8683213606023
 30
0.0
 10
111.6879285745085
 20
-147.5086533919423
 30
0.0
 10
111.6879285745085
 20
-147.5086533919423
 30
0.0
 10
111.4571071769968
 20
-147.5086533919423
 30
0.0
 10
111.4571071769968
 20
-147.5086533919423
 30
0.0
 10
111.2710720207933
 20
-147.5086533919423
 30
0.0
 10
111.0850368645898
 20
-147.5129597612988
 30
0.0
 10
110.8986571988378
 20
-147.5277736718854
 30
0.0
 10
110.8986571988378
 20
-147.5277736718854
 30
0.0
 10
110.8986571988378
 20
-147.3078043251522
 30
0.0
 10
110.8986571988378
 20
-147.3078043251522
 30
0.0
 10
111.087103921881
 20
-147.3226182357388
 30
0.0
 10
111.3727023376082
 20
-147.3267523503211
 30
0.0
 10
111.4571071769968
 20
-147.3267523503211
 30
0.0
 10
111.4571071769968
 20
-147.3267523503211
 30
0.0
 10
112.0072889259912
 20
-147.3267523503211
 30
0.0
 10
112.0072889259912
 20
-147.3267523503211
 30
0.0
 10
112.0262369511601
 20
-147.3267523503211
 30
0.0
 10
112.3435302453516
 20
-147.3267523503211
 30
0.0
 10
112.5722845855722
 20
-147.3078043251522
 30
0.0
 10
112.5722845855722
 20
-147.3078043251522
 30
0.0
 10
112.5722845855722
 20
-147.5277736718854
 30
0.0
 10
112.5722845855722
 20
-147.5277736718854
 30
0.0
 10
112.383837862529
 20
-147.5129597612988
 30
0.0
 10
112.1953911394859
 20
-147.5086533919423
 30
0.0
 10
112.0072889259912
 20
-147.5086533919423
 30
0.0
  0
HATCH
  5
99
330
8A
100
AcDbEntity
  8
レイヤー 1
 62
    18
420
        0
440
 33554687
100
AcDbHatch
 10
0.0
 20
0.0
 30
0.0
210
0.0
220
0.0
230
1.0
  2
SOLID
 70
     1
 71
     1
 91
        2
 92
        1
 93
        1
 72
     4
 94
        3
 73
     0
 74
     0
 95
       29
 96
       25
 40
0.0
 40
0.0
 40
0.0
 40
0.0
 40
1.0
 40
1.0
 40
1.0
 40
2.0
 40
2.0
 40
2.0
 40
3.0
 40
3.0
 40
3.0
 40
4.0
 40
4.0
 40
4.0
 40
5.0
 40
5.0
 40
5.0
 40
6.0
 40
6.0
 40
6.0
 40
7.0
 40
7.0
 40
7.0
 40
8.0
 40
8.0
 40
8.0
 40
8.0
 10
111.9056586091764
 20
-146.9798312349564
 10
111.9056586091764
 20
-146.9798312349564
 10
111.5525363219382
 20
-146.9798312349564
 10
111.5525363219382
 20
-146.9798312349564
 10
111.4402262091191
 20
-146.9798312349564
 10
111.3006998419665
 20
-146.9862046616041
 10
111.1928683532781
 20
-146.9989515148995
 10
111.1928683532781
 20
-146.9989515148995
 10
111.1928683532781
 20
-146.7639960028055
 10
111.1928683532781
 20
-146.7639960028055
 10
111.3113796379707
 20
-146.7788099133921
 10
111.4953477368831
 20
-146.7831162827486
 10
111.5525363219382
 20
-146.7831162827486
 10
111.5525363219382
 20
-146.7831162827486
 10
111.9056586091764
 20
-146.7831162827486
 10
111.9056586091764
 20
-146.7831162827486
 10
111.9246066343452
 20
-146.7831162827486
 10
112.127867267975
 20
-146.7831162827486
 10
112.2694606924187
 20
-146.7639960028055
 10
112.2694606924187
 20
-146.7639960028055
 10
112.2694606924187
 20
-146.9989515148995
 10
112.2694606924187
 20
-146.9989515148995
 10
112.1130533573884
 20
-146.9798312349564
 10
111.9225395770541
 20
-146.9798312349564
 10
111.9056586091764
 20
-146.9798312349564
 97
        0
 97
        1
330
97
 92
        1
 93
        1
 72
     4
 94
        3
 73
     0
 74
     0
 95
       47
 96
       43
 40
0.0
 40
0.0
 40
0.0
 40
0.0
 40
1.0
 40
1.0
 40
1.0
 40
2.0
 40
2.0
 40
2.0
 40
3.0
 40
3.0
 40
3.0
 40
4.0
 40
4.0
 40
4.0
 40
5.0
 40
5.0
 40
5.0
 40
6.0
 40
6.0
 40
6.0
 40
7.0
 40
7.0
 40
7.0
 40
8.0
 40
8.0
 40
8.0
 40
9.0
 40
9.0
 40
9.0
 40
10.0
 40
10.0
 40
10.0
 40
11.0
 40
11.0
 40
11.0
 40
12.0
 40
12.0
 40
12.0
 40
13.0
 40
13.0
 40
13.0
 40
14.0
 40
14.0
 40
14.0
 40
14.0
 10
112.0072889259912
 20
-147.5086533919423
 10
112.0072889259912
 20
-147.5086533919423
 10
111.9056586091764
 20
-147.5086533919423
 10
111.9056586091764
 20
-147.5086533919423
 10
111.9056586091764
 20
-147.5954697981706
 10
111.8846435267163
 20
-147.9847655880038
 10
111.6879285745085
 20
-148.204734934737
 10
111.5356553540605
 20
-148.3738891230627
 10
111.3282606058485
 20
-148.4438245614133
 10
111.2435112569113
 20
-148.4712130705211
 10
111.2435112569113
 20
-148.4712130705211
 10
111.0488633619947
 20
-148.3041259394864
 10
111.0488633619947
 20
-148.3041259394864
 10
111.1463595642273
 20
-148.291379086191
 10
111.3217149244265
 20
-148.2681246916656
 10
111.5101616474697
 20
-148.0798502233967
 10
111.5842312004025
 20
-148.0080199825292
 10
111.6879285745085
 20
-147.8683213606023
 10
111.6879285745085
 20
-147.5086533919423
 10
111.6879285745085
 20
-147.5086533919423
 10
111.4571071769968
 20
-147.5086533919423
 10
111.4571071769968
 20
-147.5086533919423
 10
111.2710720207933
 20
-147.5086533919423
 10
111.0850368645898
 20
-147.5129597612988
 10
110.8986571988378
 20
-147.5277736718854
 10
110.8986571988378
 20
-147.5277736718854
 10
110.8986571988378
 20
-147.3078043251522
 10
110.8986571988378
 20
-147.3078043251522
 10
111.087103921881
 20
-147.3226182357388
 10
111.3727023376082
 20
-147.3267523503211
 10
111.4571071769968
 20
-147.3267523503211
 10
111.4571071769968
 20
-147.3267523503211
 10
112.0072889259912
 20
-147.3267523503211
 10
112.0072889259912
 20
-147.3267523503211
 10
112.0262369511601
 20
-147.3267523503211
 10
112.3435302453516
 20
-147.3267523503211
 10
112.5722845855722
 20
-147.3078043251522
 10
112.5722845855722
 20
-147.3078043251522
 10
112.5722845855722
 20
-147.5277736718854
 10
112.5722845855722
 20
-147.5277736718854
 10
112.383837862529
 20
-147.5129597612988
 10
112.1953911394859
 20
-147.5086533919423
 10
112.0072889259912
 20
-147.5086533919423
 97
        0
 97
        1
330
98
 75
     2
 76
     1
 98
        1
 10
0.0
 20
0.0
450
        0
451
        0
460
0.0
461
0.0
452
        0
462
0.0
453
        0
470

  0
SPLINE
  5
9A
330
8A
100
AcDbEntity
  8
レイヤー 1
100
AcDbSpline
210
0.0
220
0.0
230
1.0
 70
     9
 71
     3
 72
    29
 73
    25
 74
     0
 42
0.0000000001
 43
0.0000000001
 40
0.0
 40
0.0
 40
0.0
 40
0.0
 40
1.0
 40
1.0
 40
1.0
 40
2.0
 40
2.0
 40
2.0
 40
3.0
 40
3.0
 40
3.0
 40
4.0
 40
4.0
 40
4.0
 40
5.0
 40
5.0
 40
5.0
 40
6.0
 40
6.0
 40
6.0
 40
7.0
 40
7.0
 40
7.0
 40
8.0
 40
8.0
 40
8.0
 40
8.0
 10
113.8531710869881
 20
-147.6716064083946
 30
0.0
 10
113.8531710869881
 20
-147.6716064083946
 30
0.0
 10
113.3687906617619
 20
-147.6716064083946
 30
0.0
 10
113.3687906617619
 20
-147.6716064083946
 30
0.0
 10
113.34122989788
 20
-147.6716064083946
 30
0.0
 10
113.0239366036885
 20
-147.6716064083946
 30
0.0
 10
112.8124077408941
 20
-147.6969278602112
 30
0.0
 10
112.8124077408941
 20
-147.6969278602112
 30
0.0
 10
112.8124077408941
 20
-147.4664509722479
 30
0.0
 10
112.8124077408941
 20
-147.4664509722479
 30
0.0
 10
112.9708821332156
 20
-147.4897053667734
 30
0.0
 10
113.1613959135499
 20
-147.4917724240645
 30
0.0
 10
113.3687906617619
 20
-147.4917724240645
 30
0.0
 10
113.3687906617619
 20
-147.4917724240645
 30
0.0
 10
113.8531710869881
 20
-147.4917724240645
 30
0.0
 10
113.8531710869881
 20
-147.4917724240645
 30
0.0
 10
114.0392062431916
 20
-147.4917724240645
 30
0.0
 10
114.2255859089436
 20
-147.4897053667734
 30
0.0
 10
114.4095540078559
 20
-147.4664509722479
 30
0.0
 10
114.4095540078559
 20
-147.4664509722479
 30
0.0
 10
114.4095540078559
 20
-147.6969278602112
 30
0.0
 10
114.4095540078559
 20
-147.6969278602112
 30
0.0
 10
114.2255859089436
 20
-147.6736734656857
 30
0.0
 10
113.9778835435541
 20
-147.6716064083946
 30
0.0
 10
113.8531710869881
 20
-147.6716064083946
 30
0.0
  0
HATCH
  5
9B
330
8A
100
AcDbEntity
  8
レイヤー 1
 62
    18
420
        0
440
 33554687
100
AcDbHatch
 10
0.0
 20
0.0
 30
0.0
210
0.0
220
0.0
230
1.0
  2
SOLID
 70
     1
 71
     1
 91
        1
 92
        1
 93
        1
 72
     4
 94
        3
 73
     0
 74
     0
 95
       29
 96
       25
 40
0.0
 40
0.0
 40
0.0
 40
0.0
 40
1.0
 40
1.0
 40
1.0
 40
2.0
 40
2.0
 40
2.0
 40
3.0
 40
3.0
 40
3.0
 40
4.0
 40
4.0
 40
4.0
 40
5.0
 40
5.0
 40
5.0
 40
6.0
 40
6.0
 40
6.0
 40
7.0
 40
7.0
 40
7.0
 40
8.0
 40
8.0
 40
8.0
 40
8.0
 10
113.8531710869881
 20
-147.6716064083946
 10
113.8531710869881
 20
-147.6716064083946
 10
113.3687906617619
 20
-147.6716064083946
 10
113.3687906617619
 20
-147.6716064083946
 10
113.34122989788
 20
-147.6716064083946
 10
113.0239366036885
 20
-147.6716064083946
 10
112.8124077408941
 20
-147.6969278602112
 10
112.8124077408941
 20
-147.6969278602112
 10
112.8124077408941
 20
-147.4664509722479
 10
112.8124077408941
 20
-147.4664509722479
 10
112.9708821332156
 20
-147.4897053667734
 10
113.1613959135499
 20
-147.4917724240645
 10
113.3687906617619
 20
-147.4917724240645
 10
113.3687906617619
 20
-147.4917724240645
 10
113.8531710869881
 20
-147.4917724240645
 10
113.8531710869881
 20
-147.4917724240645
 10
114.0392062431916
 20
-147.4917724240645
 10
114.2255859089436
 20
-147.4897053667734
 10
114.4095540078559
 20
-147.4664509722479
 10
114.4095540078559
 20
-147.4664509722479
 10
114.4095540078559
 20
-147.6969278602112
 10
114.4095540078559
 20
-147.6969278602112
 10
114.2255859089436
 20
-147.6736734656857
 10
113.9778835435541
 20
-147.6716064083946
 10
113.8531710869881
 20
-147.6716064083946
 97
        0
 97
        1
330
9A
 75
     2
 76
     1
 98
        1
 10
0.0
 20
0.0
450
        0
451
        0
460
0.0
461
0.0
452
        0
462
0.0
453
        0
470

  0
SPLINE
  5
9C
330
8A
100
AcDbEntity
  8
レイヤー 1
100
AcDbSpline
210
0.0
220
0.0
230
1.0
 70
     9
 71
     3
 72
    47
 73
    43
 74
     0
 42
0.0000000001
 43
0.0000000001
 40
0.0
 40
0.0
 40
0.0
 40
0.0
 40
1.0
 40
1.0
 40
1.0
 40
2.0
 40
2.0
 40
2.0
 40
3.0
 40
3.0
 40
3.0
 40
4.0
 40
4.0
 40
4.0
 40
5.0
 40
5.0
 40
5.0
 40
6.0
 40
6.0
 40
6.0
 40
7.0
 40
7.0
 40
7.0
 40
8.0
 40
8.0
 40
8.0
 40
9.0
 40
9.0
 40
9.0
 40
10.0
 40
10.0
 40
10.0
 40
11.0
 40
11.0
 40
11.0
 40
12.0
 40
12.0
 40
12.0
 40
13.0
 40
13.0
 40
13.0
 40
14.0
 40
14.0
 40
14.0
 40
14.0
 10
116.0731906176831
 20
-147.0771551824147
 30
0.0
 10
116.0032551793325
 20
-147.3563801714942
 30
0.0
 10
115.9271185691085
 20
-147.6610988671646
 30
0.0
 10
115.6143038990478
 20
-147.9932060719426
 30
0.0
 10
115.3772813296626
 20
-148.242803239849
 30
0.0
 10
115.1319905311128
 20
-148.3421942445985
 30
0.0
 10
115.0262260997156
 20
-148.384568919067
 30
0.0
 10
115.0262260997156
 20
-148.384568919067
 30
0.0
 10
114.831578204799
 20
-148.2026678774458
 30
0.0
 10
114.831578204799
 20
-148.2026678774458
 30
0.0
 10
115.0176133610025
 20
-148.1559868336207
 30
0.0
 10
115.3793483869538
 20
-148.062969255519
 30
0.0
 10
115.6756265986852
 20
-147.5679090342886
 30
0.0
 10
115.8361680482979
 20
-147.3014308985045
 30
0.0
 10
115.8489149015933
 20
-147.1279703408221
 30
0.0
 10
115.8575276403064
 20
-147.0370198200116
 30
0.0
 10
115.8575276403064
 20
-147.0370198200116
 30
0.0
 10
115.3517876230718
 20
-147.0370198200116
 30
0.0
 10
115.3517876230718
 20
-147.0370198200116
 30
0.0
 10
115.2332763383792
 20
-147.0370198200116
 30
0.0
 10
114.8122856700816
 20
-147.0559678451804
 30
0.0
 10
114.6600124496336
 20
-147.0664753864104
 30
0.0
 10
114.6600124496336
 20
-147.0664753864104
 30
0.0
 10
114.6600124496336
 20
-146.8571858356815
 30
0.0
 10
114.6600124496336
 20
-146.8571858356815
 30
0.0
 10
114.8019503836259
 20
-146.8697604342027
 30
0.0
 10
115.07893606064
 20
-146.8740668035592
 30
0.0
 10
115.1953802880414
 20
-146.8740668035592
 30
0.0
 10
115.1953802880414
 20
-146.8740668035592
 30
0.0
 10
115.5505696325707
 20
-146.8740668035592
 30
0.0
 10
115.5505696325707
 20
-146.8740668035592
 30
0.0
 10
115.5781303964527
 20
-146.8740668035592
 30
0.0
 10
115.7390163556138
 20
-146.8719997462681
 30
0.0
 10
115.8489149015933
 20
-146.8571858356815
 30
0.0
 10
115.9061034866484
 20
-146.8508124090338
 30
0.0
 10
115.9229844545262
 20
-146.8316921290907
 30
0.0
 10
115.9464111038259
 20
-146.8084377345652
 30
0.0
 10
115.9464111038259
 20
-146.8084377345652
 30
0.0
 10
116.1345133173205
 20
-146.9586438977221
 30
0.0
 10
116.1345133173205
 20
-146.9586438977221
 30
0.0
 10
116.1196994067339
 20
-146.9882717188953
 30
0.0
 10
116.1093641202782
 20
-147.0073919988384
 30
0.0
 10
116.0731906176831
 20
-147.0771551824147
 30
0.0
  0
HATCH
  5
9D
330
8A
100
AcDbEntity
  8
レイヤー 1
 62
    18
420
        0
440
 33554687
100
AcDbHatch
 10
0.0
 20
0.0
 30
0.0
210
0.0
220
0.0
230
1.0
  2
SOLID
 70
     1
 71
     1
 91
        1
 92
        1
 93
        1
 72
     4
 94
        3
 73
     0
 74
     0
 95
       47
 96
       43
 40
0.0
 40
0.0
 40
0.0
 40
0.0
 40
1.0
 40
1.0
 40
1.0
 40
2.0
 40
2.0
 40
2.0
 40
3.0
 40
3.0
 40
3.0
 40
4.0
 40
4.0
 40
4.0
 40
5.0
 40
5.0
 40
5.0
 40
6.0
 40
6.0
 40
6.0
 40
7.0
 40
7.0
 40
7.0
 40
8.0
 40
8.0
 40
8.0
 40
9.0
 40
9.0
 40
9.0
 40
10.0
 40
10.0
 40
10.0
 40
11.0
 40
11.0
 40
11.0
 40
12.0
 40
12.0
 40
12.0
 40
13.0
 40
13.0
 40
13.0
 40
14.0
 40
14.0
 40
14.0
 40
14.0
 10
116.0731906176831
 20
-147.0771551824147
 10
116.0032551793325
 20
-147.3563801714942
 10
115.9271185691085
 20
-147.6610988671646
 10
115.6143038990478
 20
-147.9932060719426
 10
115.3772813296626
 20
-148.242803239849
 10
115.1319905311128
 20
-148.3421942445985
 10
115.0262260997156
 20
-148.384568919067
 10
115.0262260997156
 20
-148.384568919067
 10
114.831578204799
 20
-148.2026678774458
 10
114.831578204799
 20
-148.2026678774458
 10
115.0176133610025
 20
-148.1559868336207
 10
115.3793483869538
 20
-148.062969255519
 10
115.6756265986852
 20
-147.5679090342886
 10
115.8361680482979
 20
-147.3014308985045
 10
115.8489149015933
 20
-147.1279703408221
 10
115.8575276403064
 20
-147.0370198200116
 10
115.8575276403064
 20
-147.0370198200116
 10
115.3517876230718
 20
-147.0370198200116
 10
115.3517876230718
 20
-147.0370198200116
 10
115.2332763383792
 20
-147.0370198200116
 10
114.8122856700816
 20
-147.0559678451804
 10
114.6600124496336
 20
-147.0664753864104
 10
114.6600124496336
 20
-147.0664753864104
 10
114.6600124496336
 20
-146.8571858356815
 10
114.6600124496336
 20
-146.8571858356815
 10
114.8019503836259
 20
-146.8697604342027
 10
115.07893606064
 20
-146.8740668035592
 10
115.1953802880414
 20
-146.8740668035592
 10
115.1953802880414
 20
-146.8740668035592
 10
115.5505696325707
 20
-146.8740668035592
 10
115.5505696325707
 20
-146.8740668035592
 10
115.5781303964527
 20
-146.8740668035592
 10
115.7390163556138
 20
-146.8719997462681
 10
115.8489149015933
 20
-146.8571858356815
 10
115.9061034866484
 20
-146.8508124090338
 10
115.9229844545262
 20
-146.8316921290907
 10
115.9464111038259
 20
-146.8084377345652
 10
115.9464111038259
 20
-146.8084377345652
 10
116.1345133173205
 20
-146.9586438977221
 10
116.1345133173205
 20
-146.9586438977221
 10
116.1196994067339
 20
-146.9882717188953
 10
116.1093641202782
 20
-147.0073919988384
 10
116.0731906176831
 20
-147.0771551824147
 97
        0
 97
        1
330
9C
 75
     2
 76
     1
 98
        1
 10
0.0
 20
0.0
450
        0
451
        0
460
0.0
461
0.0
452
        0
462
0.0
453
        0
470

  0
SPLINE
  5
9E
330
8A
100
AcDbEntity
  8
レイヤー 1
100
AcDbSpline
210
0.0
220
0.0
230
1.0
 70
    11
 71
     3
 72
    17
 73
    13
 74
     0
 42
0.0000000001
 43
0.0000000001
 40
0.0
 40
0.0
 40
0.0
 40
0.0
 40
1.0
 40
1.0
 40
1.0
 40
2.0
 40
2.0
 40
2.0
 40
3.0
 40
3.0
 40
3.0
 40
4.0
 40
4.0
 40
4.0
 40
4.0
 10
116.4635199361619
 20
-146.8592528929727
 30
0.0
 10
116.4635199361619
 20
-146.9185085353189
 30
0.0
 10
116.5100287252128
 20
-146.9650173243698
 30
0.0
 10
116.5692843675591
 20
-146.9650173243698
 30
0.0
 10
116.6285400099053
 20
-146.9650173243698
 30
0.0
 10
116.6771158562474
 20
-146.9185085353189
 30
0.0
 10
116.6771158562474
 20
-146.8592528929727
 30
0.0
 10
116.6771158562474
 20
-146.7999972506264
 30
0.0
 10
116.6285400099053
 20
-146.7514214042843
 30
0.0
 10
116.5692843675591
 20
-146.7514214042843
 30
0.0
 10
116.5100287252128
 20
-146.7514214042843
 30
0.0
 10
116.4635199361619
 20
-146.7999972506264
 30
0.0
 10
116.4635199361619
 20
-146.8592528929727
 30
0.0
  0
SPLINE
  5
9F
330
8A
100
AcDbEntity
  8
レイヤー 1
100
AcDbSpline
210
0.0
220
0.0
230
1.0
 70
     9
 71
     3
 72
    17
 73
    13
 74
     0
 42
0.0000000001
 43
0.0000000001
 40
0.0
 40
0.0
 40
0.0
 40
0.0
 40
1.0
 40
1.0
 40
1.0
 40
2.0
 40
2.0
 40
2.0
 40
3.0
 40
3.0
 40
3.0
 40
4.0
 40
4.0
 40
4.0
 40
4.0
 10
116.7787461730622
 20
-146.8592528929727
 30
0.0
 10
116.7787461730622
 20
-146.9734578083087
 30
0.0
 10
116.6857285949605
 20
-147.0687146984758
 30
0.0
 10
116.5692843675591
 20
-147.0687146984758
 30
0.0
 10
116.4549071974487
 20
-147.0687146984758
 30
0.0
 10
116.3598225620559
 20
-146.9734578083087
 30
0.0
 10
116.3598225620559
 20
-146.8592528929727
 30
0.0
 10
116.3598225620559
 20
-146.7428086655712
 30
0.0
 10
116.4549071974487
 20
-146.6497910874695
 30
0.0
 10
116.5692843675591
 20
-146.6497910874695
 30
0.0
 10
116.6836615376693
 20
-146.6497910874695
 30
0.0
 10
116.7787461730622
 20
-146.7428086655712
 30
0.0
 10
116.7787461730622
 20
-146.8592528929727
 30
0.0
  0
HATCH
  5
A0
330
8A
100
AcDbEntity
  8
レイヤー 1
 62
    18
420
        0
440
 33554687
100
AcDbHatch
 10
0.0
 20
0.0
 30
0.0
210
0.0
220
0.0
230
1.0
  2
SOLID
 70
     1
 71
     1
 91
        2
 92
        1
 93
        1
 72
     4
 94
        3
 73
     0
 74
     0
 95
       17
 96
       13
 40
0.0
 40
0.0
 40
0.0
 40
0.0
 40
1.0
 40
1.0
 40
1.0
 40
2.0
 40
2.0
 40
2.0
 40
3.0
 40
3.0
 40
3.0
 40
4.0
 40
4.0
 40
4.0
 40
4.0
 10
116.4635199361619
 20
-146.8592528929727
 10
116.4635199361619
 20
-146.9185085353189
 10
116.5100287252128
 20
-146.9650173243698
 10
116.5692843675591
 20
-146.9650173243698
 10
116.6285400099053
 20
-146.9650173243698
 10
116.6771158562474
 20
-146.9185085353189
 10
116.6771158562474
 20
-146.8592528929727
 10
116.6771158562474
 20
-146.7999972506264
 10
116.6285400099053
 20
-146.7514214042843
 10
116.5692843675591
 20
-146.7514214042843
 10
116.5100287252128
 20
-146.7514214042843
 10
116.4635199361619
 20
-146.7999972506264
 10
116.4635199361619
 20
-146.8592528929727
 97
        0
 97
        1
330
9E
 92
        1
 93
        1
 72
     4
 94
        3
 73
     0
 74
     0
 95
       17
 96
       13
 40
0.0
 40
0.0
 40
0.0
 40
0.0
 40
1.0
 40
1.0
 40
1.0
 40
2.0
 40
2.0
 40
2.0
 40
3.0
 40
3.0
 40
3.0
 40
4.0
 40
4.0
 40
4.0
 40
4.0
 10
116.7787461730622
 20
-146.8592528929727
 10
116.7787461730622
 20
-146.9734578083087
 10
116.6857285949605
 20
-147.0687146984758
 10
116.5692843675591
 20
-147.0687146984758
 10
116.4549071974487
 20
-147.0687146984758
 10
116.3598225620559
 20
-146.9734578083087
 10
116.3598225620559
 20
-146.8592528929727
 10
116.3598225620559
 20
-146.7428086655712
 10
116.4549071974487
 20
-146.6497910874695
 10
116.5692843675591
 20
-146.6497910874695
 10
116.6836615376693
 20
-146.6497910874695
 10
116.7787461730622
 20
-146.7428086655712
 10
116.7787461730622
 20
-146.8592528929727
 97
        0
 97
        1
330
9F
 75
     2
 76
     1
 98
        1
 10
0.0
 20
0.0
450
        0
451
        0
460
0.0
461
0.0
452
        0
462
0.0
453
        0
470

  0
ENDBLK
  5
8D
330
8A
100
AcDbEntity
  8
0
100
AcDbBlockEnd
  0
BLOCK
  5
A3
330
A1
100
AcDbEntity
  8
0
100
AcDbBlockBegin
  2
Block_4
 70
     0
 10
0.0
 20
0.0
 30
0.0
  3
Block_4
  1

  0
LINE
  5
A5
330
A1
100
AcDbEntity
  8
レイヤー 1
 62
    18
420
        0
370
    25
100
AcDbLine
 10
89.98794594901529
 20
-145.3382610180768
 30
0.0
 11
101.0874959462412
 21
-145.3382610180768
 31
0.0
  0
LINE
  5
A6
330
A1
100
AcDbEntity
  8
レイヤー 1
 62
    18
420
        0
370
    25
100
AcDbLine
 10
99.98746433548006
 20
-146.4382573789028
 30
0.0
 11
99.98746433548006
 21
-152.4382663924965
 31
0.0
  0
LINE
  5
A7
330
A1
100
AcDbEntity
  8
レイヤー 1
 62
    18
420
        0
370
    25
100
AcDbLine
 10
89.98794594901529
 20
-146.4382573789028
 30
0.0
 11
99.98746427984924
 21
-146.4382573789028
 31
0.0
  0
LINE
  5
A8
330
A1
100
AcDbEntity
  8
レイヤー 1
 62
    18
420
        0
370
    25
100
AcDbLine
 10
89.98794594901529
 20
-145.3382610180768
 30
0.0
 11
89.98794594901529
 21
-146.4382573789028
 31
0.0
  0
LINE
  5
A9
330
A1
100
AcDbEntity
  8
レイヤー 1
 62
    18
420
        0
370
    25
100
AcDbLine
 10
101.087496001872
 20
-145.3382610180768
 30
0.0
 11
101.087496001872
 21
-151.3385875316627
 31
0.0
  0
LINE
  5
AA
330
A1
100
AcDbEntity
  8
レイヤー 1
 62
    18
420
        0
370
    25
100
AcDbLine
 10
116.9876126086752
 20
-151.3385875316627
 30
0.0
 11
116.9876126086752
 21
-151.7385669659029
 31
0.0
  0
LINE
  5
AB
330
A1
100
AcDbEntity
  8
レイヤー 1
 62
    18
420
        0
370
    25
100
AcDbLine
 10
101.087496001872
 20
-151.3385875316627
 30
0.0
 11
116.9876126086752
 21
-151.3385875316627
 31
0.0
  0
LINE
  5
AC
330
A1
100
AcDbEntity
  8
レイヤー 1
 62
    18
420
        0
370
    25
100
AcDbLine
 10
116.9876126086752
 20
-151.7385669659029
 30
0.0
 11
99.98746433548006
 21
-152.4382663924965
 31
0.0
  0
ENDBLK
  5
A4
330
A1
100
AcDbEntity
  8
0
100
AcDbBlockEnd
  0
BLOCK
  5
B9
330
B7
100
AcDbEntity
  8
0
100
AcDbBlockBegin
  2
Block_5
 70
     0
 10
0.0
 20
0.0
 30
0.0
  3
Block_5
  1

  0
INSERT
  5
BC
330
B7
100
AcDbEntity
  8
レイヤー 1
100
AcDbBlockReference
  2
Block_6
 10
0.0
 20
0.0
 30
0.0
  0
ENDBLK
  5
BA
330
B7
100
AcDbEntity
  8
0
100
AcDbBlockEnd
  0
BLOCK
  5
BD
330
BB
100
AcDbEntity
  8
0
100
AcDbBlockBegin
  2
Block_6
 70
     0
 10
0.0
 20
0.0
 30
0.0
  3
Block_6
  1

  0
SPLINE
  5
BF
330
BB
100
AcDbEntity
  8
レイヤー 1
100
AcDbSpline
210
0.0
220
0.0
230
1.0
 70
    11
 71
     3
 72
    26
 73
    22
 74
     0
 42
0.0000000001
 43
0.0000000001
 40
0.0
 40
0.0
 40
0.0
 40
0.0
 40
1.0
 40
1.0
 40
1.0
 40
2.0
 40
2.0
 40
2.0
 40
3.0
 40
3.0
 40
3.0
 40
4.0
 40
4.0
 40
4.0
 40
5.0
 40
5.0
 40
5.0
 40
6.0
 40
6.0
 40
6.0
 40
7.0
 40
7.0
 40
7.0
 40
7.0
 10
107.8500922039402
 20
-155.7923854862255
 30
0.0
 10
107.8500922039402
 20
-155.7923854862255
 30
0.0
 10
107.8500922039402
 20
-154.6882323832029
 30
0.0
 10
107.8500922039402
 20
-154.6882323832029
 30
0.0
 10
107.8500922039402
 20
-154.6882323832029
 30
0.0
 10
107.5200520564533
 20
-154.6882323832029
 30
0.0
 10
107.5200520564533
 20
-154.6882323832029
 30
0.0
 10
107.5200520564533
 20
-154.6882323832029
 30
0.0
 10
107.5200520564533
 20
-154.5400932773372
 30
0.0
 10
107.5200520564533
 20
-154.5400932773372
 30
0.0
 10
107.8521592612314
 20
-154.5252793667506
 30
0.0
 10
107.8986680502822
 20
-154.3623263502983
 30
0.0
 10
107.9282958714554
 20
-154.247949180188
 30
0.0
 10
107.9282958714554
 20
-154.247949180188
 30
0.0
 10
108.07436792003
 20
-154.247949180188
 30
0.0
 10
108.07436792003
 20
-154.247949180188
 30
0.0
 10
108.07436792003
 20
-154.247949180188
 30
0.0
 10
108.07436792003
 20
-155.7923854862255
 30
0.0
 10
108.07436792003
 20
-155.7923854862255
 30
0.0
 10
108.07436792003
 20
-155.7923854862255
 30
0.0
 10
107.8500922039402
 20
-155.7923854862255
 30
0.0
 10
107.8500922039402
 20
-155.7923854862255
 30
0.0
  0
HATCH
  5
C0
330
BB
100
AcDbEntity
  8
レイヤー 1
 62
    18
420
        0
440
 33554687
100
AcDbHatch
 10
0.0
 20
0.0
 30
0.0
210
0.0
220
0.0
230
1.0
  2
SOLID
 70
     1
 71
     1
 91
        1
 92
        1
 93
        1
 72
     4
 94
        3
 73
     0
 74
     0
 95
       26
 96
       22
 40
0.0
 40
0.0
 40
0.0
 40
0.0
 40
1.0
 40
1.0
 40
1.0
 40
2.0
 40
2.0
 40
2.0
 40
3.0
 40
3.0
 40
3.0
 40
4.0
 40
4.0
 40
4.0
 40
5.0
 40
5.0
 40
5.0
 40
6.0
 40
6.0
 40
6.0
 40
7.0
 40
7.0
 40
7.0
 40
7.0
 10
107.8500922039402
 20
-155.7923854862255
 10
107.8500922039402
 20
-155.7923854862255
 10
107.8500922039402
 20
-154.6882323832029
 10
107.8500922039402
 20
-154.6882323832029
 10
107.8500922039402
 20
-154.6882323832029
 10
107.5200520564533
 20
-154.6882323832029
 10
107.5200520564533
 20
-154.6882323832029
 10
107.5200520564533
 20
-154.6882323832029
 10
107.5200520564533
 20
-154.5400932773372
 10
107.5200520564533
 20
-154.5400932773372
 10
107.8521592612314
 20
-154.5252793667506
 10
107.8986680502822
 20
-154.3623263502983
 10
107.9282958714554
 20
-154.247949180188
 10
107.9282958714554
 20
-154.247949180188
 10
108.07436792003
 20
-154.247949180188
 10
108.07436792003
 20
-154.247949180188
 10
108.07436792003
 20
-154.247949180188
 10
108.07436792003
 20
-155.7923854862255
 10
108.07436792003
 20
-155.7923854862255
 10
108.07436792003
 20
-155.7923854862255
 10
107.8500922039402
 20
-155.7923854862255
 10
107.8500922039402
 20
-155.7923854862255
 97
        0
 97
        1
330
BF
 75
     2
 76
     1
 98
        1
 10
0.0
 20
0.0
450
        0
451
        0
460
0.0
461
0.0
452
        0
462
0.0
453
        0
470

  0
SPLINE
  5
C1
330
BB
100
AcDbEntity
  8
レイヤー 1
100
AcDbSpline
210
0.0
220
0.0
230
1.0
 70
     9
 71
     3
 72
    26
 73
    22
 74
     0
 42
0.0000000001
 43
0.0000000001
 40
0.0
 40
0.0
 40
0.0
 40
0.0
 40
1.0
 40
1.0
 40
1.0
 40
2.0
 40
2.0
 40
2.0
 40
3.0
 40
3.0
 40
3.0
 40
4.0
 40
4.0
 40
4.0
 40
5.0
 40
5.0
 40
5.0
 40
6.0
 40
6.0
 40
6.0
 40
7.0
 40
7.0
 40
7.0
 40
7.0
 10
108.9866292045241
 20
-155.7923854862255
 30
0.0
 10
108.9866292045241
 20
-155.7923854862255
 30
0.0
 10
108.749606635139
 20
-155.7923854862255
 30
0.0
 10
108.749606635139
 20
-155.7923854862255
 30
0.0
 10
108.7751003417298
 20
-155.4833604211986
 30
0.0
 10
108.9676811793553
 20
-154.965218060217
 30
0.0
 10
109.3738579370662
 20
-154.4594780429823
 30
0.0
 10
109.3738579370662
 20
-154.4594780429823
 30
0.0
 10
108.5360107150535
 20
-154.4594780429823
 30
0.0
 10
108.5360107150535
 20
-154.4594780429823
 30
0.0
 10
108.5360107150535
 20
-154.4594780429823
 30
0.0
 10
108.5360107150535
 20
-154.247949180188
 30
0.0
 10
108.5360107150535
 20
-154.247949180188
 30
0.0
 10
108.5360107150535
 20
-154.247949180188
 30
0.0
 10
109.6108805064514
 20
-154.247949180188
 30
0.0
 10
109.6108805064514
 20
-154.247949180188
 30
0.0
 10
109.6108805064514
 20
-154.247949180188
 30
0.0
 10
109.6108805064514
 20
-154.4594780429823
 30
0.0
 10
109.6108805064514
 20
-154.4594780429823
 30
0.0
 10
109.2870415308379
 20
-154.7495550828404
 30
0.0
 10
109.0203911402796
 20
-155.3417669967548
 30
0.0
 10
108.9866292045241
 20
-155.7923854862255
 30
0.0
  0
HATCH
  5
C2
330
BB
100
AcDbEntity
  8
レイヤー 1
 62
    18
420
        0
440
 33554687
100
AcDbHatch
 10
0.0
 20
0.0
 30
0.0
210
0.0
220
0.0
230
1.0
  2
SOLID
 70
     1
 71
     1
 91
        1
 92
        1
 93
        1
 72
     4
 94
        3
 73
     0
 74
     0
 95
       26
 96
       22
 40
0.0
 40
0.0
 40
0.0
 40
0.0
 40
1.0
 40
1.0
 40
1.0
 40
2.0
 40
2.0
 40
2.0
 40
3.0
 40
3.0
 40
3.0
 40
4.0
 40
4.0
 40
4.0
 40
5.0
 40
5.0
 40
5.0
 40
6.0
 40
6.0
 40
6.0
 40
7.0
 40
7.0
 40
7.0
 40
7.0
 10
108.9866292045241
 20
-155.7923854862255
 10
108.9866292045241
 20
-155.7923854862255
 10
108.749606635139
 20
-155.7923854862255
 10
108.749606635139
 20
-155.7923854862255
 10
108.7751003417298
 20
-155.4833604211986
 10
108.9676811793553
 20
-154.965218060217
 10
109.3738579370662
 20
-154.4594780429823
 10
109.3738579370662
 20
-154.4594780429823
 10
108.5360107150535
 20
-154.4594780429823
 10
108.5360107150535
 20
-154.4594780429823
 10
108.5360107150535
 20
-154.4594780429823
 10
108.5360107150535
 20
-154.247949180188
 10
108.5360107150535
 20
-154.247949180188
 10
108.5360107150535
 20
-154.247949180188
 10
109.6108805064514
 20
-154.247949180188
 10
109.6108805064514
 20
-154.247949180188
 10
109.6108805064514
 20
-154.247949180188
 10
109.6108805064514
 20
-154.4594780429823
 10
109.6108805064514
 20
-154.4594780429823
 10
109.2870415308379
 20
-154.7495550828404
 10
109.0203911402796
 20
-155.3417669967548
 10
108.9866292045241
 20
-155.7923854862255
 97
        0
 97
        1
330
C1
 75
     2
 76
     1
 98
        1
 10
0.0
 20
0.0
450
        0
451
        0
460
0.0
461
0.0
452
        0
462
0.0
453
        0
470

  0
ENDBLK
  5
BE
330
BB
100
AcDbEntity
  8
0
100
AcDbBlockEnd
  0
BLOCK
  5
C7
330
C5
100
AcDbEntity
  8
0
100
AcDbBlockBegin
  2
Block_7
 70
     0
 10
0.0
 20
0.0
 30
0.0
  3
Block_7
  1

  0
SPLINE
  5
C9
330
C5
100
AcDbEntity
  8
レイヤー 1
100
AcDbSpline
210
0.0
220
0.0
230
1.0
 70
     9
 71
     3
 72
    17
 73
    13
 74
     0
 42
0.0000000001
 43
0.0000000001
 40
0.0
 40
0.0
 40
0.0
 40
0.0
 40
1.0
 40
1.0
 40
1.0
 40
2.0
 40
2.0
 40
2.0
 40
3.0
 40
3.0
 40
3.0
 40
4.0
 40
4.0
 40
4.0
 40
4.0
 10
119.5909776176717
 20
-148.318250830976
 30
0.0
 10
119.5909776176717
 20
-148.5804225974035
 30
0.0
 10
119.802506480466
 20
-148.6183186477412
 30
0.0
 10
119.9189507078675
 20
-148.6183186477412
 30
0.0
 10
120.0946505776152
 20
-148.6183186477412
 30
0.0
 10
120.2576035940675
 20
-148.5232340123483
 30
0.0
 10
120.2576035940675
 20
-148.339265913436
 30
0.0
 10
120.2576035940675
 20
-148.2186875714523
 30
0.0
 10
120.1983479517212
 20
-148.0429877017045
 30
0.0
 10
119.912749535994
 20
-148.0429877017045
 30
0.0
 10
119.6884738199043
 20
-148.0429877017045
 30
0.0
 10
119.5909776176717
 20
-148.1825140688571
 30
0.0
 10
119.5909776176717
 20
-148.318250830976
 30
0.0
  0
SPLINE
  5
CA
330
C5
100
AcDbEntity
  8
レイヤー 1
100
AcDbSpline
210
0.0
220
0.0
230
1.0
 70
     9
 71
     3
 72
    32
 73
    28
 74
     0
 42
0.0000000001
 43
0.0000000001
 40
0.0
 40
0.0
 40
0.0
 40
0.0
 40
1.0
 40
1.0
 40
1.0
 40
2.0
 40
2.0
 40
2.0
 40
3.0
 40
3.0
 40
3.0
 40
4.0
 40
4.0
 40
4.0
 40
5.0
 40
5.0
 40
5.0
 40
6.0
 40
6.0
 40
6.0
 40
7.0
 40
7.0
 40
7.0
 40
8.0
 40
8.0
 40
8.0
 40
9.0
 40
9.0
 40
9.0
 40
9.0
 10
120.4498399221445
 20
-148.3351317988537
 30
0.0
 10
120.4498399221445
 20
-148.8512071025441
 30
0.0
 10
119.8958685681163
 20
-148.8598198412572
 30
0.0
 10
119.6819281384823
 20
-148.8598198412572
 30
0.0
 10
119.4514512505191
 20
-148.8598198412572
 30
0.0
 10
118.8041178088406
 20
-148.8405273065399
 30
0.0
 10
118.8041178088406
 20
-148.2968912389674
 30
0.0
 10
118.8041178088406
 20
-148.1236029360593
 30
0.0
 10
118.8740532471912
 20
-147.8779676279611
 30
0.0
 10
119.2061604519693
 20
-147.8400715776233
 30
0.0
 10
119.2061604519693
 20
-147.8400715776233
 30
0.0
 10
119.2061604519693
 20
-148.0536674977088
 30
0.0
 10
119.2061604519693
 20
-148.0536674977088
 30
0.0
 10
119.1489718669141
 20
-148.0643472937131
 30
0.0
 10
119.0008327610484
 20
-148.0960421721774
 30
0.0
 10
119.0008327610484
 20
-148.2989582962586
 30
0.0
 10
119.0008327610484
 20
-148.5911023934078
 30
0.0
 10
119.3288058512442
 20
-148.6310655010367
 30
0.0
 10
119.5337890326165
 20
-148.6438123543321
 30
0.0
 10
119.4555853651014
 20
-148.5507947762303
 30
0.0
 10
119.3963297227551
 20
-148.4829263951709
 30
0.0
 10
119.3963297227551
 20
-148.3010253535497
 30
0.0
 10
119.3963297227551
 20
-148.1211913692197
 30
0.0
 10
119.5045057209919
 20
-147.8187119856148
 30
0.0
 10
119.9106824787029
 20
-147.8187119856148
 30
0.0
 10
120.2300428301855
 20
-147.8187119856148
 30
0.0
 10
120.4498399221445
 20
-148.0178385046622
 30
0.0
 10
120.4498399221445
 20
-148.3351317988537
 30
0.0
  0
HATCH
  5
CB
330
C5
100
AcDbEntity
  8
レイヤー 1
 62
    18
420
        0
440
 33554687
100
AcDbHatch
 10
0.0
 20
0.0
 30
0.0
210
0.0
220
0.0
230
1.0
  2
SOLID
 70
     1
 71
     1
 91
        2
 92
        1
 93
        1
 72
     4
 94
        3
 73
     0
 74
     0
 95
       17
 96
       13
 40
0.0
 40
0.0
 40
0.0
 40
0.0
 40
1.0
 40
1.0
 40
1.0
 40
2.0
 40
2.0
 40
2.0
 40
3.0
 40
3.0
 40
3.0
 40
4.0
 40
4.0
 40
4.0
 40
4.0
 10
119.5909776176717
 20
-148.318250830976
 10
119.5909776176717
 20
-148.5804225974035
 10
119.802506480466
 20
-148.6183186477412
 10
119.9189507078675
 20
-148.6183186477412
 10
120.0946505776152
 20
-148.6183186477412
 10
120.2576035940675
 20
-148.5232340123483
 10
120.2576035940675
 20
-148.339265913436
 10
120.2576035940675
 20
-148.2186875714523
 10
120.1983479517212
 20
-148.0429877017045
 10
119.912749535994
 20
-148.0429877017045
 10
119.6884738199043
 20
-148.0429877017045
 10
119.5909776176717
 20
-148.1825140688571
 10
119.5909776176717
 20
-148.318250830976
 97
        0
 97
        1
330
C9
 92
        1
 93
        1
 72
     4
 94
        3
 73
     0
 74
     0
 95
       32
 96
       28
 40
0.0
 40
0.0
 40
0.0
 40
0.0
 40
1.0
 40
1.0
 40
1.0
 40
2.0
 40
2.0
 40
2.0
 40
3.0
 40
3.0
 40
3.0
 40
4.0
 40
4.0
 40
4.0
 40
5.0
 40
5.0
 40
5.0
 40
6.0
 40
6.0
 40
6.0
 40
7.0
 40
7.0
 40
7.0
 40
8.0
 40
8.0
 40
8.0
 40
9.0
 40
9.0
 40
9.0
 40
9.0
 10
120.4498399221445
 20
-148.3351317988537
 10
120.4498399221445
 20
-148.8512071025441
 10
119.8958685681163
 20
-148.8598198412572
 10
119.6819281384823
 20
-148.8598198412572
 10
119.4514512505191
 20
-148.8598198412572
 10
118.8041178088406
 20
-148.8405273065399
 10
118.8041178088406
 20
-148.2968912389674
 10
118.8041178088406
 20
-148.1236029360593
 10
118.8740532471912
 20
-147.8779676279611
 10
119.2061604519693
 20
-147.8400715776233
 10
119.2061604519693
 20
-147.8400715776233
 10
119.2061604519693
 20
-148.0536674977088
 10
119.2061604519693
 20
-148.0536674977088
 10
119.1489718669141
 20
-148.0643472937131
 10
119.0008327610484
 20
-148.0960421721774
 10
119.0008327610484
 20
-148.2989582962586
 10
119.0008327610484
 20
-148.5911023934078
 10
119.3288058512442
 20
-148.6310655010367
 10
119.5337890326165
 20
-148.6438123543321
 10
119.4555853651014
 20
-148.5507947762303
 10
119.3963297227551
 20
-148.4829263951709
 10
119.3963297227551
 20
-148.3010253535497
 10
119.3963297227551
 20
-148.1211913692197
 10
119.5045057209919
 20
-147.8187119856148
 10
119.9106824787029
 20
-147.8187119856148
 10
120.2300428301855
 20
-147.8187119856148
 10
120.4498399221445
 20
-148.0178385046622
 10
120.4498399221445
 20
-148.3351317988537
 97
        0
 97
        1
330
CA
 75
     2
 76
     1
 98
        1
 10
0.0
 20
0.0
450
        0
451
        0
460
0.0
461
0.0
452
        0
462
0.0
453
        0
470

  0
ENDBLK
  5
C8
330
C5
100
AcDbEntity
  8
0
100
AcDbBlockEnd
  0
BLOCK
  5
D2
330
D0
100
AcDbEntity
  8
0
100
AcDbBlockBegin
  2
Block_8
 70
     0
 10
0.0
 20
0.0
 30
0.0
  3
Block_8
  1

  0
INSERT
  5
D5
330
D0
100
AcDbEntity
  8
レイヤー 1
100
AcDbBlockReference
  2
Block_9
 10
0.0
 20
0.0
 30
0.0
  0
ENDBLK
  5
D3
330
D0
100
AcDbEntity
  8
0
100
AcDbBlockEnd
  0
BLOCK
  5
D6
330
D4
100
AcDbEntity
  8
0
100
AcDbBlockBegin
  2
Block_9
 70
     0
 10
0.0
 20
0.0
 30
0.0
  3
Block_9
  1

  0
SPLINE
  5
D8
330
D4
100
AcDbEntity
  8
レイヤー 1
100
AcDbSpline
210
0.0
220
0.0
230
1.0
 70
    11
 71
     3
 72
    26
 73
    22
 74
     0
 42
0.0000000001
 43
0.0000000001
 40
0.0
 40
0.0
 40
0.0
 40
0.0
 40
1.0
 40
1.0
 40
1.0
 40
2.0
 40
2.0
 40
2.0
 40
3.0
 40
3.0
 40
3.0
 40
4.0
 40
4.0
 40
4.0
 40
5.0
 40
5.0
 40
5.0
 40
6.0
 40
6.0
 40
6.0
 40
7.0
 40
7.0
 40
7.0
 40
7.0
 10
87.10544973950836
 20
-144.2499375724445
 30
0.0
 10
87.10544973950836
 20
-144.2499375724445
 30
0.0
 10
86.00129663648578
 20
-144.2499375724445
 30
0.0
 10
86.00129663648578
 20
-144.2499375724445
 30
0.0
 10
86.00129663648578
 20
-144.2499375724445
 30
0.0
 10
86.00129663648578
 20
-144.5799777199314
 30
0.0
 10
86.00129663648578
 20
-144.5799777199314
 30
0.0
 10
86.00129663648578
 20
-144.5799777199314
 30
0.0
 10
85.85315753062005
 20
-144.5799777199314
 30
0.0
 10
85.85315753062005
 20
-144.5799777199314
 30
0.0
 10
85.83834362003347
 20
-144.2478705151533
 30
0.0
 10
85.67539060358114
 20
-144.2013617261024
 30
0.0
 10
85.56101343347085
 20
-144.1717339049293
 30
0.0
 10
85.56101343347085
 20
-144.1717339049293
 30
0.0
 10
85.56101343347085
 20
-144.0256618563547
 30
0.0
 10
85.56101343347085
 20
-144.0256618563547
 30
0.0
 10
85.56101343347085
 20
-144.0256618563547
 30
0.0
 10
87.10544973950836
 20
-144.0256618563547
 30
0.0
 10
87.10544973950836
 20
-144.0256618563547
 30
0.0
 10
87.10544973950836
 20
-144.0256618563547
 30
0.0
 10
87.10544973950836
 20
-144.2499375724445
 30
0.0
 10
87.10544973950836
 20
-144.2499375724445
 30
0.0
  0
HATCH
  5
D9
330
D4
100
AcDbEntity
  8
レイヤー 1
 62
    18
420
        0
440
 33554687
100
AcDbHatch
 10
0.0
 20
0.0
 30
0.0
210
0.0
220
0.0
230
1.0
  2
SOLID
 70
     1
 71
     1
 91
        1
 92
        1
 93
        1
 72
     4
 94
        3
 73
     0
 74
     0
 95
       26
 96
       22
 40
0.0
 40
0.0
 40
0.0
 40
0.0
 40
1.0
 40
1.0
 40
1.0
 40
2.0
 40
2.0
 40
2.0
 40
3.0
 40
3.0
 40
3.0
 40
4.0
 40
4.0
 40
4.0
 40
5.0
 40
5.0
 40
5.0
 40
6.0
 40
6.0
 40
6.0
 40
7.0
 40
7.0
 40
7.0
 40
7.0
 10
87.10544973950836
 20
-144.2499375724445
 10
87.10544973950836
 20
-144.2499375724445
 10
86.00129663648578
 20
-144.2499375724445
 10
86.00129663648578
 20
-144.2499375724445
 10
86.00129663648578
 20
-144.2499375724445
 10
86.00129663648578
 20
-144.5799777199314
 10
86.00129663648578
 20
-144.5799777199314
 10
86.00129663648578
 20
-144.5799777199314
 10
85.85315753062005
 20
-144.5799777199314
 10
85.85315753062005
 20
-144.5799777199314
 10
85.83834362003347
 20
-144.2478705151533
 10
85.67539060358114
 20
-144.2013617261024
 10
85.56101343347085
 20
-144.1717339049293
 10
85.56101343347085
 20
-144.1717339049293
 10
85.56101343347085
 20
-144.0256618563547
 10
85.56101343347085
 20
-144.0256618563547
 10
85.56101343347085
 20
-144.0256618563547
 10
87.10544973950836
 20
-144.0256618563547
 10
87.10544973950836
 20
-144.0256618563547
 10
87.10544973950836
 20
-144.0256618563547
 10
87.10544973950836
 20
-144.2499375724445
 10
87.10544973950836
 20
-144.2499375724445
 97
        0
 97
        1
330
D8
 75
     2
 76
     1
 98
        1
 10
0.0
 20
0.0
450
        0
451
        0
460
0.0
461
0.0
452
        0
462
0.0
453
        0
470

  0
SPLINE
  5
DA
330
D4
100
AcDbEntity
  8
レイヤー 1
100
AcDbSpline
210
0.0
220
0.0
230
1.0
 70
    11
 71
     3
 72
    17
 73
    13
 74
     0
 42
0.0000000001
 43
0.0000000001
 40
0.0
 40
0.0
 40
0.0
 40
0.0
 40
1.0
 40
1.0
 40
1.0
 40
2.0
 40
2.0
 40
2.0
 40
3.0
 40
3.0
 40
3.0
 40
4.0
 40
4.0
 40
4.0
 40
4.0
 10
87.10544973950836
 20
-143.4644558018075
 30
0.0
 10
87.10544973950836
 20
-143.4644558018075
 30
0.0
 10
86.8536132595366
 20
-143.4644558018075
 30
0.0
 10
86.8536132595366
 20
-143.4644558018075
 30
0.0
 10
86.8536132595366
 20
-143.4644558018075
 30
0.0
 10
86.8536132595366
 20
-143.2126193218357
 30
0.0
 10
86.8536132595366
 20
-143.2126193218357
 30
0.0
 10
86.8536132595366
 20
-143.2126193218357
 30
0.0
 10
87.10544973950836
 20
-143.2126193218357
 30
0.0
 10
87.10544973950836
 20
-143.2126193218357
 30
0.0
 10
87.10544973950836
 20
-143.2126193218357
 30
0.0
 10
87.10544973950836
 20
-143.4644558018075
 30
0.0
 10
87.10544973950836
 20
-143.4644558018075
 30
0.0
  0
HATCH
  5
DB
330
D4
100
AcDbEntity
  8
レイヤー 1
 62
    18
420
        0
440
 33554687
100
AcDbHatch
 10
0.0
 20
0.0
 30
0.0
210
0.0
220
0.0
230
1.0
  2
SOLID
 70
     1
 71
     1
 91
        1
 92
        1
 93
        1
 72
     4
 94
        3
 73
     0
 74
     0
 95
       17
 96
       13
 40
0.0
 40
0.0
 40
0.0
 40
0.0
 40
1.0
 40
1.0
 40
1.0
 40
2.0
 40
2.0
 40
2.0
 40
3.0
 40
3.0
 40
3.0
 40
4.0
 40
4.0
 40
4.0
 40
4.0
 10
87.10544973950836
 20
-143.4644558018075
 10
87.10544973950836
 20
-143.4644558018075
 10
86.8536132595366
 20
-143.4644558018075
 10
86.8536132595366
 20
-143.4644558018075
 10
86.8536132595366
 20
-143.4644558018075
 10
86.8536132595366
 20
-143.2126193218357
 10
86.8536132595366
 20
-143.2126193218357
 10
86.8536132595366
 20
-143.2126193218357
 10
87.10544973950836
 20
-143.2126193218357
 10
87.10544973950836
 20
-143.2126193218357
 10
87.10544973950836
 20
-143.2126193218357
 10
87.10544973950836
 20
-143.4644558018075
 10
87.10544973950836
 20
-143.4644558018075
 97
        0
 97
        1
330
DA
 75
     2
 76
     1
 98
        1
 10
0.0
 20
0.0
450
        0
451
        0
460
0.0
461
0.0
452
        0
462
0.0
453
        0
470

  0
SPLINE
  5
DC
330
D4
100
AcDbEntity
  8
レイヤー 1
100
AcDbSpline
210
0.0
220
0.0
230
1.0
 70
    11
 71
     3
 72
    26
 73
    22
 74
     0
 42
0.0000000001
 43
0.0000000001
 40
0.0
 40
0.0
 40
0.0
 40
0.0
 40
1.0
 40
1.0
 40
1.0
 40
2.0
 40
2.0
 40
2.0
 40
3.0
 40
3.0
 40
3.0
 40
4.0
 40
4.0
 40
4.0
 40
5.0
 40
5.0
 40
5.0
 40
6.0
 40
6.0
 40
6.0
 40
7.0
 40
7.0
 40
7.0
 40
7.0
 10
87.10544973950836
 20
-142.5249782629799
 30
0.0
 10
87.10544973950836
 20
-142.5249782629799
 30
0.0
 10
86.00129663648578
 20
-142.5249782629799
 30
0.0
 10
86.00129663648578
 20
-142.5249782629799
 30
0.0
 10
86.00129663648578
 20
-142.5249782629799
 30
0.0
 10
86.00129663648578
 20
-142.8550184104668
 30
0.0
 10
86.00129663648578
 20
-142.8550184104668
 30
0.0
 10
86.00129663648578
 20
-142.8550184104668
 30
0.0
 10
85.85315753062005
 20
-142.8550184104668
 30
0.0
 10
85.85315753062005
 20
-142.8550184104668
 30
0.0
 10
85.83834362003347
 20
-142.5229112056887
 30
0.0
 10
85.67539060358114
 20
-142.4764024166378
 30
0.0
 10
85.56101343347085
 20
-142.4467745954647
 30
0.0
 10
85.56101343347085
 20
-142.4467745954647
 30
0.0
 10
85.56101343347085
 20
-142.3007025468901
 30
0.0
 10
85.56101343347085
 20
-142.3007025468901
 30
0.0
 10
85.56101343347085
 20
-142.3007025468901
 30
0.0
 10
87.10544973950836
 20
-142.3007025468901
 30
0.0
 10
87.10544973950836
 20
-142.3007025468901
 30
0.0
 10
87.10544973950836
 20
-142.3007025468901
 30
0.0
 10
87.10544973950836
 20
-142.5249782629799
 30
0.0
 10
87.10544973950836
 20
-142.5249782629799
 30
0.0
  0
HATCH
  5
DD
330
D4
100
AcDbEntity
  8
レイヤー 1
 62
    18
420
        0
440
 33554687
100
AcDbHatch
 10
0.0
 20
0.0
 30
0.0
210
0.0
220
0.0
230
1.0
  2
SOLID
 70
     1
 71
     1
 91
        1
 92
        1
 93
        1
 72
     4
 94
        3
 73
     0
 74
     0
 95
       26
 96
       22
 40
0.0
 40
0.0
 40
0.0
 40
0.0
 40
1.0
 40
1.0
 40
1.0
 40
2.0
 40
2.0
 40
2.0
 40
3.0
 40
3.0
 40
3.0
 40
4.0
 40
4.0
 40
4.0
 40
5.0
 40
5.0
 40
5.0
 40
6.0
 40
6.0
 40
6.0
 40
7.0
 40
7.0
 40
7.0
 40
7.0
 10
87.10544973950836
 20
-142.5249782629799
 10
87.10544973950836
 20
-142.5249782629799
 10
86.00129663648578
 20
-142.5249782629799
 10
86.00129663648578
 20
-142.5249782629799
 10
86.00129663648578
 20
-142.5249782629799
 10
86.00129663648578
 20
-142.8550184104668
 10
86.00129663648578
 20
-142.8550184104668
 10
86.00129663648578
 20
-142.8550184104668
 10
85.85315753062005
 20
-142.8550184104668
 10
85.85315753062005
 20
-142.8550184104668
 10
85.83834362003347
 20
-142.5229112056887
 10
85.67539060358114
 20
-142.4764024166378
 10
85.56101343347085
 20
-142.4467745954647
 10
85.56101343347085
 20
-142.4467745954647
 10
85.56101343347085
 20
-142.3007025468901
 10
85.56101343347085
 20
-142.3007025468901
 10
85.56101343347085
 20
-142.3007025468901
 10
87.10544973950836
 20
-142.3007025468901
 10
87.10544973950836
 20
-142.3007025468901
 10
87.10544973950836
 20
-142.3007025468901
 10
87.10544973950836
 20
-142.5249782629799
 10
87.10544973950836
 20
-142.5249782629799
 97
        0
 97
        1
330
DC
 75
     2
 76
     1
 98
        1
 10
0.0
 20
0.0
450
        0
451
        0
460
0.0
461
0.0
452
        0
462
0.0
453
        0
470

  0
ENDBLK
  5
D7
330
D4
100
AcDbEntity
  8
0
100
AcDbBlockEnd
  0
BLOCK
  5
E3
330
E1
100
AcDbEntity
  8
0
100
AcDbBlockBegin
  2
Block_10
 70
     0
 10
0.0
 20
0.0
 30
0.0
  3
Block_10
  1

  0
INSERT
  5
E6
330
E1
100
AcDbEntity
  8
レイヤー 1
100
AcDbBlockReference
  2
Block_11
 10
0.0
 20
0.0
 30
0.0
  0
ENDBLK
  5
E4
330
E1
100
AcDbEntity
  8
0
100
AcDbBlockEnd
  0
BLOCK
  5
E7
330
E5
100
AcDbEntity
  8
0
100
AcDbBlockBegin
  2
Block_11
 70
     0
 10
0.0
 20
0.0
 30
0.0
  3
Block_11
  1

  0
SPLINE
  5
E9
330
E5
100
AcDbEntity
  8
レイヤー 1
100
AcDbSpline
210
0.0
220
0.0
230
1.0
 70
    11
 71
     3
 72
    26
 73
    22
 74
     0
 42
0.0000000001
 43
0.0000000001
 40
0.0
 40
0.0
 40
0.0
 40
0.0
 40
1.0
 40
1.0
 40
1.0
 40
2.0
 40
2.0
 40
2.0
 40
3.0
 40
3.0
 40
3.0
 40
4.0
 40
4.0
 40
4.0
 40
5.0
 40
5.0
 40
5.0
 40
6.0
 40
6.0
 40
6.0
 40
7.0
 40
7.0
 40
7.0
 40
7.0
 10
94.35048554498877
 20
-155.7923854862255
 30
0.0
 10
94.35048554498877
 20
-155.7923854862255
 30
0.0
 10
94.35048554498877
 20
-154.6882323832029
 30
0.0
 10
94.35048554498877
 20
-154.6882323832029
 30
0.0
 10
94.35048554498877
 20
-154.6882323832029
 30
0.0
 10
94.02044539750184
 20
-154.6882323832029
 30
0.0
 10
94.02044539750184
 20
-154.6882323832029
 30
0.0
 10
94.02044539750184
 20
-154.6882323832029
 30
0.0
 10
94.02044539750184
 20
-154.5400932773372
 30
0.0
 10
94.02044539750184
 20
-154.5400932773372
 30
0.0
 10
94.35255260227993
 20
-154.5252793667506
 30
0.0
 10
94.39906139133078
 20
-154.3623263502983
 30
0.0
 10
94.42868921250394
 20
-154.247949180188
 30
0.0
 10
94.42868921250394
 20
-154.247949180188
 30
0.0
 10
94.57476126107854
 20
-154.247949180188
 30
0.0
 10
94.57476126107854
 20
-154.247949180188
 30
0.0
 10
94.57476126107854
 20
-154.247949180188
 30
0.0
 10
94.57476126107854
 20
-155.7923854862255
 30
0.0
 10
94.57476126107854
 20
-155.7923854862255
 30
0.0
 10
94.57476126107854
 20
-155.7923854862255
 30
0.0
 10
94.35048554498877
 20
-155.7923854862255
 30
0.0
 10
94.35048554498877
 20
-155.7923854862255
 30
0.0
  0
HATCH
  5
EA
330
E5
100
AcDbEntity
  8
レイヤー 1
 62
    18
420
        0
440
 33554687
100
AcDbHatch
 10
0.0
 20
0.0
 30
0.0
210
0.0
220
0.0
230
1.0
  2
SOLID
 70
     1
 71
     1
 91
        1
 92
        1
 93
        1
 72
     4
 94
        3
 73
     0
 74
     0
 95
       26
 96
       22
 40
0.0
 40
0.0
 40
0.0
 40
0.0
 40
1.0
 40
1.0
 40
1.0
 40
2.0
 40
2.0
 40
2.0
 40
3.0
 40
3.0
 40
3.0
 40
4.0
 40
4.0
 40
4.0
 40
5.0
 40
5.0
 40
5.0
 40
6.0
 40
6.0
 40
6.0
 40
7.0
 40
7.0
 40
7.0
 40
7.0
 10
94.35048554498877
 20
-155.7923854862255
 10
94.35048554498877
 20
-155.7923854862255
 10
94.35048554498877
 20
-154.6882323832029
 10
94.35048554498877
 20
-154.6882323832029
 10
94.35048554498877
 20
-154.6882323832029
 10
94.02044539750184
 20
-154.6882323832029
 10
94.02044539750184
 20
-154.6882323832029
 10
94.02044539750184
 20
-154.6882323832029
 10
94.02044539750184
 20
-154.5400932773372
 10
94.02044539750184
 20
-154.5400932773372
 10
94.35255260227993
 20
-154.5252793667506
 10
94.39906139133078
 20
-154.3623263502983
 10
94.42868921250394
 20
-154.247949180188
 10
94.42868921250394
 20
-154.247949180188
 10
94.57476126107854
 20
-154.247949180188
 10
94.57476126107854
 20
-154.247949180188
 10
94.57476126107854
 20
-154.247949180188
 10
94.57476126107854
 20
-155.7923854862255
 10
94.57476126107854
 20
-155.7923854862255
 10
94.57476126107854
 20
-155.7923854862255
 10
94.35048554498877
 20
-155.7923854862255
 10
94.35048554498877
 20
-155.7923854862255
 97
        0
 97
        1
330
E9
 75
     2
 76
     1
 98
        1
 10
0.0
 20
0.0
450
        0
451
        0
460
0.0
461
0.0
452
        0
462
0.0
453
        0
470

  0
SPLINE
  5
EB
330
E5
100
AcDbEntity
  8
レイヤー 1
100
AcDbSpline
210
0.0
220
0.0
230
1.0
 70
     9
 71
     3
 72
    17
 73
    13
 74
     0
 42
0.0000000001
 43
0.0000000001
 40
0.0
 40
0.0
 40
0.0
 40
0.0
 40
1.0
 40
1.0
 40
1.0
 40
2.0
 40
2.0
 40
2.0
 40
3.0
 40
3.0
 40
3.0
 40
4.0
 40
4.0
 40
4.0
 40
4.0
 10
95.57590600909213
 20
-154.3919541714714
 30
0.0
 10
95.3263088411858
 20
-154.3919541714714
 30
0.0
 10
95.27980005213491
 20
-154.6754855299075
 30
0.0
 10
95.27980005213491
 20
-155.020339587981
 30
0.0
 10
95.27980005213491
 20
-155.3396999394637
 30
0.0
 10
95.31580129995578
 20
-155.648380494942
 30
0.0
 10
95.57590600909213
 20
-155.648380494942
 30
0.0
 10
95.82343611970733
 20
-155.648380494942
 30
0.0
 10
95.87218422082363
 20
-155.3672607033457
 30
0.0
 10
95.87218422082363
 20
-155.020339587981
 30
0.0
 10
95.87218422082363
 20
-154.7006347269498
 30
0.0
 10
95.83411591571161
 20
-154.3919541714714
 30
0.0
 10
95.57590600909213
 20
-154.3919541714714
 30
0.0
  0
SPLINE
  5
EC
330
E5
100
AcDbEntity
  8
レイヤー 1
100
AcDbSpline
210
0.0
220
0.0
230
1.0
 70
     9
 71
     3
 72
    29
 73
    25
 74
     0
 42
0.0000000001
 43
0.0000000001
 40
0.0
 40
0.0
 40
0.0
 40
0.0
 40
1.0
 40
1.0
 40
1.0
 40
2.0
 40
2.0
 40
2.0
 40
3.0
 40
3.0
 40
3.0
 40
4.0
 40
4.0
 40
4.0
 40
5.0
 40
5.0
 40
5.0
 40
6.0
 40
6.0
 40
6.0
 40
7.0
 40
7.0
 40
7.0
 40
8.0
 40
8.0
 40
8.0
 40
8.0
 10
95.97364228286423
 20
-155.6146185591866
 30
0.0
 10
95.86581079417591
 20
-155.8240803646898
 30
0.0
 10
95.69235023649358
 20
-155.8430283898587
 30
0.0
 10
95.57590600909213
 20
-155.8430283898587
 30
0.0
 10
95.41519230470523
 20
-155.8430283898587
 30
0.0
 10
95.2734266254872
 20
-155.7965196008078
 30
0.0
 10
95.17816973532005
 20
-155.6146185591866
 30
0.0
 10
95.07464461598829
 20
-155.41997066427
 30
0.0
 10
95.05552433604515
 20
-155.1832926044333
 30
0.0
 10
95.05552433604515
 20
-155.020339587981
 30
0.0
 10
95.05552433604515
 20
-154.8763345966976
 30
0.0
 10
95.07240530392287
 20
-154.6244981167258
 30
0.0
 10
95.17816973532005
 20
-154.4257161072269
 30
0.0
 10
95.28617347878263
 20
-154.2227999831457
 30
0.0
 10
95.44688718316953
 20
-154.199373333846
 30
0.0
 10
95.57590600909213
 20
-154.199373333846
 30
0.0
 10
95.73455265618788
 20
-154.199373333846
 30
0.0
 10
95.87838539269707
 20
-154.2438150656057
 30
0.0
 10
95.97364228286423
 20
-154.4257161072269
 30
0.0
 10
96.0730332876137
 20
-154.6182969448524
 30
0.0
 10
96.09628768213912
 20
-154.8467067755244
 30
0.0
 10
96.09628768213912
 20
-155.020339587981
 30
0.0
 10
96.09628768213912
 20
-155.1915608335979
 30
0.0
 10
96.07527259967911
 20
-155.4220377215612
 30
0.0
 10
95.97364228286423
 20
-155.6146185591866
 30
0.0
  0
HATCH
  5
ED
330
E5
100
AcDbEntity
  8
レイヤー 1
 62
    18
420
        0
440
 33554687
100
AcDbHatch
 10
0.0
 20
0.0
 30
0.0
210
0.0
220
0.0
230
1.0
  2
SOLID
 70
     1
 71
     1
 91
        2
 92
        1
 93
        1
 72
     4
 94
        3
 73
     0
 74
     0
 95
       17
 96
       13
 40
0.0
 40
0.0
 40
0.0
 40
0.0
 40
1.0
 40
1.0
 40
1.0
 40
2.0
 40
2.0
 40
2.0
 40
3.0
 40
3.0
 40
3.0
 40
4.0
 40
4.0
 40
4.0
 40
4.0
 10
95.57590600909213
 20
-154.3919541714714
 10
95.3263088411858
 20
-154.3919541714714
 10
95.27980005213491
 20
-154.6754855299075
 10
95.27980005213491
 20
-155.020339587981
 10
95.27980005213491
 20
-155.3396999394637
 10
95.31580129995578
 20
-155.648380494942
 10
95.57590600909213
 20
-155.648380494942
 10
95.82343611970733
 20
-155.648380494942
 10
95.87218422082363
 20
-155.3672607033457
 10
95.87218422082363
 20
-155.020339587981
 10
95.87218422082363
 20
-154.7006347269498
 10
95.83411591571161
 20
-154.3919541714714
 10
95.57590600909213
 20
-154.3919541714714
 97
        0
 97
        1
330
EB
 92
        1
 93
        1
 72
     4
 94
        3
 73
     0
 74
     0
 95
       29
 96
       25
 40
0.0
 40
0.0
 40
0.0
 40
0.0
 40
1.0
 40
1.0
 40
1.0
 40
2.0
 40
2.0
 40
2.0
 40
3.0
 40
3.0
 40
3.0
 40
4.0
 40
4.0
 40
4.0
 40
5.0
 40
5.0
 40
5.0
 40
6.0
 40
6.0
 40
6.0
 40
7.0
 40
7.0
 40
7.0
 40
8.0
 40
8.0
 40
8.0
 40
8.0
 10
95.97364228286423
 20
-155.6146185591866
 10
95.86581079417591
 20
-155.8240803646898
 10
95.69235023649358
 20
-155.8430283898587
 10
95.57590600909213
 20
-155.8430283898587
 10
95.41519230470523
 20
-155.8430283898587
 10
95.2734266254872
 20
-155.7965196008078
 10
95.17816973532005
 20
-155.6146185591866
 10
95.07464461598829
 20
-155.41997066427
 10
95.05552433604515
 20
-155.1832926044333
 10
95.05552433604515
 20
-155.020339587981
 10
95.05552433604515
 20
-154.8763345966976
 10
95.07240530392287
 20
-154.6244981167258
 10
95.17816973532005
 20
-154.4257161072269
 10
95.28617347878263
 20
-154.2227999831457
 10
95.44688718316953
 20
-154.199373333846
 10
95.57590600909213
 20
-154.199373333846
 10
95.73455265618788
 20
-154.199373333846
 10
95.87838539269707
 20
-154.2438150656057
 10
95.97364228286423
 20
-154.4257161072269
 10
96.0730332876137
 20
-154.6182969448524
 10
96.09628768213912
 20
-154.8467067755244
 10
96.09628768213912
 20
-155.020339587981
 10
96.09628768213912
 20
-155.1915608335979
 10
96.07527259967911
 20
-155.4220377215612
 10
95.97364228286423
 20
-155.6146185591866
 97
        0
 97
        1
330
EC
 75
     2
 76
     1
 98
        1
 10
0.0
 20
0.0
450
        0
451
        0
460
0.0
461
0.0
452
        0
462
0.0
453
        0
470

  0
ENDBLK
  5
E8
330
E5
100
AcDbEntity
  8
0
100
AcDbBlockEnd
  0
BLOCK
  5
F4
330
F2
100
AcDbEntity
  8
0
100
AcDbBlockBegin
  2
Block_12
 70
     0
 10
0.0
 20
0.0
 30
0.0
  3
Block_12
  1

  0
INSERT
  5
F7
330
F2
100
AcDbEntity
  8
レイヤー 1
100
AcDbBlockReference
  2
Block_13
 10
0.0
 20
0.0
 30
0.0
  0
ENDBLK
  5
F5
330
F2
100
AcDbEntity
  8
0
100
AcDbBlockEnd
  0
BLOCK
  5
F8
330
F6
100
AcDbEntity
  8
0
100
AcDbBlockBegin
  2
Block_13
 70
     0
 10
0.0
 20
0.0
 30
0.0
  3
Block_13
  1

  0
SPLINE
  5
FA
330
F6
100
AcDbEntity
  8
レイヤー 1
100
AcDbSpline
210
0.0
220
0.0
230
1.0
 70
     9
 71
     3
 72
    17
 73
    13
 74
     0
 42
0.0000000001
 43
0.0000000001
 40
0.0
 40
0.0
 40
0.0
 40
0.0
 40
1.0
 40
1.0
 40
1.0
 40
2.0
 40
2.0
 40
2.0
 40
3.0
 40
3.0
 40
3.0
 40
4.0
 40
4.0
 40
4.0
 40
4.0
 10
122.8210991446419
 20
-152.5436604436349
 30
0.0
 10
122.8210991446419
 20
-152.7934298663155
 30
0.0
 10
123.104630503078
 20
-152.8399386553664
 30
0.0
 10
123.4494845611515
 20
-152.8399386553664
 30
0.0
 10
123.7688449126342
 20
-152.8399386553664
 30
0.0
 10
124.0775254681125
 20
-152.8037651527713
 30
0.0
 10
124.0775254681125
 20
-152.5436604436349
 30
0.0
 10
124.0775254681125
 20
-152.2959580782455
 30
0.0
 10
123.7964056765162
 20
-152.2473822319034
 30
0.0
 10
123.4494845611515
 20
-152.2473822319034
 30
0.0
 10
123.1297797001203
 20
-152.2473822319034
 30
0.0
 10
122.8210991446419
 20
-152.2856227917897
 30
0.0
 10
122.8210991446419
 20
-152.5436604436349
 30
0.0
  0
SPLINE
  5
FB
330
F6
100
AcDbEntity
  8
レイヤー 1
100
AcDbSpline
210
0.0
220
0.0
230
1.0
 70
     9
 71
     3
 72
    29
 73
    25
 74
     0
 42
0.0000000001
 43
0.0000000001
 40
0.0
 40
0.0
 40
0.0
 40
0.0
 40
1.0
 40
1.0
 40
1.0
 40
2.0
 40
2.0
 40
2.0
 40
3.0
 40
3.0
 40
3.0
 40
4.0
 40
4.0
 40
4.0
 40
5.0
 40
5.0
 40
5.0
 40
6.0
 40
6.0
 40
6.0
 40
7.0
 40
7.0
 40
7.0
 40
8.0
 40
8.0
 40
8.0
 40
8.0
 10
124.0437635323571
 20
-152.1457519150885
 30
0.0
 10
124.2532253378603
 20
-152.2539279133254
 30
0.0
 10
124.2721733630292
 20
-152.4272162162335
 30
0.0
 10
124.2721733630292
 20
-152.5436604436349
 30
0.0
 10
124.2721733630292
 20
-152.7045464027961
 30
0.0
 10
124.2256645739783
 20
-152.8461398272398
 30
0.0
 10
124.0437635323571
 20
-152.9412244626327
 30
0.0
 10
123.8491156374405
 20
-153.0449218367388
 30
0.0
 10
123.6124375776038
 20
-153.0642143714562
 30
0.0
 10
123.4494845611515
 20
-153.0642143714562
 30
0.0
 10
123.3054795698681
 20
-153.0642143714562
 30
0.0
 10
123.0536430898963
 20
-153.0469888940299
 30
0.0
 10
122.8548610803974
 20
-152.9412244626327
 30
0.0
 10
122.6519449563162
 20
-152.8333929739444
 30
0.0
 10
122.6285183070165
 20
-152.6725070147833
 30
0.0
 10
122.6285183070165
 20
-152.5436604436349
 30
0.0
 10
122.6285183070165
 20
-152.3848415417649
 30
0.0
 10
122.6729600387762
 20
-152.24118106003
 30
0.0
 10
122.8548610803974
 20
-152.1457519150885
 30
0.0
 10
123.0474419180229
 20
-152.0465331651134
 30
0.0
 10
123.2758517486949
 20
-152.0231065158136
 30
0.0
 10
123.4494845611515
 20
-152.0231065158136
 30
0.0
 10
123.6207058067684
 20
-152.0231065158136
 30
0.0
 10
123.8511826947316
 20
-152.0444661078222
 30
0.0
 10
124.0437635323571
 20
-152.1457519150885
 30
0.0
  0
HATCH
  5
FC
330
F6
100
AcDbEntity
  8
レイヤー 1
 62
    18
420
        0
440
 33554687
100
AcDbHatch
 10
0.0
 20
0.0
 30
0.0
210
0.0
220
0.0
230
1.0
  2
SOLID
 70
     1
 71
     1
 91
        2
 92
        1
 93
        1
 72
     4
 94
        3
 73
     0
 74
     0
 95
       17
 96
       13
 40
0.0
 40
0.0
 40
0.0
 40
0.0
 40
1.0
 40
1.0
 40
1.0
 40
2.0
 40
2.0
 40
2.0
 40
3.0
 40
3.0
 40
3.0
 40
4.0
 40
4.0
 40
4.0
 40
4.0
 10
122.8210991446419
 20
-152.5436604436349
 10
122.8210991446419
 20
-152.7934298663155
 10
123.104630503078
 20
-152.8399386553664
 10
123.4494845611515
 20
-152.8399386553664
 10
123.7688449126342
 20
-152.8399386553664
 10
124.0775254681125
 20
-152.8037651527713
 10
124.0775254681125
 20
-152.5436604436349
 10
124.0775254681125
 20
-152.2959580782455
 10
123.7964056765162
 20
-152.2473822319034
 10
123.4494845611515
 20
-152.2473822319034
 10
123.1297797001203
 20
-152.2473822319034
 10
122.8210991446419
 20
-152.2856227917897
 10
122.8210991446419
 20
-152.5436604436349
 97
        0
 97
        1
330
FA
 92
        1
 93
        1
 72
     4
 94
        3
 73
     0
 74
     0
 95
       29
 96
       25
 40
0.0
 40
0.0
 40
0.0
 40
0.0
 40
1.0
 40
1.0
 40
1.0
 40
2.0
 40
2.0
 40
2.0
 40
3.0
 40
3.0
 40
3.0
 40
4.0
 40
4.0
 40
4.0
 40
5.0
 40
5.0
 40
5.0
 40
6.0
 40
6.0
 40
6.0
 40
7.0
 40
7.0
 40
7.0
 40
8.0
 40
8.0
 40
8.0
 40
8.0
 10
124.0437635323571
 20
-152.1457519150885
 10
124.2532253378603
 20
-152.2539279133254
 10
124.2721733630292
 20
-152.4272162162335
 10
124.2721733630292
 20
-152.5436604436349
 10
124.2721733630292
 20
-152.7045464027961
 10
124.2256645739783
 20
-152.8461398272398
 10
124.0437635323571
 20
-152.9412244626327
 10
123.8491156374405
 20
-153.0449218367388
 10
123.6124375776038
 20
-153.0642143714562
 10
123.4494845611515
 20
-153.0642143714562
 10
123.3054795698681
 20
-153.0642143714562
 10
123.0536430898963
 20
-153.0469888940299
 10
122.8548610803974
 20
-152.9412244626327
 10
122.6519449563162
 20
-152.8333929739444
 10
122.6285183070165
 20
-152.6725070147833
 10
122.6285183070165
 20
-152.5436604436349
 10
122.6285183070165
 20
-152.3848415417649
 10
122.6729600387762
 20
-152.24118106003
 10
122.8548610803974
 20
-152.1457519150885
 10
123.0474419180229
 20
-152.0465331651134
 10
123.2758517486949
 20
-152.0231065158136
 10
123.4494845611515
 20
-152.0231065158136
 10
123.6207058067684
 20
-152.0231065158136
 10
123.8511826947316
 20
-152.0444661078222
 10
124.0437635323571
 20
-152.1457519150885
 97
        0
 97
        1
330
FB
 75
     2
 76
     1
 98
        1
 10
0.0
 20
0.0
450
        0
451
        0
460
0.0
461
0.0
452
        0
462
0.0
453
        0
470

  0
SPLINE
  5
FD
330
F6
100
AcDbEntity
  8
レイヤー 1
100
AcDbSpline
210
0.0
220
0.0
230
1.0
 70
    11
 71
     3
 72
    17
 73
    13
 74
     0
 42
0.0000000001
 43
0.0000000001
 40
0.0
 40
0.0
 40
0.0
 40
0.0
 40
1.0
 40
1.0
 40
1.0
 40
2.0
 40
2.0
 40
2.0
 40
3.0
 40
3.0
 40
3.0
 40
4.0
 40
4.0
 40
4.0
 40
4.0
 10
124.221530459396
 20
-151.80675451934
 30
0.0
 10
124.221530459396
 20
-151.80675451934
 30
0.0
 10
123.9696939794242
 20
-151.80675451934
 30
0.0
 10
123.9696939794242
 20
-151.80675451934
 30
0.0
 10
123.9696939794242
 20
-151.80675451934
 30
0.0
 10
123.9696939794242
 20
-151.5549180393682
 30
0.0
 10
123.9696939794242
 20
-151.5549180393682
 30
0.0
 10
123.9696939794242
 20
-151.5549180393682
 30
0.0
 10
124.221530459396
 20
-151.5549180393682
 30
0.0
 10
124.221530459396
 20
-151.5549180393682
 30
0.0
 10
124.221530459396
 20
-151.5549180393682
 30
0.0
 10
124.221530459396
 20
-151.80675451934
 30
0.0
 10
124.221530459396
 20
-151.80675451934
 30
0.0
  0
HATCH
  5
FE
330
F6
100
AcDbEntity
  8
レイヤー 1
 62
    18
420
        0
440
 33554687
100
AcDbHatch
 10
0.0
 20
0.0
 30
0.0
210
0.0
220
0.0
230
1.0
  2
SOLID
 70
     1
 71
     1
 91
        1
 92
        1
 93
        1
 72
     4
 94
        3
 73
     0
 74
     0
 95
       17
 96
       13
 40
0.0
 40
0.0
 40
0.0
 40
0.0
 40
1.0
 40
1.0
 40
1.0
 40
2.0
 40
2.0
 40
2.0
 40
3.0
 40
3.0
 40
3.0
 40
4.0
 40
4.0
 40
4.0
 40
4.0
 10
124.221530459396
 20
-151.80675451934
 10
124.221530459396
 20
-151.80675451934
 10
123.9696939794242
 20
-151.80675451934
 10
123.9696939794242
 20
-151.80675451934
 10
123.9696939794242
 20
-151.80675451934
 10
123.9696939794242
 20
-151.5549180393682
 10
123.9696939794242
 20
-151.5549180393682
 10
123.9696939794242
 20
-151.5549180393682
 10
124.221530459396
 20
-151.5549180393682
 10
124.221530459396
 20
-151.5549180393682
 10
124.221530459396
 20
-151.5549180393682
 10
124.221530459396
 20
-151.80675451934
 10
124.221530459396
 20
-151.80675451934
 97
        0
 97
        1
330
FD
 75
     2
 76
     1
 98
        1
 10
0.0
 20
0.0
450
        0
451
        0
460
0.0
461
0.0
452
        0
462
0.0
453
        0
470

  0
SPLINE
  5
FF
330
F6
100
AcDbEntity
  8
レイヤー 1
100
AcDbSpline
210
0.0
220
0.0
230
1.0
 70
    11
 71
     3
 72
    14
 73
    10
 74
     0
 42
0.0000000001
 43
0.0000000001
 40
0.0
 40
0.0
 40
0.0
 40
0.0
 40
1.0
 40
1.0
 40
1.0
 40
2.0
 40
2.0
 40
2.0
 40
3.0
 40
3.0
 40
3.0
 40
3.0
 10
123.0198811541408
 20
-150.70432396406
 30
0.0
 10
123.0198811541408
 20
-150.70432396406
 30
0.0
 10
123.6758273345324
 20
-151.1614881349527
 30
0.0
 10
123.6758273345324
 20
-151.1614881349527
 30
0.0
 10
123.6758273345324
 20
-151.1614881349527
 30
0.0
 10
123.6758273345324
 20
-150.70432396406
 30
0.0
 10
123.6758273345324
 20
-150.70432396406
 30
0.0
 10
123.6758273345324
 20
-150.70432396406
 30
0.0
 10
123.0198811541408
 20
-150.70432396406
 30
0.0
 10
123.0198811541408
 20
-150.70432396406
 30
0.0
  0
SPLINE
  5
100
330
F6
100
AcDbEntity
  8
レイヤー 1
100
AcDbSpline
210
0.0
220
0.0
230
1.0
 70
    11
 71
     3
 72
    38
 73
    34
 74
     0
 42
0.0000000001
 43
0.0000000001
 40
0.0
 40
0.0
 40
0.0
 40
0.0
 40
1.0
 40
1.0
 40
1.0
 40
2.0
 40
2.0
 40
2.0
 40
3.0
 40
3.0
 40
3.0
 40
4.0
 40
4.0
 40
4.0
 40
5.0
 40
5.0
 40
5.0
 40
6.0
 40
6.0
 40
6.0
 40
7.0
 40
7.0
 40
7.0
 40
8.0
 40
8.0
 40
8.0
 40
9.0
 40
9.0
 40
9.0
 40
10.0
 40
10.0
 40
10.0
 40
11.0
 40
11.0
 40
11.0
 40
11.0
 10
123.8746093440313
 20
-150.4865939293922
 30
0.0
 10
123.8746093440313
 20
-150.4865939293922
 30
0.0
 10
124.221530459396
 20
-150.4865939293922
 30
0.0
 10
124.221530459396
 20
-150.4865939293922
 30
0.0
 10
124.221530459396
 20
-150.4865939293922
 30
0.0
 10
124.221530459396
 20
-150.70432396406
 30
0.0
 10
124.221530459396
 20
-150.70432396406
 30
0.0
 10
124.221530459396
 20
-150.70432396406
 30
0.0
 10
123.8746093440313
 20
-150.70432396406
 30
0.0
 10
123.8746093440313
 20
-150.70432396406
 30
0.0
 10
123.8746093440313
 20
-150.70432396406
 30
0.0
 10
123.8746093440313
 20
-151.3602701444516
 30
0.0
 10
123.8746093440313
 20
-151.3602701444516
 30
0.0
 10
123.8746093440313
 20
-151.3602701444516
 30
0.0
 10
123.6503336279416
 20
-151.3602701444516
 30
0.0
 10
123.6503336279416
 20
-151.3602701444516
 30
0.0
 10
123.6503336279416
 20
-151.3602701444516
 30
0.0
 10
122.6770941533585
 20
-150.6812418243088
 30
0.0
 10
122.6770941533585
 20
-150.6812418243088
 30
0.0
 10
122.6770941533585
 20
-150.6812418243088
 30
0.0
 10
122.6770941533585
 20
-150.4865939293922
 30
0.0
 10
122.6770941533585
 20
-150.4865939293922
 30
0.0
 10
122.6770941533585
 20
-150.4865939293922
 30
0.0
 10
123.6758273345324
 20
-150.4865939293922
 30
0.0
 10
123.6758273345324
 20
-150.4865939293922
 30
0.0
 10
123.6758273345324
 20
-150.4865939293922
 30
0.0
 10
123.6758273345324
 20
-150.2791991811802
 30
0.0
 10
123.6758273345324
 20
-150.2791991811802
 30
0.0
 10
123.6758273345324
 20
-150.2791991811802
 30
0.0
 10
123.8746093440313
 20
-150.2791991811802
 30
0.0
 10
123.8746093440313
 20
-150.2791991811802
 30
0.0
 10
123.8746093440313
 20
-150.2791991811802
 30
0.0
 10
123.8746093440313
 20
-150.4865939293922
 30
0.0
 10
123.8746093440313
 20
-150.4865939293922
 30
0.0
  0
HATCH
  5
101
330
F6
100
AcDbEntity
  8
レイヤー 1
 62
    18
420
        0
440
 33554687
100
AcDbHatch
 10
0.0
 20
0.0
 30
0.0
210
0.0
220
0.0
230
1.0
  2
SOLID
 70
     1
 71
     1
 91
        2
 92
        1
 93
        1
 72
     4
 94
        3
 73
     0
 74
     0
 95
       14
 96
       10
 40
0.0
 40
0.0
 40
0.0
 40
0.0
 40
1.0
 40
1.0
 40
1.0
 40
2.0
 40
2.0
 40
2.0
 40
3.0
 40
3.0
 40
3.0
 40
3.0
 10
123.0198811541408
 20
-150.70432396406
 10
123.0198811541408
 20
-150.70432396406
 10
123.6758273345324
 20
-151.1614881349527
 10
123.6758273345324
 20
-151.1614881349527
 10
123.6758273345324
 20
-151.1614881349527
 10
123.6758273345324
 20
-150.70432396406
 10
123.6758273345324
 20
-150.70432396406
 10
123.6758273345324
 20
-150.70432396406
 10
123.0198811541408
 20
-150.70432396406
 10
123.0198811541408
 20
-150.70432396406
 97
        0
 97
        1
330
FF
 92
        1
 93
        1
 72
     4
 94
        3
 73
     0
 74
     0
 95
       38
 96
       34
 40
0.0
 40
0.0
 40
0.0
 40
0.0
 40
1.0
 40
1.0
 40
1.0
 40
2.0
 40
2.0
 40
2.0
 40
3.0
 40
3.0
 40
3.0
 40
4.0
 40
4.0
 40
4.0
 40
5.0
 40
5.0
 40
5.0
 40
6.0
 40
6.0
 40
6.0
 40
7.0
 40
7.0
 40
7.0
 40
8.0
 40
8.0
 40
8.0
 40
9.0
 40
9.0
 40
9.0
 40
10.0
 40
10.0
 40
10.0
 40
11.0
 40
11.0
 40
11.0
 40
11.0
 10
123.8746093440313
 20
-150.4865939293922
 10
123.8746093440313
 20
-150.4865939293922
 10
124.221530459396
 20
-150.4865939293922
 10
124.221530459396
 20
-150.4865939293922
 10
124.221530459396
 20
-150.4865939293922
 10
124.221530459396
 20
-150.70432396406
 10
124.221530459396
 20
-150.70432396406
 10
124.221530459396
 20
-150.70432396406
 10
123.8746093440313
 20
-150.70432396406
 10
123.8746093440313
 20
-150.70432396406
 10
123.8746093440313
 20
-150.70432396406
 10
123.8746093440313
 20
-151.3602701444516
 10
123.8746093440313
 20
-151.3602701444516
 10
123.8746093440313
 20
-151.3602701444516
 10
123.6503336279416
 20
-151.3602701444516
 10
123.6503336279416
 20
-151.3602701444516
 10
123.6503336279416
 20
-151.3602701444516
 10
122.6770941533585
 20
-150.6812418243088
 10
122.6770941533585
 20
-150.6812418243088
 10
122.6770941533585
 20
-150.6812418243088
 10
122.6770941533585
 20
-150.4865939293922
 10
122.6770941533585
 20
-150.4865939293922
 10
122.6770941533585
 20
-150.4865939293922
 10
123.6758273345324
 20
-150.4865939293922
 10
123.6758273345324
 20
-150.4865939293922
 10
123.6758273345324
 20
-150.4865939293922
 10
123.6758273345324
 20
-150.2791991811802
 10
123.6758273345324
 20
-150.2791991811802
 10
123.6758273345324
 20
-150.2791991811802
 10
123.8746093440313
 20
-150.2791991811802
 10
123.8746093440313
 20
-150.2791991811802
 10
123.8746093440313
 20
-150.2791991811802
 10
123.8746093440313
 20
-150.4865939293922
 10
123.8746093440313
 20
-150.4865939293922
 97
        0
 97
        1
330
100
 75
     2
 76
     1
 98
        1
 10
0.0
 20
0.0
450
        0
451
        0
460
0.0
461
0.0
452
        0
462
0.0
453
        0
470

  0
ENDBLK
  5
F9
330
F6
100
AcDbEntity
  8
0
100
AcDbBlockEnd
  0
ENDSEC
  0
SECTION
  2
ENTITIES
  0
INSERT
  5
7A
330
70
100
AcDbEntity
  8
レイヤー 1
100
AcDbBlockReference
  2
Block_0
 10
0.0
 20
0.0
 30
0.0
  0
INSERT
  5
A2
330
70
100
AcDbEntity
  8
レイヤー 1
100
AcDbBlockReference
  2
Block_4
 10
0.0
 20
0.0
 30
0.0
  0
SPLINE
  5
AD
330
70
100
AcDbEntity
  8
レイヤー 1
 62
    18
420
        0
370
     9
100
AcDbSpline
210
0.0
220
0.0
230
1.0
 70
     9
 71
     3
 72
    17
 73
    13
 74
     0
 42
0.0000000001
 43
0.0000000001
 40
0.0
 40
0.0
 40
0.0
 40
0.0
 40
1.0
 40
1.0
 40
1.0
 40
2.0
 40
2.0
 40
2.0
 40
3.0
 40
3.0
 40
3.0
 40
4.0
 40
4.0
 40
4.0
 40
4.0
 10
121.1459050398931
 20
-145.3382610180768
 30
0.0
 10
121.1459050398931
 20
-145.2831218528169
 30
0.0
 10
121.1011375410353
 20
-145.238354353959
 30
0.0
 10
121.0456455980065
 20
-145.238354353959
 30
0.0
 10
120.9905417105235
 20
-145.238354353959
 30
0.0
 10
120.9457389338887
 20
-145.2831218528169
 30
0.0
 10
120.9457389338887
 20
-145.3382610180768
 30
0.0
 10
120.9457389338887
 20
-145.3937176833287
 30
0.0
 10
120.9905417105235
 20
-145.4385204599635
 30
0.0
 10
121.0456455980065
 20
-145.4385204599635
 30
0.0
 10
121.1011375410353
 20
-145.4385204599635
 30
0.0
 10
121.1459050398931
 20
-145.3937176833287
 30
0.0
 10
121.1459050398931
 20
-145.3382610180768
 30
0.0
  0
SPLINE
  5
AE
330
70
100
AcDbEntity
  8
レイヤー 1
 62
    18
420
        0
370
     9
100
AcDbSpline
210
0.0
220
0.0
230
1.0
 70
     9
 71
     3
 72
    17
 73
    13
 74
     0
 42
0.0000000001
 43
0.0000000001
 40
0.0
 40
0.0
 40
0.0
 40
0.0
 40
1.0
 40
1.0
 40
1.0
 40
2.0
 40
2.0
 40
2.0
 40
3.0
 40
3.0
 40
3.0
 40
4.0
 40
4.0
 40
4.0
 40
4.0
 10
121.1459050398931
 20
-151.3385875316627
 30
0.0
 10
121.1459050398931
 20
-151.283095588634
 30
0.0
 10
121.1011375410353
 20
-151.2383280897761
 30
0.0
 10
121.0456455980065
 20
-151.2383280897761
 30
0.0
 10
120.9905417105235
 20
-151.2383280897761
 30
0.0
 10
120.9457389338887
 20
-151.283095588634
 30
0.0
 10
120.9457389338887
 20
-151.3385875316627
 30
0.0
 10
120.9457389338887
 20
-151.3936914191458
 30
0.0
 10
120.9905417105235
 20
-151.4384941957806
 30
0.0
 10
121.0456455980065
 20
-151.4384941957806
 30
0.0
 10
121.1011375410353
 20
-151.4384941957806
 30
0.0
 10
121.1459050398931
 20
-151.3936914191458
 30
0.0
 10
121.1459050398931
 20
-151.3385875316627
 30
0.0
  0
SPLINE
  5
AF
330
70
100
AcDbEntity
  8
レイヤー 1
 62
    18
420
        0
370
     9
100
AcDbSpline
210
0.0
220
0.0
230
1.0
 70
     9
 71
     3
 72
    17
 73
    13
 74
     0
 42
0.0000000001
 43
0.0000000001
 40
0.0
 40
0.0
 40
0.0
 40
0.0
 40
1.0
 40
1.0
 40
1.0
 40
2.0
 40
2.0
 40
2.0
 40
3.0
 40
3.0
 40
3.0
 40
4.0
 40
4.0
 40
4.0
 40
4.0
 10
121.1459050398931
 20
-151.7385669659029
 30
0.0
 10
121.1459050398931
 20
-151.6830689356516
 30
0.0
 10
121.1011375410353
 20
-151.6383075240162
 30
0.0
 10
121.0456455980065
 20
-151.6383075240162
 30
0.0
 10
120.9905417105235
 20
-151.6383075240162
 30
0.0
 10
120.9457389338887
 20
-151.6830689356516
 30
0.0
 10
120.9457389338887
 20
-151.7385669659029
 30
0.0
 10
120.9457389338887
 20
-151.7936708533859
 30
0.0
 10
120.9905417105235
 20
-151.8384736300207
 30
0.0
 10
121.0456455980065
 20
-151.8384736300207
 30
0.0
 10
121.1011375410353
 20
-151.8384736300207
 30
0.0
 10
121.1459050398931
 20
-151.7936708533859
 30
0.0
 10
121.1459050398931
 20
-151.7385669659029
 30
0.0
  0
SPLINE
  5
B0
330
70
100
AcDbEntity
  8
レイヤー 1
 62
    18
420
        0
370
     9
100
AcDbSpline
210
0.0
220
0.0
230
1.0
 70
     9
 71
     3
 72
    17
 73
    13
 74
     0
 42
0.0000000001
 43
0.0000000001
 40
0.0
 40
0.0
 40
0.0
 40
0.0
 40
1.0
 40
1.0
 40
1.0
 40
2.0
 40
2.0
 40
2.0
 40
3.0
 40
3.0
 40
3.0
 40
4.0
 40
4.0
 40
4.0
 40
4.0
 10
117.087519272793
 20
-156.4383429571127
 30
0.0
 10
117.087519272793
 20
-156.3832390696297
 30
0.0
 10
117.0427517739351
 20
-156.3384362929949
 30
0.0
 10
116.9876126086752
 20
-156.3384362929949
 30
0.0
 10
116.9321571090222
 20
-156.3384362929949
 30
0.0
 10
116.8873884445654
 20
-156.3832390696297
 30
0.0
 10
116.8873884445654
 20
-156.4383429571127
 30
0.0
 10
116.8873884445654
 20
-156.4934821223727
 30
0.0
 10
116.9321571090222
 20
-156.5382496212305
 30
0.0
 10
116.9876126086752
 20
-156.5382496212305
 30
0.0
 10
117.0427517739351
 20
-156.5382496212305
 30
0.0
 10
117.087519272793
 20
-156.4934821223727
 30
0.0
 10
117.087519272793
 20
-156.4383429571127
 30
0.0
  0
SPLINE
  5
B1
330
70
100
AcDbEntity
  8
レイヤー 1
 62
    18
420
        0
370
     9
100
AcDbSpline
210
0.0
220
0.0
230
1.0
 70
     9
 71
     3
 72
    17
 73
    13
 74
     0
 42
0.0000000001
 43
0.0000000001
 40
0.0
 40
0.0
 40
0.0
 40
0.0
 40
1.0
 40
1.0
 40
1.0
 40
2.0
 40
2.0
 40
2.0
 40
3.0
 40
3.0
 40
3.0
 40
4.0
 40
4.0
 40
4.0
 40
4.0
 10
90.08785261565757
 20
-156.4383429571127
 30
0.0
 10
90.08785261565757
 20
-156.3832390696297
 30
0.0
 10
90.043085115669
 20
-156.3384362929949
 30
0.0
 10
89.98794594901529
 20
-156.3384362929949
 30
0.0
 10
89.93248928236324
 20
-156.3384362929949
 30
0.0
 10
89.88768650459652
 20
-156.3832390696297
 30
0.0
 10
89.88768650459652
 20
-156.4383429571127
 30
0.0
 10
89.88768650459652
 20
-156.4934821223727
 30
0.0
 10
89.93248928236324
 20
-156.5382496212305
 30
0.0
 10
89.98794594901529
 20
-156.5382496212305
 30
0.0
 10
90.043085115669
 20
-156.5382496212305
 30
0.0
 10
90.08785261565757
 20
-156.4934821223727
 30
0.0
 10
90.08785261565757
 20
-156.4383429571127
 30
0.0
  0
SPLINE
  5
B2
330
70
100
AcDbEntity
  8
レイヤー 1
 62
    18
420
        0
370
     9
100
AcDbSpline
210
0.0
220
0.0
230
1.0
 70
     9
 71
     3
 72
    17
 73
    13
 74
     0
 42
0.0000000001
 43
0.0000000001
 40
0.0
 40
0.0
 40
0.0
 40
0.0
 40
1.0
 40
1.0
 40
1.0
 40
2.0
 40
2.0
 40
2.0
 40
3.0
 40
3.0
 40
3.0
 40
4.0
 40
4.0
 40
4.0
 40
4.0
 10
87.85162956066084
 20
-145.3382610180768
 30
0.0
 10
87.85162956066084
 20
-145.2831218528169
 30
0.0
 10
87.80686206067228
 20
-145.238354353959
 30
0.0
 10
87.75140539401959
 20
-145.238354353959
 30
0.0
 10
87.69626622736652
 20
-145.238354353959
 30
0.0
 10
87.65149872737731
 20
-145.2831218528169
 30
0.0
 10
87.65149872737731
 20
-145.3382610180768
 30
0.0
 10
87.65149872737731
 20
-145.3937176833287
 30
0.0
 10
87.69626622736652
 20
-145.4385204599635
 30
0.0
 10
87.75140539401959
 20
-145.4385204599635
 30
0.0
 10
87.80686206067228
 20
-145.4385204599635
 30
0.0
 10
87.85162956066084
 20
-145.3937176833287
 30
0.0
 10
87.85162956066084
 20
-145.3382610180768
 30
0.0
  0
SPLINE
  5
B3
330
70
100
AcDbEntity
  8
レイヤー 1
 62
    18
420
        0
370
     9
100
AcDbSpline
210
0.0
220
0.0
230
1.0
 70
     9
 71
     3
 72
    17
 73
    13
 74
     0
 42
0.0000000001
 43
0.0000000001
 40
0.0
 40
0.0
 40
0.0
 40
0.0
 40
1.0
 40
1.0
 40
1.0
 40
2.0
 40
2.0
 40
2.0
 40
3.0
 40
3.0
 40
3.0
 40
4.0
 40
4.0
 40
4.0
 40
4.0
 10
87.85162956066084
 20
-146.4382573789028
 30
0.0
 10
87.85162956066084
 20
-146.3831534914191
 30
0.0
 10
87.80686206067228
 20
-146.3383507147846
 30
0.0
 10
87.75140539401959
 20
-146.3383507147846
 30
0.0
 10
87.69626622736652
 20
-146.3383507147846
 30
0.0
 10
87.65149872737731
 20
-146.3831534914191
 30
0.0
 10
87.65149872737731
 20
-146.4382573789028
 30
0.0
 10
87.65149872737731
 20
-146.4937493219312
 30
0.0
 10
87.69626622736652
 20
-146.5385106036045
 30
0.0
 10
87.75140539401959
 20
-146.5385106036045
 30
0.0
 10
87.80686206067228
 20
-146.5385106036045
 30
0.0
 10
87.85162956066084
 20
-146.4937493219312
 30
0.0
 10
87.85162956066084
 20
-146.4382573789028
 30
0.0
  0
SPLINE
  5
B4
330
70
100
AcDbEntity
  8
レイヤー 1
 62
    18
420
        0
370
     9
100
AcDbSpline
210
0.0
220
0.0
230
1.0
 70
     9
 71
     3
 72
    17
 73
    13
 74
     0
 42
0.0000000001
 43
0.0000000001
 40
0.0
 40
0.0
 40
0.0
 40
0.0
 40
1.0
 40
1.0
 40
1.0
 40
2.0
 40
2.0
 40
2.0
 40
3.0
 40
3.0
 40
3.0
 40
4.0
 40
4.0
 40
4.0
 40
4.0
 10
100.0877237798994
 20
-156.4383429571127
 30
0.0
 10
100.0877237798994
 20
-156.3832390696297
 30
0.0
 10
100.0429210021333
 20
-156.3384362929949
 30
0.0
 10
99.98746433548006
 20
-156.3384362929949
 30
0.0
 10
99.93232516882763
 20
-156.3384362929949
 30
0.0
 10
99.88755766883841
 20
-156.3832390696297
 30
0.0
 10
99.88755766883841
 20
-156.4383429571127
 30
0.0
 10
99.88755766883841
 20
-156.4934821223727
 30
0.0
 10
99.93232516882763
 20
-156.5382496212305
 30
0.0
 10
99.98746433548006
 20
-156.5382496212305
 30
0.0
 10
100.0429210021333
 20
-156.5382496212305
 30
0.0
 10
100.0877237798994
 20
-156.4934821223727
 30
0.0
 10
100.0877237798994
 20
-156.4383429571127
 30
0.0
  0
LINE
  5
B5
330
70
100
AcDbEntity
  8
レイヤー 1
 62
    18
420
        0
370
     9
100
AcDbLine
 10
99.98746433548006
 20
-156.4383429571127
 30
0.0
 11
116.9876126086752
 21
-156.4383429571127
 31
0.0
  0
LINE
  5
B6
330
70
100
AcDbEntity
  8
レイヤー 1
 62
    18
420
        0
370
     9
100
AcDbLine
 10
116.9876126086752
 20
-154.2782846788871
 30
0.0
 11
116.9876126086752
 21
-157.4384679315974
 31
0.0
  0
INSERT
  5
B8
330
70
100
AcDbEntity
  8
レイヤー 1
100
AcDbBlockReference
  2
Block_5
 10
0.0
 20
0.0
 30
0.0
  0
LINE
  5
C3
330
70
100
AcDbEntity
  8
レイヤー 1
 62
    18
420
        0
370
     9
100
AcDbLine
 10
121.0456455980065
 20
-151.3385875316627
 30
0.0
 11
121.0456455980065
 21
-145.3382610180768
 31
0.0
  0
LINE
  5
C4
330
70
100
AcDbEntity
  8
レイヤー 1
 62
    18
420
        0
370
     9
100
AcDbLine
 10
92.52609158590203
 20
-145.3382610180768
 30
0.0
 11
122.0457704403712
 21
-145.3382610180768
 31
0.0
  0
INSERT
  5
C6
330
70
100
AcDbEntity
  8
レイヤー 1
100
AcDbBlockReference
  2
Block_7
 10
0.0
 20
0.0
 30
0.0
  0
LINE
  5
CC
330
70
100
AcDbEntity
  8
レイヤー 1
 62
    18
420
        0
370
     9
100
AcDbLine
 10
87.75140539401959
 20
-145.3382610180768
 30
0.0
 11
87.75140539401959
 21
-144.3384888213609
 31
0.0
  0
LINE
  5
CD
330
70
100
AcDbEntity
  8
レイヤー 1
 62
    18
420
        0
370
     9
100
AcDbLine
 10
87.75140539401959
 20
-145.3382610180768
 30
0.0
 11
87.75140539401959
 21
-147.4383823533872
 31
0.0
  0
LINE
  5
CE
330
70
100
AcDbEntity
  8
レイヤー 1
 62
    18
420
        0
370
     9
100
AcDbLine
 10
89.21141150476513
 20
-145.3382610180768
 30
0.0
 11
86.75163317204704
 21
-145.3382610180768
 31
0.0
  0
LINE
  5
CF
330
70
100
AcDbEntity
  8
レイヤー 1
 62
    18
420
        0
370
     9
100
AcDbLine
 10
89.21141150476513
 20
-146.4382573789028
 30
0.0
 11
86.75163317204704
 21
-146.4382573789028
 31
0.0
  0
INSERT
  5
D1
330
70
100
AcDbEntity
  8
レイヤー 1
100
AcDbBlockReference
  2
Block_8
 10
0.0
 20
0.0
 30
0.0
  0
LINE
  5
DE
330
70
100
AcDbEntity
  8
レイヤー 1
 62
    18
420
        0
370
     9
100
AcDbLine
 10
89.98794594901529
 20
-156.4383429571127
 30
0.0
 11
99.98746427984924
 21
-156.4383429571127
 31
0.0
  0
LINE
  5
DF
330
70
100
AcDbEntity
  8
レイヤー 1
 62
    18
420
        0
370
     9
100
AcDbLine
 10
89.98794594901529
 20
-148.9783217141058
 30
0.0
 11
89.98794594901529
 21
-157.4384679315974
 31
0.0
  0
LINE
  5
E0
330
70
100
AcDbEntity
  8
レイヤー 1
 62
    18
420
        0
370
     9
100
AcDbLine
 10
99.98746433548006
 20
-154.9783368832488
 30
0.0
 11
99.98746433548006
 21
-157.4384679315974
 31
0.0
  0
INSERT
  5
E2
330
70
100
AcDbEntity
  8
レイヤー 1
100
AcDbBlockReference
  2
Block_10
 10
0.0
 20
0.0
 30
0.0
  0
LINE
  5
EE
330
70
100
AcDbEntity
  8
レイヤー 1
 62
    18
420
        0
370
     9
100
AcDbLine
 10
121.0456455980065
 20
-151.7385669659029
 30
0.0
 11
121.0456455980065
 21
-152.7383038848419
 31
0.0
  0
LINE
  5
EF
330
70
100
AcDbEntity
  8
レイヤー 1
 62
    18
420
        0
370
     9
100
AcDbLine
 10
121.0456455980065
 20
-151.3385875316627
 30
0.0
 11
121.0456455980065
 21
-151.7385669659029
 31
0.0
  0
LINE
  5
F0
330
70
100
AcDbEntity
  8
レイヤー 1
 62
    18
420
        0
370
     9
100
AcDbLine
 10
119.5856395241433
 20
-151.3385875316627
 30
0.0
 11
122.0457705724912
 21
-151.3385875316627
 31
0.0
  0
LINE
  5
F1
330
70
100
AcDbEntity
  8
レイヤー 1
 62
    18
420
        0
370
     9
100
AcDbLine
 10
119.5856395241433
 20
-151.7385669659029
 30
0.0
 11
122.0457705724912
 21
-151.7385669659029
 31
0.0
  0
INSERT
  5
F3
330
70
100
AcDbEntity
  8
レイヤー 1
100
AcDbBlockReference
  2
Block_12
 10
0.0
 20
0.0
 30
0.0
  0
ENDSEC
  0
SECTION
  2
OBJECTS
  0
DICTIONARY
  5
C
330
0
100
AcDbDictionary
281
     1
  3
ACAD_COLOR
350
63
  3
ACAD_DETAILVIEWSTYLE
350
6A
  3
ACAD_GROUP
350
D
  3
ACAD_LAYOUT
350
62
  3
ACAD_MATERIAL
350
10
  3
ACAD_MLEADERSTYLE
350
66
  3
ACAD_MLINESTYLE
350
5F
  3
ACAD_PLOTSETTINGS
350
61
  3
ACAD_PLOTSTYLENAME
350
E
  3
ACAD_SCALELIST
350
42
  3
ACAD_SECTIONVIEWSTYLE
350
68
  3
ACAD_TABLESTYLE
350
64
  3
ACAD_VISUALSTYLE
350
29
  3
ACDB_RECOMPOSE_DATA
350
10A
  3
AcDbVariableDictionary
350
102
  0
DICTIONARY
  5
63
102
{ACAD_REACTORS
330
C
102
}
330
C
100
AcDbDictionary
281
     1
  0
DICTIONARY
  5
6A
102
{ACAD_REACTORS
330
C
102
}
330
C
100
AcDbDictionary
281
     1
  3
Imperial24
350
6B
  0
DICTIONARY
  5
D
102
{ACAD_REACTORS
330
C
102
}
330
C
100
AcDbDictionary
281
     1
  0
DICTIONARY
  5
62
102
{ACAD_REACTORS
330
C
102
}
330
C
100
AcDbDictionary
281
     1
  3
Layout1
350
6F
  3
Layout2
350
77
  3
Model
350
73
  0
DICTIONARY
  5
10
102
{ACAD_REACTORS
330
C
102
}
330
C
100
AcDbDictionary
281
     1
  3
ByBlock
350
19
  3
ByLayer
350
11
  3
Global
350
21
  0
DICTIONARY
  5
66
102
{ACAD_REACTORS
330
C
102
}
330
C
100
AcDbDictionary
281
     1
  3
Standard
350
67
  0
DICTIONARY
  5
5F
102
{ACAD_REACTORS
330
C
102
}
330
C
100
AcDbDictionary
281
     1
  3
Standard
350
60
  0
DICTIONARY
  5
61
102
{ACAD_REACTORS
330
C
102
}
330
C
100
AcDbDictionary
281
     1
  0
ACDBDICTIONARYWDFLT
  5
E
102
{ACAD_REACTORS
330
C
102
}
330
C
100
AcDbDictionary
281
     1
  3
Normal
350
F
100
AcDbDictionaryWithDefault
340
F
  0
DICTIONARY
  5
42
102
{ACAD_REACTORS
330
C
102
}
330
C
100
AcDbDictionary
281
     1
  3
A0
350
43
  3
A1
350
44
  3
A2
350
45
  3
A3
350
46
  3
A4
350
47
  3
A5
350
48
  3
A6
350
49
  3
A7
350
4A
  3
A8
350
4B
  3
A9
350
4C
  3
B0
350
4D
  3
B1
350
4E
  3
B2
350
4F
  3
B3
350
50
  3
B4
350
51
  3
B5
350
52
  3
B6
350
53
  0
DICTIONARY
  5
68
102
{ACAD_REACTORS
330
C
102
}
330
C
100
AcDbDictionary
281
     1
  3
Imperial24
350
69
  0
DICTIONARY
  5
64
102
{ACAD_REACTORS
330
C
102
}
330
C
100
AcDbDictionary
281
     1
  3
Standard
350
65
  0
DICTIONARY
  5
29
102
{ACAD_REACTORS
330
C
102
}
330
C
100
AcDbDictionary
281
     1
  3
2dWireframe
350
2F
  3
Basic
350
2E
  3
Brighten
350
35
  3
ColorChange
350
39
  3
Conceptual
350
32
  3
Dim
350
34
  3
EdgeColorOff
350
41
  3
Facepattern
350
38
  3
Flat
350
2A
  3
FlatWithEdges
350
2B
  3
Gouraud
350
2C
  3
GouraudWithEdges
350
2D
  3
Hidden
350
31
  3
JitterOff
350
3F
  3
Linepattern
350
37
  3
OverhangOff
350
40
  3
Realistic
350
33
  3
Shaded
350
3E
  3
Shaded with edges
350
3D
  3
Shades of Gray
350
3A
  3
Sketchy
350
3B
  3
Thicken
350
36
  3
Wireframe
350
30
  3
X-Ray
350
3C
  0
XRECORD
  5
10A
102
{ACAD_REACTORS
330
C
102
}
330
C
100
AcDbXrecord
280
     1
 90
        1
330
65
  0
DICTIONARY
  5
102
102
{ACAD_REACTORS
330
C
102
}
330
C
100
AcDbDictionary
281
     1
  3
CANNOSCALE
350
107
  3
CMLEADERSTYLE
350
104
  3
CTABLESTYLE
350
103
  3
CVIEWDETAILSTYLE
350
105
  3
CVIEWSECTIONSTYLE
350
106
  0
ACDBDETAILVIEWSTYLE
  5
6B
102
{ACAD_XDICTIONARY
360
13F
102
}
102
{ACAD_REACTORS
330
6A
102
}
330
6A
100
AcDbModelDocViewStyle
 70
     0
  3
Imperial24
290
     0
100
AcDbDetailViewStyle
 70
     0
 71
     0
 90
        3
 71
     1
340
55
 62
   256
 40
0.24
340
0
 62
   256
 40
0.24
300

 40
0.36
280
     3
 71
     2
340
5D
 90
       25
 62
   256
 71
     3
340
55
 62
   256
 40
0.24
 90
        1
 40
0.75
 90
        1
300
%<\AcVar ViewType \f "%tc1">% %<\AcVar ViewDetailId>%\PSCALE %<\AcVar ViewScale \f "%sn">%
 71
     4
340
5D
 90
       25
 62
   256
340
5D
 90
       25
 62
   256
280
     0
  0
LAYOUT
  5
6F
102
{ACAD_REACTORS
330
62
102
}
330
62
100
AcDbPlotSettings
  1

  2

  4

  6

 40
0.0
 41
0.0
 42
0.0
 43
0.0
 44
0.0
 45
0.0
 46
0.0
 47
0.0
 48
0.0
 49
0.0
140
0.0
141
0.0
142
1.0
143
1.0
 70
   688
 72
     0
 73
     0
 74
     5
  7

 75
    16
147
1.0
 76
     0
 77
     2
 78
   300
148
0.0
149
0.0
100
AcDbLayout
  1
Layout1
 70
     1
 71
     1
 10
0.0
 20
0.0
 11
12.0
 21
9.0
 12
0.0
 22
0.0
 32
0.0
 14
0.0
 24
0.0
 34
0.0
 15
0.0
 25
0.0
 35
0.0
146
0.0
 13
0.0
 23
0.0
 33
0.0
 16
1.0
 26
0.0
 36
0.0
 17
0.0
 27
1.0
 37
0.0
 76
     0
330
6C
  0
LAYOUT
  5
77
102
{ACAD_REACTORS
330
62
102
}
330
62
100
AcDbPlotSettings
  1

  2

  4

  6

 40
0.0
 41
0.0
 42
0.0
 43
0.0
 44
0.0
 45
0.0
 46
0.0
 47
0.0
 48
0.0
 49
0.0
140
0.0
141
0.0
142
1.0
143
1.0
 70
   688
 72
     0
 73
     0
 74
     5
  7

 75
    16
147
1.0
 76
     0
 77
     2
 78
   300
148
0.0
149
0.0
100
AcDbLayout
  1
Layout2
 70
     1
 71
     2
 10
0.0
 20
0.0
 11
12.0
 21
9.0
 12
0.0
 22
0.0
 32
0.0
 14
0.0
 24
0.0
 34
0.0
 15
0.0
 25
0.0
 35
0.0
146
0.0
 13
0.0
 23
0.0
 33
0.0
 16
1.0
 26
0.0
 36
0.0
 17
0.0
 27
1.0
 37
0.0
 76
     0
330
74
  0
LAYOUT
  5
73
102
{ACAD_REACTORS
330
62
102
}
330
62
100
AcDbPlotSettings
  1

  2

  4

  6

 40
0.0
 41
0.0
 42
0.0
 43
0.0
 44
0.0
 45
0.0
 46
0.0
 47
0.0
 48
0.0
 49
0.0
140
0.0
141
0.0
142
1.0
143
1.0
 70
  1712
 72
     0
 73
     0
 74
     0
  7

 75
     0
147
1.0
 76
     0
 77
     2
 78
   300
148
0.0
149
0.0
100
AcDbLayout
  1
Model
 70
     1
 71
     0
 10
0.0
 20
0.0
 11
12.0
 21
9.0
 12
0.0
 22
0.0
 32
0.0
 14
0.0
 24
0.0
 34
0.0
 15
0.0
 25
0.0
 35
0.0
146
0.0
 13
0.0
 23
0.0
 33
0.0
 16
1.0
 26
0.0
 36
0.0
 17
0.0
 27
1.0
 37
0.0
 76
     0
330
70
  0
MATERIAL
  5
19
102
{ACAD_XDICTIONARY
360
1A
102
}
102
{ACAD_REACTORS
330
10
102
}
330
10
100
AcDbMaterial
  1
ByBlock
 72
     0
 43
0.0208333333333333
 43
0.0
 43
0.0
 43
0.0
 43
0.0
 43
0.0208333333333333
 43
0.0
 43
0.0
 43
0.0
 43
0.0
 43
1.0
 43
0.0
 43
0.0
 43
0.0
 43
0.0
 43
1.0
 77
     0
 47
0.0208333333333333
 47
0.0
 47
0.0
 47
0.0
 47
0.0
 47
0.0208333333333333
 47
0.0
 47
0.0
 47
0.0
 47
0.0
 47
1.0
 47
0.0
 47
0.0
 47
0.0
 47
0.0
 47
1.0
171
     0
 49
0.0208333333333333
 49
0.0
 49
0.0
 49
0.0
 49
0.0
 49
0.0208333333333333
 49
0.0
 49
0.0
 49
0.0
 49
0.0
 49
1.0
 49
0.0
 49
0.0
 49
0.0
 49
0.0
 49
1.0
175
     0
142
0.0208333333333333
142
0.0
142
0.0
142
0.0
142
0.0
142
0.0208333333333333
142
0.0
142
0.0
142
0.0
142
0.0
142
1.0
142
0.0
142
0.0
142
0.0
142
0.0
142
1.0
179
     0
144
0.0208333333333333
144
0.0
144
0.0
144
0.0
144
0.0
144
0.0208333333333333
144
0.0
144
0.0
144
0.0
144
0.0
144
1.0
144
0.0
144
0.0
144
0.0
144
0.0
144
1.0
147
0.0208333333333333
147
0.0
147
0.0
147
0.0
147
0.0
147
0.0208333333333333
147
0.0
147
0.0
147
0.0
147
0.0
147
1.0
147
0.0
147
0.0
147
0.0
147
0.0
147
1.0
  0
MATERIAL
  5
11
102
{ACAD_XDICTIONARY
360
12
102
}
102
{ACAD_REACTORS
330
10
102
}
330
10
100
AcDbMaterial
  1
ByLayer
 72
     0
 43
0.0208333333333333
 43
0.0
 43
0.0
 43
0.0
 43
0.0
 43
0.0208333333333333
 43
0.0
 43
0.0
 43
0.0
 43
0.0
 43
1.0
 43
0.0
 43
0.0
 43
0.0
 43
0.0
 43
1.0
 77
     0
 47
0.0208333333333333
 47
0.0
 47
0.0
 47
0.0
 47
0.0
 47
0.0208333333333333
 47
0.0
 47
0.0
 47
0.0
 47
0.0
 47
1.0
 47
0.0
 47
0.0
 47
0.0
 47
0.0
 47
1.0
171
     0
 49
0.0208333333333333
 49
0.0
 49
0.0
 49
0.0
 49
0.0
 49
0.0208333333333333
 49
0.0
 49
0.0
 49
0.0
 49
0.0
 49
1.0
 49
0.0
 49
0.0
 49
0.0
 49
0.0
 49
1.0
175
     0
142
0.0208333333333333
142
0.0
142
0.0
142
0.0
142
0.0
142
0.0208333333333333
142
0.0
142
0.0
142
0.0
142
0.0
142
1.0
142
0.0
142
0.0
142
0.0
142
0.0
142
1.0
179
     0
144
0.0208333333333333
144
0.0
144
0.0
144
0.0
144
0.0
144
0.0208333333333333
144
0.0
144
0.0
144
0.0
144
0.0
144
1.0
144
0.0
144
0.0
144
0.0
144
0.0
144
1.0
147
0.0208333333333333
147
0.0
147
0.0
147
0.0
147
0.0
147
0.0208333333333333
147
0.0
147
0.0
147
0.0
147
0.0
147
1.0
147
0.0
147
0.0
147
0.0
147
0.0
147
1.0
  0
MATERIAL
  5
21
102
{ACAD_XDICTIONARY
360
22
102
}
102
{ACAD_REACTORS
330
10
102
}
330
10
100
AcDbMaterial
  1
Global
 72
     0
 43
0.0208333333333333
 43
0.0
 43
0.0
 43
0.0
 43
0.0
 43
0.0208333333333333
 43
0.0
 43
0.0
 43
0.0
 43
0.0
 43
1.0
 43
0.0
 43
0.0
 43
0.0
 43
0.0
 43
1.0
 77
     0
 47
0.0208333333333333
 47
0.0
 47
0.0
 47
0.0
 47
0.0
 47
0.0208333333333333
 47
0.0
 47
0.0
 47
0.0
 47
0.0
 47
1.0
 47
0.0
 47
0.0
 47
0.0
 47
0.0
 47
1.0
171
     0
 49
0.0208333333333333
 49
0.0
 49
0.0
 49
0.0
 49
0.0
 49
0.0208333333333333
 49
0.0
 49
0.0
 49
0.0
 49
0.0
 49
1.0
 49
0.0
 49
0.0
 49
0.0
 49
0.0
 49
1.0
175
     0
142
0.0208333333333333
142
0.0
142
0.0
142
0.0
142
0.0
142
0.0208333333333333
142
0.0
142
0.0
142
0.0
142
0.0
142
1.0
142
0.0
142
0.0
142
0.0
142
0.0
142
1.0
179
     0
144
0.0208333333333333
144
0.0
144
0.0
144
0.0
144
0.0
144
0.0208333333333333
144
0.0
144
0.0
144
0.0
144
0.0
144
1.0
144
0.0
144
0.0
144
0.0
144
0.0
144
1.0
147
0.0208333333333333
147
0.0
147
0.0
147
0.0
147
0.0
147
0.0208333333333333
147
0.0
147
0.0
147
0.0
147
0.0
147
1.0
147
0.0
147
0.0
147
0.0
147
0.0
147
1.0
  0
MLEADERSTYLE
  5
67
102
{ACAD_XDICTIONARY
360
13B
102
}
102
{ACAD_REACTORS
330
66
102
}
330
66
100
AcDbMLeaderStyle
179
     2
170
     2
171
     1
172
     0
 90
        2
 40
0.0
 41
0.0
173
     1
 91
-1056964608
340
5B
 92
       -2
290
     1
 42
0.09
291
     1
 43
0.36
  3
Standard
 44
0.18
300

342
55
174
     1
178
     6
175
     1
176
     0
 93
-1056964608
 45
0.18
292
     0
297
     0
 46
0.18
 94
-1056964608
 47
1.0
 49
1.0
140
1.0
293
     1
141
0.0
294
     1
177
     0
142
1.0
295
     0
296
     0
143
0.125
271
     0
272
     9
273
     9
  0
MLINESTYLE
  5
60
102
{ACAD_REACTORS
330
5F
102
}
330
5F
100
AcDbMlineStyle
  2
STANDARD
 70
     0
  3

 62
   256
 51
90.0
 52
90.0
 71
     2
 49
0.5
 62
   256
  6
BYLAYER
 49
-0.5
 62
   256
  6
BYLAYER
  0
ACDBPLACEHOLDER
  5
F
102
{ACAD_REACTORS
330
E
102
}
330
E
  0
SCALE
  5
43
102
{ACAD_REACTORS
330
42
102
}
330
42
100
AcDbScale
 70
     0
300
1:1
140
1.0
141
1.0
290
     1
  0
SCALE
  5
44
102
{ACAD_REACTORS
330
42
102
}
330
42
100
AcDbScale
 70
     0
300
1/128" = 1'-0"
140
0.0078125
141
12.0
290
     0
  0
SCALE
  5
45
102
{ACAD_REACTORS
330
42
102
}
330
42
100
AcDbScale
 70
     0
300
1/64" = 1'-0"
140
0.015625
141
12.0
290
     0
  0
SCALE
  5
46
102
{ACAD_REACTORS
330
42
102
}
330
42
100
AcDbScale
 70
     0
300
1/32" = 1'-0"
140
0.03125
141
12.0
290
     0
  0
SCALE
  5
47
102
{ACAD_REACTORS
330
42
102
}
330
42
100
AcDbScale
 70
     0
300
1/16" = 1'-0"
140
0.0625
141
12.0
290
     0
  0
SCALE
  5
48
102
{ACAD_REACTORS
330
42
102
}
330
42
100
AcDbScale
 70
     0
300
3/32" = 1'-0"
140
0.09375
141
12.0
290
     0
  0
SCALE
  5
49
102
{ACAD_REACTORS
330
42
102
}
330
42
100
AcDbScale
 70
     0
300
1/8" = 1'-0"
140
0.125
141
12.0
290
     0
  0
SCALE
  5
4A
102
{ACAD_REACTORS
330
42
102
}
330
42
100
AcDbScale
 70
     0
300
3/16" = 1'-0"
140
0.1875
141
12.0
290
     0
  0
SCALE
  5
4B
102
{ACAD_REACTORS
330
42
102
}
330
42
100
AcDbScale
 70
     0
300
1/4" = 1'-0"
140
0.25
141
12.0
290
     0
  0
SCALE
  5
4C
102
{ACAD_REACTORS
330
42
102
}
330
42
100
AcDbScale
 70
     0
300
3/8" = 1'-0"
140
0.375
141
12.0
290
     0
  0
SCALE
  5
4D
102
{ACAD_REACTORS
330
42
102
}
330
42
100
AcDbScale
 70
     0
300
1/2" = 1'-0"
140
0.5
141
12.0
290
     0
  0
SCALE
  5
4E
102
{ACAD_REACTORS
330
42
102
}
330
42
100
AcDbScale
 70
     0
300
3/4" = 1'-0"
140
0.75
141
12.0
290
     0
  0
SCALE
  5
4F
102
{ACAD_REACTORS
330
42
102
}
330
42
100
AcDbScale
 70
     0
300
1" = 1'-0"
140
1.0
141
12.0
290
     0
  0
SCALE
  5
50
102
{ACAD_REACTORS
330
42
102
}
330
42
100
AcDbScale
 70
     0
300
1-1/2" = 1'-0"
140
1.5
141
12.0
290
     0
  0
SCALE
  5
51
102
{ACAD_REACTORS
330
42
102
}
330
42
100
AcDbScale
 70
     0
300
3" = 1'-0"
140
3.0
141
12.0
290
     0
  0
SCALE
  5
52
102
{ACAD_REACTORS
330
42
102
}
330
42
100
AcDbScale
 70
     0
300
6" = 1'-0"
140
6.0
141
12.0
290
     0
  0
SCALE
  5
53
102
{ACAD_REACTORS
330
42
102
}
330
42
100
AcDbScale
 70
     0
300
1'-0" = 1'-0"
140
12.0
141
12.0
290
     0
  0
ACDBSECTIONVIEWSTYLE
  5
69
102
{ACAD_XDICTIONARY
360
13D
102
}
102
{ACAD_REACTORS
330
68
102
}
330
68
100
AcDbModelDocViewStyle
 70
     0
  3
Imperial24
290
     0
100
AcDbSectionViewStyle
 70
     0
 71
     0
 90
       78
 71
     1
340
55
 62
   256
 40
0.24
340
0
340
0
 62
   256
 40
0.24
300
I, O, Q, S, X, Z
 40
0.48
 90
        3
 40
0.18
 90
        1
 71
     2
340
5D
 90
       25
 62
   256
340
5D
 90
       50
 62
   256
 40
0.24
 40
0.0
 40
0.24
 71
     3
340
55
 62
   256
 40
0.24
 90
        1
 40
0.75
 90
        1
300
%<\AcVar ViewType \f "%tc1">% %<\AcVar ViewSectionStartId>%-%<\AcVar ViewSectionEndId>%\PSCALE %<\AcVar ViewScale \f "%sn">%
 71
     4
 62
   256
 62
   257
300
ANSI31
 40
1.0
 90
        0
290
     0
290
     0
 90
        6
 40
0.0
 40
1.570796326794896
 40
0.2617993877991494
 40
1.308996938995747
 40
-0.2617993877991494
 40
1.832595714594046
  0
TABLESTYLE
  5
65
102
{ACAD_XDICTIONARY
360
108
102
}
102
{ACAD_REACTORS
330
64
102
}
330
64
100
AcDbTableStyle
280
     0
  3
Standard
 70
     0
 71
     0
 40
0.06
 41
0.06
280
     0
281
     0
  7
Standard
140
0.18
170
     2
 62
     0
 63
     7
283
     0
 90
      512
 91
        0
  1

274
    -2
284
     1
 64
     0
275
    -2
285
     1
 65
     0
276
    -2
286
     1
 66
     0
277
    -2
287
     1
 67
     0
278
    -2
288
     1
 68
     0
279
    -2
289
     1
 69
     0
  7
Standard
140
0.25
170
     5
 62
     0
 63
     7
283
     0
 90
      512
 91
        0
  1

274
    -2
284
     1
 64
     0
275
    -2
285
     1
 65
     0
276
    -2
286
     1
 66
     0
277
    -2
287
     1
 67
     0
278
    -2
288
     1
 68
     0
279
    -2
289
     1
 69
     0
  7
Standard
140
0.18
170
     5
 62
     0
 63
     7
283
     0
 90
      512
 91
        0
  1

274
    -2
284
     1
 64
     0
275
    -2
285
     1
 65
     0
276
    -2
286
     1
 66
     0
277
    -2
287
     1
 67
     0
278
    -2
288
     1
 68
     0
279
    -2
289
     1
 69
     0
  0
VISUALSTYLE
  5
2F
102
{ACAD_XDICTIONARY
360
115
102
}
102
{ACAD_REACTORS
330
29
102
}
330
29
100
AcDbVisualStyle
  2
2dWireframe
 70
     4
177
     2
291
     0
 71
     0
176
     1
 72
     2
176
     1
 73
     0
176
     1
 90
        0
176
     1
 40
0.6
176
     1
 41
30.0
176
     1
 63
     7
421
 16777215
176
     1
 74
     1
176
     1
 91
        4
176
     1
 64
     7
176
     1
 65
   257
176
     1
 75
     1
176
     1
175
     1
176
     1
 42
1.0
176
     1
 92
        0
176
     1
 66
   257
176
     1
 43
1.0
176
     1
 76
     1
176
     1
 77
     6
176
     1
 78
     2
176
     1
 67
     7
176
     1
 79
     5
176
     1
170
     0
176
     1
171
     0
176
     1
290
     0
176
     1
 93
        1
176
     1
 44
0.0
176
     1
173
     0
176
     1
1001
ACAD
1000
AcDbSavedByObjectVersion
1070
     0
  0
VISUALSTYLE
  5
2E
102
{ACAD_XDICTIONARY
360
113
102
}
102
{ACAD_REACTORS
330
29
102
}
330
29
100
AcDbVisualStyle
  2
Basic
 70
     7
177
     2
291
     1
 71
     1
176
     1
 72
     0
176
     1
 73
     1
176
     1
 90
        0
176
     1
 40
0.6
176
     1
 41
30.0
176
     1
 63
     7
421
 16777215
176
     1
 74
     0
176
     1
 91
        4
176
     1
 64
     7
176
     1
 65
   257
176
     1
 75
     1
176
     1
175
     1
176
     1
 42
1.0
176
     1
 92
        8
176
     1
 66
     7
176
     1
 43
1.0
176
     1
 76
     1
176
     1
 77
     6
176
     1
 78
     2
176
     1
 67
     7
176
     1
 79
     5
176
     1
170
     0
176
     1
171
     0
176
     1
290
     0
176
     1
 93
        1
176
     1
 44
0.0
176
     1
173
     0
176
     1
1001
ACAD
1000
AcDbSavedByObjectVersion
1070
     0
  0
VISUALSTYLE
  5
35
102
{ACAD_XDICTIONARY
360
121
102
}
102
{ACAD_REACTORS
330
29
102
}
330
29
100
AcDbVisualStyle
  2
Brighten
 70
    12
177
     2
291
     1
 71
     2
176
     1
 72
     2
176
     1
 73
     0
176
     1
 90
        0
176
     1
 40
0.6
176
     1
 41
30.0
176
     1
 63
     7
421
 16777215
176
     1
 74
     1
176
     1
 91
        4
176
     1
 64
     7
176
     1
 65
   257
176
     1
 75
     1
176
     1
175
     1
176
     1
 42
1.0
176
     1
 92
        8
176
     1
 66
     7
176
     1
 43
1.0
176
     1
 76
     1
176
     1
 77
     6
176
     1
 78
     2
176
     1
 67
     7
176
     1
 79
     5
176
     1
170
     0
176
     1
171
     0
176
     1
290
     0
176
     1
 93
        1
176
     1
 44
50.0
176
     1
173
     0
176
     1
1001
ACAD
1000
AcDbSavedByObjectVersion
1070
     0
  0
VISUALSTYLE
  5
39
102
{ACAD_XDICTIONARY
360
129
102
}
102
{ACAD_REACTORS
330
29
102
}
330
29
100
AcDbVisualStyle
  2
ColorChange
 70
    16
177
     2
291
     1
 71
     2
176
     1
 72
     2
176
     1
 73
     3
176
     1
 90
        0
176
     1
 40
0.6
176
     1
 41
30.0
176
     1
 63
     8
421
  8421504
176
     1
 74
     1
176
     1
 91
        4
176
     1
 64
     7
176
     1
 65
   257
176
     1
 75
     1
176
     1
175
     1
176
     1
 42
1.0
176
     1
 92
        8
176
     1
 66
     8
424
  8421504
176
     1
 43
1.0
176
     1
 76
     1
176
     1
 77
     6
176
     1
 78
     2
176
     1
 67
     7
176
     1
 79
     5
176
     1
170
     0
176
     1
171
     0
176
     1
290
     0
176
     1
 93
        1
176
     1
 44
0.0
176
     1
173
     0
176
     1
1001
ACAD
1000
AcDbSavedByObjectVersion
1070
     0
  0
VISUALSTYLE
  5
32
102
{ACAD_XDICTIONARY
360
11B
102
}
102
{ACAD_REACTORS
330
29
102
}
330
29
100
AcDbVisualStyle
  2
Conceptual
 70
     9
177
     2
291
     0
 71
     3
176
     1
 72
     2
176
     1
 73
     0
176
     1
 90
        0
176
     1
 40
0.6
176
     1
 41
30.0
176
     1
 63
     7
421
 16777215
176
     1
 74
     2
176
     1
 91
        2
176
     1
 64
     7
176
     1
 65
   257
176
     1
 75
     1
176
     1
175
     1
176
     1
 42
179.0
176
     1
 92
        8
176
     1
 66
     7
176
     1
 43
1.0
176
     1
 76
     1
176
     1
 77
     6
176
     1
 78
     2
176
     1
 67
     7
176
     1
 79
     3
176
     1
170
     0
176
     1
171
     0
176
     1
290
     0
176
     1
 93
        1
176
     1
 44
0.0
176
     1
173
     0
176
     1
1001
ACAD
1000
AcDbSavedByObjectVersion
1070
     0
  0
VISUALSTYLE
  5
34
102
{ACAD_XDICTIONARY
360
11F
102
}
102
{ACAD_REACTORS
330
29
102
}
330
29
100
AcDbVisualStyle
  2
Dim
 70
    11
177
     2
291
     1
 71
     2
176
     1
 72
     2
176
     1
 73
     0
176
     1
 90
        0
176
     1
 40
0.6
176
     1
 41
30.0
176
     1
 63
     7
421
 16777215
176
     1
 74
     1
176
     1
 91
        4
176
     1
 64
     7
176
     1
 65
   257
176
     1
 75
     1
176
     1
175
     1
176
     1
 42
1.0
176
     1
 92
        8
176
     1
 66
     7
176
     1
 43
1.0
176
     1
 76
     1
176
     1
 77
     6
176
     1
 78
     2
176
     1
 67
     7
176
     1
 79
     5
176
     1
170
     0
176
     1
171
     0
176
     1
290
     0
176
     1
 93
        1
176
     1
 44
-50.0
176
     1
173
     0
176
     1
1001
ACAD
1000
AcDbSavedByObjectVersion
1070
     0
  0
VISUALSTYLE
  5
41
102
{ACAD_XDICTIONARY
360
139
102
}
102
{ACAD_REACTORS
330
29
102
}
330
29
100
AcDbVisualStyle
  2
EdgeColorOff
 70
    22
177
     2
291
     1
 71
     2
176
     0
 72
     2
176
     0
 73
     0
176
     0
 90
        0
176
     0
 40
0.6
176
     0
 41
30.0
176
     0
 63
     7
421
 16777215
176
     0
 74
     1
176
     0
 91
        4
176
     0
 64
     7
176
     0
 65
   257
176
     0
 75
     1
176
     0
175
     1
176
     0
 42
1.0
176
     0
 92
        8
176
     2
 66
     7
176
     0
 43
1.0
176
     0
 76
     1
176
     0
 77
     6
176
     0
 78
     2
176
     0
 67
     7
176
     0
 79
     5
176
     0
170
     0
176
     0
171
     0
176
     0
290
     0
176
     0
 93
        1
176
     0
 44
0.0
176
     0
173
     0
176
     0
1001
ACAD
1000
AcDbSavedByObjectVersion
1070
     0
  0
VISUALSTYLE
  5
38
102
{ACAD_XDICTIONARY
360
127
102
}
102
{ACAD_REACTORS
330
29
102
}
330
29
100
AcDbVisualStyle
  2
Facepattern
 70
    15
177
     2
291
     1
 71
     2
176
     1
 72
     2
176
     1
 73
     0
176
     1
 90
        0
176
     1
 40
0.6
176
     1
 41
30.0
176
     1
 63
     7
421
 16777215
176
     1
 74
     1
176
     1
 91
        4
176
     1
 64
     7
176
     1
 65
   257
176
     1
 75
     1
176
     1
175
     1
176
     1
 42
1.0
176
     1
 92
        8
176
     1
 66
     7
176
     1
 43
1.0
176
     1
 76
     1
176
     1
 77
     6
176
     1
 78
     2
176
     1
 67
     7
176
     1
 79
     5
176
     1
170
     0
176
     1
171
     0
176
     1
290
     0
176
     1
 93
        1
176
     1
 44
0.0
176
     1
173
     0
176
     1
1001
ACAD
1000
AcDbSavedByObjectVersion
1070
     0
  0
VISUALSTYLE
  5
2A
102
{ACAD_XDICTIONARY
360
10B
102
}
102
{ACAD_REACTORS
330
29
102
}
330
29
100
AcDbVisualStyle
  2
Flat
 70
     0
177
     2
291
     1
 71
     2
176
     1
 72
     1
176
     1
 73
     1
176
     1
 90
        2
176
     1
 40
0.6
176
     1
 41
30.0
176
     1
 63
     7
421
 16777215
176
     1
 74
     0
176
     1
 91
        0
176
     1
 64
     7
176
     1
 65
   257
176
     1
 75
     1
176
     1
175
     1
176
     1
 42
1.0
176
     1
 92
        8
176
     1
 66
     7
176
     1
 43
1.0
176
     1
 76
     1
176
     1
 77
     6
176
     1
 78
     2
176
     1
 67
     7
176
     1
 79
     5
176
     1
170
     0
176
     1
171
     0
176
     1
290
     0
176
     1
 93
       13
176
     1
 44
0.0
176
     1
173
     0
176
     1
1001
ACAD
1000
AcDbSavedByObjectVersion
1070
     0
  0
VISUALSTYLE
  5
2B
102
{ACAD_XDICTIONARY
360
10D
102
}
102
{ACAD_REACTORS
330
29
102
}
330
29
100
AcDbVisualStyle
  2
FlatWithEdges
 70
     1
177
     2
291
     1
 71
     2
176
     1
 72
     1
176
     1
 73
     1
176
     1
 90
        2
176
     1
 40
0.6
176
     1
 41
30.0
176
     1
 63
     7
421
 16777215
176
     1
 74
     1
176
     1
 91
        0
176
     1
 64
     7
176
     1
 65
   257
176
     1
 75
     1
176
     1
175
     1
176
     1
 42
1.0
176
     1
 92
        0
176
     1
 66
   257
176
     1
 43
1.0
176
     1
 76
     1
176
     1
 77
     6
176
     1
 78
     2
176
     1
 67
     7
176
     1
 79
     5
176
     1
170
     0
176
     1
171
     0
176
     1
290
     0
176
     1
 93
       13
176
     1
 44
0.0
176
     1
173
     0
176
     1
1001
ACAD
1000
AcDbSavedByObjectVersion
1070
     0
  0
VISUALSTYLE
  5
2C
102
{ACAD_XDICTIONARY
360
10F
102
}
102
{ACAD_REACTORS
330
29
102
}
330
29
100
AcDbVisualStyle
  2
Gouraud
 70
     2
177
     2
291
     1
 71
     2
176
     1
 72
     2
176
     1
 73
     1
176
     1
 90
        2
176
     1
 40
0.6
176
     1
 41
30.0
176
     1
 63
     7
421
 16777215
176
     1
 74
     0
176
     1
 91
        0
176
     1
 64
     7
176
     1
 65
   257
176
     1
 75
     1
176
     1
175
     1
176
     1
 42
1.0
176
     1
 92
        0
176
     1
 66
     7
176
     1
 43
1.0
176
     1
 76
     1
176
     1
 77
     6
176
     1
 78
     2
176
     1
 67
     7
176
     1
 79
     5
176
     1
170
     0
176
     1
171
     0
176
     1
290
     0
176
     1
 93
       13
176
     1
 44
0.0
176
     1
173
     0
176
     1
1001
ACAD
1000
AcDbSavedByObjectVersion
1070
     0
  0
VISUALSTYLE
  5
2D
102
{ACAD_XDICTIONARY
360
111
102
}
102
{ACAD_REACTORS
330
29
102
}
330
29
100
AcDbVisualStyle
  2
GouraudWithEdges
 70
     3
177
     2
291
     1
 71
     2
176
     1
 72
     2
176
     1
 73
     1
176
     1
 90
        2
176
     1
 40
0.6
176
     1
 41
30.0
176
     1
 63
     7
421
 16777215
176
     1
 74
     1
176
     1
 91
        0
176
     1
 64
     7
176
     1
 65
   257
176
     1
 75
     1
176
     1
175
     1
176
     1
 42
1.0
176
     1
 92
        0
176
     1
 66
   257
176
     1
 43
1.0
176
     1
 76
     1
176
     1
 77
     6
176
     1
 78
     2
176
     1
 67
     7
176
     1
 79
     5
176
     1
170
     0
176
     1
171
     0
176
     1
290
     0
176
     1
 93
       13
176
     1
 44
0.0
176
     1
173
     0
176
     1
1001
ACAD
1000
AcDbSavedByObjectVersion
1070
     0
  0
VISUALSTYLE
  5
31
102
{ACAD_XDICTIONARY
360
119
102
}
102
{ACAD_REACTORS
330
29
102
}
330
29
100
AcDbVisualStyle
  2
Hidden
 70
     6
177
     2
291
     0
 71
     1
176
     1
 72
     2
176
     1
 73
     2
176
     1
 90
        0
176
     1
 40
0.6
176
     1
 41
30.0
176
     1
 63
     7
421
 16777215
176
     1
 74
     2
176
     1
 91
        2
176
     1
 64
     7
176
     1
 65
   257
176
     1
 75
     2
176
     1
175
     1
176
     1
 42
40.0
176
     1
 92
        0
176
     1
 66
   257
176
     1
 43
1.0
176
     1
 76
     1
176
     1
 77
     6
176
     1
 78
     2
176
     1
 67
     7
176
     1
 79
     3
176
     1
170
     0
176
     1
171
     0
176
     1
290
     0
176
     1
 93
        1
176
     1
 44
0.0
176
     1
173
     0
176
     1
1001
ACAD
1000
AcDbSavedByObjectVersion
1070
     0
  0
VISUALSTYLE
  5
3F
102
{ACAD_XDICTIONARY
360
135
102
}
102
{ACAD_REACTORS
330
29
102
}
330
29
100
AcDbVisualStyle
  2
JitterOff
 70
    20
177
     2
291
     1
 71
     2
176
     0
 72
     2
176
     0
 73
     0
176
     0
 90
        0
176
     0
 40
0.6
176
     0
 41
30.0
176
     0
 63
     7
421
 16777215
176
     0
 74
     1
176
     0
 91
        4
176
     0
 64
     7
176
     0
 65
   257
176
     0
 75
     1
176
     0
175
     1
176
     0
 42
1.0
176
     0
 92
       10
176
     2
 66
     7
176
     0
 43
1.0
176
     0
 76
     1
176
     0
 77
     6
176
     0
 78
     2
176
     0
 67
     7
176
     0
 79
     5
176
     0
170
     0
176
     0
171
     0
176
     0
290
     0
176
     0
 93
        1
176
     0
 44
0.0
176
     0
173
     0
176
     0
1001
ACAD
1000
AcDbSavedByObjectVersion
1070
     0
  0
VISUALSTYLE
  5
37
102
{ACAD_XDICTIONARY
360
125
102
}
102
{ACAD_REACTORS
330
29
102
}
330
29
100
AcDbVisualStyle
  2
Linepattern
 70
    14
177
     2
291
     1
 71
     2
176
     1
 72
     2
176
     1
 73
     0
176
     1
 90
        0
176
     1
 40
0.6
176
     1
 41
30.0
176
     1
 63
     7
421
 16777215
176
     1
 74
     1
176
     1
 91
        4
176
     1
 64
     7
176
     1
 65
   257
176
     1
 75
     7
176
     1
175
     7
176
     1
 42
1.0
176
     1
 92
        8
176
     1
 66
     7
176
     1
 43
1.0
176
     1
 76
     1
176
     1
 77
     6
176
     1
 78
     2
176
     1
 67
     7
176
     1
 79
     5
176
     1
170
     0
176
     1
171
     0
176
     1
290
     0
176
     1
 93
        1
176
     1
 44
0.0
176
     1
173
     0
176
     1
1001
ACAD
1000
AcDbSavedByObjectVersion
1070
     0
  0
VISUALSTYLE
  5
40
102
{ACAD_XDICTIONARY
360
137
102
}
102
{ACAD_REACTORS
330
29
102
}
330
29
100
AcDbVisualStyle
  2
OverhangOff
 70
    21
177
     2
291
     1
 71
     2
176
     0
 72
     2
176
     0
 73
     0
176
     0
 90
        0
176
     0
 40
0.6
176
     0
 41
30.0
176
     0
 63
     7
421
 16777215
176
     0
 74
     1
176
     0
 91
        4
176
     0
 64
     7
176
     0
 65
   257
176
     0
 75
     1
176
     0
175
     1
176
     0
 42
1.0
176
     0
 92
        9
176
     2
 66
     7
176
     0
 43
1.0
176
     0
 76
     1
176
     0
 77
     6
176
     0
 78
     2
176
     0
 67
     7
176
     0
 79
     5
176
     0
170
     0
176
     0
171
     0
176
     0
290
     0
176
     0
 93
        1
176
     0
 44
0.0
176
     0
173
     0
176
     0
1001
ACAD
1000
AcDbSavedByObjectVersion
1070
     0
  0
VISUALSTYLE
  5
33
102
{ACAD_XDICTIONARY
360
11D
102
}
102
{ACAD_REACTORS
330
29
102
}
330
29
100
AcDbVisualStyle
  2
Realistic
 70
     8
177
     2
291
     0
 71
     2
176
     1
 72
     3
176
     1
 73
     0
176
     1
 90
        2
176
     1
 40
0.6
176
     1
 41
30.0
176
     1
 63
     7
421
 16777215
176
     1
 74
     0
176
     1
 91
        0
176
     1
 64
     7
176
     1
 65
   257
176
     1
 75
     1
176
     1
175
     1
176
     1
 42
1.0
176
     1
 92
        8
176
     1
 66
   257
176
     1
 43
1.0
176
     1
 76
     1
176
     1
 77
     6
176
     1
 78
     2
176
     1
 67
     7
176
     1
 79
     3
176
     1
170
     0
176
     1
171
     0
176
     1
290
     0
176
     1
 93
       13
176
     1
 44
0.0
176
     1
173
     0
176
     1
1001
ACAD
1000
AcDbSavedByObjectVersion
1070
     0
  0
VISUALSTYLE
  5
3E
102
{ACAD_XDICTIONARY
360
133
102
}
102
{ACAD_REACTORS
330
29
102
}
330
29
100
AcDbVisualStyle
  2
Shaded
 70
    27
177
     2
291
     0
 71
     2
176
     1
 72
     2
176
     1
 73
     1
176
     1
 90
        2
176
     1
 40
0.6
176
     1
 41
30.0
176
     1
 63
     7
421
 16777215
176
     1
 74
     0
176
     1
 91
        4
176
     1
 64
     7
176
     1
 65
   257
176
     1
 75
     1
176
     1
175
     1
176
     1
 42
1.0
176
     1
 92
        8
176
     1
 66
   257
176
     1
 43
1.0
176
     1
 76
     1
176
     1
 77
     6
176
     1
 78
     2
176
     1
 67
     8
425
  7895160
176
     1
 79
     3
176
     1
170
     0
176
     1
171
     0
176
     1
290
     0
176
     1
 93
        5
176
     1
 44
0.0
176
     1
173
     0
176
     1
1001
ACAD
1000
AcDbSavedByObjectVersion
1070
     0
  0
VISUALSTYLE
  5
3D
102
{ACAD_XDICTIONARY
360
131
102
}
102
{ACAD_REACTORS
330
29
102
}
330
29
100
AcDbVisualStyle
  2
Shaded with edges
 70
    26
177
     2
291
     0
 71
     2
176
     1
 72
     2
176
     1
 73
     1
176
     1
 90
        2
176
     1
 40
0.6
176
     1
 41
30.0
176
     1
 63
     7
421
 16777215
176
     1
 74
     1
176
     1
 91
        2
176
     1
 64
     7
176
     1
 65
   257
176
     1
 75
     2
176
     1
175
     1
176
     1
 42
1.0
176
     1
 92
        8
176
     1
 66
   257
176
     1
 43
1.0
176
     1
 76
     1
176
     1
 77
     6
176
     1
 78
     2
176
     1
 67
     7
176
     1
 79
     3
176
     1
170
     0
176
     1
171
     0
176
     1
290
     0
176
     1
 93
        5
176
     1
 44
0.0
176
     1
173
     0
176
     1
1001
ACAD
1000
AcDbSavedByObjectVersion
1070
     0
  0
VISUALSTYLE
  5
3A
102
{ACAD_XDICTIONARY
360
12B
102
}
102
{ACAD_REACTORS
330
29
102
}
330
29
100
AcDbVisualStyle
  2
Shades of Gray
 70
    23
177
     2
291
     0
 71
     2
176
     1
 72
     2
176
     1
 73
     3
176
     1
 90
        0
176
     1
 40
0.6
176
     1
 41
30.0
176
     1
 63
     7
421
 16777215
176
     1
 74
     2
176
     1
 91
        2
176
     1
 64
     7
176
     1
 65
     7
176
     1
 75
     1
176
     1
175
     1
176
     1
 42
40.0
176
     1
 92
        8
176
     1
 66
     7
176
     1
 43
1.0
176
     1
 76
     1
176
     1
 77
     6
176
     1
 78
     2
176
     1
 67
     7
176
     1
 79
     3
176
     1
170
     0
176
     1
171
     0
176
     1
290
     0
176
     1
 93
        1
176
     1
 44
0.0
176
     1
173
     0
176
     1
1001
ACAD
1000
AcDbSavedByObjectVersion
1070
     0
  0
VISUALSTYLE
  5
3B
102
{ACAD_XDICTIONARY
360
12D
102
}
102
{ACAD_REACTORS
330
29
102
}
330
29
100
AcDbVisualStyle
  2
Sketchy
 70
    24
177
     2
291
     0
 71
     1
176
     1
 72
     2
176
     1
 73
     2
176
     1
 90
        0
176
     1
 40
0.6
176
     1
 41
30.0
176
     1
 63
     7
421
 16777215
176
     1
 74
     2
176
     1
 91
        2
176
     1
 64
     7
176
     1
 65
     7
176
     1
 75
     1
176
     1
175
     1
176
     1
 42
40.0
176
     1
 92
       11
176
     1
 66
     7
176
     1
 43
1.0
176
     1
 76
     1
176
     1
 77
     6
176
     1
 78
     2
176
     1
 67
     7
176
     1
 79
     6
176
     1
170
     0
176
     1
171
     0
176
     1
290
     0
176
     1
 93
        1
176
     1
 44
0.0
176
     1
173
     0
176
     1
1001
ACAD
1000
AcDbSavedByObjectVersion
1070
     0
  0
VISUALSTYLE
  5
36
102
{ACAD_XDICTIONARY
360
123
102
}
102
{ACAD_REACTORS
330
29
102
}
330
29
100
AcDbVisualStyle
  2
Thicken
 70
    13
177
     2
291
     1
 71
     2
176
     1
 72
     2
176
     1
 73
     0
176
     1
 90
        0
176
     1
 40
0.6
176
     1
 41
30.0
176
     1
 63
     7
421
 16777215
176
     1
 74
     1
176
     1
 91
        4
176
     1
 64
     7
176
     1
 65
   257
176
     1
 75
     1
176
     1
175
     1
176
     1
 42
1.0
176
     1
 92
       12
176
     1
 66
     7
176
     1
 43
1.0
176
     1
 76
     1
176
     1
 77
     6
176
     1
 78
     2
176
     1
 67
     7
176
     1
 79
     5
176
     1
170
     0
176
     1
171
     0
176
     1
290
     0
176
     1
 93
        1
176
     1
 44
0.0
176
     1
173
     0
176
     1
1001
ACAD
1000
AcDbSavedByObjectVersion
1070
     0
  0
VISUALSTYLE
  5
30
102
{ACAD_XDICTIONARY
360
117
102
}
102
{ACAD_REACTORS
330
29
102
}
330
29
100
AcDbVisualStyle
  2
Wireframe
 70
     5
177
     2
291
     0
 71
     0
176
     1
 72
     2
176
     1
 73
     0
176
     1
 90
        0
176
     1
 40
0.6
176
     1
 41
30.0
176
     1
 63
     7
421
 16777215
176
     1
 74
     1
176
     1
 91
        4
176
     1
 64
     7
176
     1
 65
   257
176
     1
 75
     1
176
     1
175
     1
176
     1
 42
1.0
176
     1
 92
        0
176
     1
 66
   257
176
     1
 43
1.0
176
     1
 76
     1
176
     1
 77
     6
176
     1
 78
     2
176
     1
 67
     7
176
     1
 79
     3
176
     1
170
     0
176
     1
171
     0
176
     1
290
     0
176
     1
 93
        1
176
     1
 44
0.0
176
     1
173
     0
176
     1
1001
ACAD
1000
AcDbSavedByObjectVersion
1070
     0
  0
VISUALSTYLE
  5
3C
102
{ACAD_XDICTIONARY
360
12F
102
}
102
{ACAD_REACTORS
330
29
102
}
330
29
100
AcDbVisualStyle
  2
X-Ray
 70
    25
177
     2
291
     0
 71
     2
176
     1
 72
     2
176
     1
 73
     1
176
     1
 90
        1
176
     1
 40
0.5
176
     1
 41
30.0
176
     1
 63
     7
421
 16777215
176
     1
 74
     1
176
     1
 91
        0
176
     1
 64
     7
176
     1
 65
   257
176
     1
 75
     1
176
     1
175
     1
176
     1
 42
1.0
176
     1
 92
        8
176
     1
 66
     7
176
     1
 43
1.0
176
     1
 76
     1
176
     1
 77
     6
176
     1
 78
     2
176
     1
 67
     7
176
     1
 79
     3
176
     1
170
     0
176
     1
171
     0
176
     1
290
     0
176
     1
 93
       13
176
     1
 44
0.0
176
     1
173
     0
176
     1
1001
ACAD
1000
AcDbSavedByObjectVersion
1070
     0
  0
DICTIONARYVAR
  5
107
102
{ACAD_REACTORS
330
102
102
}
330
102
100
DictionaryVariables
280
     0
  1
1:1
  0
DICTIONARYVAR
  5
104
102
{ACAD_REACTORS
330
102
102
}
330
102
100
DictionaryVariables
280
     0
  1
STANDARD
  0
DICTIONARYVAR
  5
103
102
{ACAD_REACTORS
330
102
102
}
330
102
100
DictionaryVariables
280
     0
  1
STANDARD
  0
DICTIONARYVAR
  5
105
102
{ACAD_REACTORS
330
102
102
}
330
102
100
DictionaryVariables
280
     0
  1
Imperial24
  0
DICTIONARYVAR
  5
106
102
{ACAD_REACTORS
330
102
102
}
330
102
100
DictionaryVariables
280
     0
  1
Imperial24
  0
DICTIONARY
  5
13F
330
6B
100
AcDbDictionary
280
     1
281
     1
  3
ACAD_XREC_ROUNDTRIP
360
140
  0
DICTIONARY
  5
1A
330
19
100
AcDbDictionary
280
     1
281
     1
  3
BUMPTILE
360
1C
  3
DIFFUSETILE
360
1B
  3
OPACITYTILE
360
1F
  3
REFLECTIONTILE
360
1E
  3
REFRACTIONTILE
360
20
  3
SPECULARTILE
360
1D
  0
DICTIONARY
  5
12
330
11
100
AcDbDictionary
280
     1
281
     1
  3
BUMPTILE
360
14
  3
DIFFUSETILE
360
13
  3
OPACITYTILE
360
17
  3
REFLECTIONTILE
360
16
  3
REFRACTIONTILE
360
18
  3
SPECULARTILE
360
15
  0
DICTIONARY
  5
22
330
21
100
AcDbDictionary
280
     1
281
     1
  3
BUMPTILE
360
24
  3
DIFFUSETILE
360
23
  3
OPACITYTILE
360
27
  3
REFLECTIONTILE
360
26
  3
REFRACTIONTILE
360
28
  3
SPECULARTILE
360
25
  0
DICTIONARY
  5
13B
330
67
100
AcDbDictionary
280
     1
281
     1
  3
ACAD_XREC_ROUNDTRIP
360
13C
  0
DICTIONARY
  5
13D
330
69
100
AcDbDictionary
280
     1
281
     1
  3
ACAD_XREC_ROUNDTRIP
360
13E
  0
DICTIONARY
  5
108
330
65
100
AcDbDictionary
280
     1
281
     1
  3
ACAD_ROUNDTRIP_2008_TABLESTYLE_CELLSTYLEMAP
360
109
  0
DICTIONARY
  5
115
330
2F
100
AcDbDictionary
280
     1
281
     1
  3
ACAD_XREC_ROUNDTRIP
360
116
  0
DICTIONARY
  5
113
330
2E
100
AcDbDictionary
280
     1
281
     1
  3
ACAD_XREC_ROUNDTRIP
360
114
  0
DICTIONARY
  5
121
330
35
100
AcDbDictionary
280
     1
281
     1
  3
ACAD_XREC_ROUNDTRIP
360
122
  0
DICTIONARY
  5
129
330
39
100
AcDbDictionary
280
     1
281
     1
  3
ACAD_XREC_ROUNDTRIP
360
12A
  0
DICTIONARY
  5
11B
330
32
100
AcDbDictionary
280
     1
281
     1
  3
ACAD_XREC_ROUNDTRIP
360
11C
  0
DICTIONARY
  5
11F
330
34
100
AcDbDictionary
280
     1
281
     1
  3
ACAD_XREC_ROUNDTRIP
360
120
  0
DICTIONARY
  5
139
330
41
100
AcDbDictionary
280
     1
281
     1
  3
ACAD_XREC_ROUNDTRIP
360
13A
  0
DICTIONARY
  5
127
330
38
100
AcDbDictionary
280
     1
281
     1
  3
ACAD_XREC_ROUNDTRIP
360
128
  0
DICTIONARY
  5
10B
330
2A
100
AcDbDictionary
280
     1
281
     1
  3
ACAD_XREC_ROUNDTRIP
360
10C
  0
DICTIONARY
  5
10D
330
2B
100
AcDbDictionary
280
     1
281
     1
  3
ACAD_XREC_ROUNDTRIP
360
10E
  0
DICTIONARY
  5
10F
330
2C
100
AcDbDictionary
280
     1
281
     1
  3
ACAD_XREC_ROUNDTRIP
360
110
  0
DICTIONARY
  5
111
330
2D
100
AcDbDictionary
280
     1
281
     1
  3
ACAD_XREC_ROUNDTRIP
360
112
  0
DICTIONARY
  5
119
330
31
100
AcDbDictionary
280
     1
281
     1
  3
ACAD_XREC_ROUNDTRIP
360
11A
  0
DICTIONARY
  5
135
330
3F
100
AcDbDictionary
280
     1
281
     1
  3
ACAD_XREC_ROUNDTRIP
360
136
  0
DICTIONARY
  5
125
330
37
100
AcDbDictionary
280
     1
281
     1
  3
ACAD_XREC_ROUNDTRIP
360
126
  0
DICTIONARY
  5
137
330
40
100
AcDbDictionary
280
     1
281
     1
  3
ACAD_XREC_ROUNDTRIP
360
138
  0
DICTIONARY
  5
11D
330
33
100
AcDbDictionary
280
     1
281
     1
  3
ACAD_XREC_ROUNDTRIP
360
11E
  0
DICTIONARY
  5
133
330
3E
100
AcDbDictionary
280
     1
281
     1
  3
ACAD_XREC_ROUNDTRIP
360
134
  0
DICTIONARY
  5
131
330
3D
100
AcDbDictionary
280
     1
281
     1
  3
ACAD_XREC_ROUNDTRIP
360
132
  0
DICTIONARY
  5
12B
330
3A
100
AcDbDictionary
280
     1
281
     1
  3
ACAD_XREC_ROUNDTRIP
360
12C
  0
DICTIONARY
  5
12D
330
3B
100
AcDbDictionary
280
     1
281
     1
  3
ACAD_XREC_ROUNDTRIP
360
12E
  0
DICTIONARY
  5
123
330
36
100
AcDbDictionary
280
     1
281
     1
  3
ACAD_XREC_ROUNDTRIP
360
124
  0
DICTIONARY
  5
117
330
30
100
AcDbDictionary
280
     1
281
     1
  3
ACAD_XREC_ROUNDTRIP
360
118
  0
DICTIONARY
  5
12F
330
3C
100
AcDbDictionary
280
     1
281
     1
  3
ACAD_XREC_ROUNDTRIP
360
130
  0
XRECORD
  5
140
102
{ACAD_REACTORS
330
13F
102
}
330
13F
100
AcDbXrecord
280
     1
102
DISPLAYNAME
  1
Imperial24
102
FLAGS
 90
        0
  0
XRECORD
  5
1C
102
{ACAD_REACTORS
330
1A
102
}
330
1A
100
AcDbXrecord
280
     1
270
     1
271
     1
  0
XRECORD
  5
1B
102
{ACAD_REACTORS
330
1A
102
}
330
1A
100
AcDbXrecord
280
     1
270
     1
271
     1
  0
XRECORD
  5
1F
102
{ACAD_REACTORS
330
1A
102
}
330
1A
100
AcDbXrecord
280
     1
270
     1
271
     1
  0
XRECORD
  5
1E
102
{ACAD_REACTORS
330
1A
102
}
330
1A
100
AcDbXrecord
280
     1
270
     1
271
     1
  0
XRECORD
  5
20
102
{ACAD_REACTORS
330
1A
102
}
330
1A
100
AcDbXrecord
280
     1
270
     1
271
     1
  0
XRECORD
  5
1D
102
{ACAD_REACTORS
330
1A
102
}
330
1A
100
AcDbXrecord
280
     1
270
     1
271
     1
  0
XRECORD
  5
14
102
{ACAD_REACTORS
330
12
102
}
330
12
100
AcDbXrecord
280
     1
270
     1
271
     1
  0
XRECORD
  5
13
102
{ACAD_REACTORS
330
12
102
}
330
12
100
AcDbXrecord
280
     1
270
     1
271
     1
  0
XRECORD
  5
17
102
{ACAD_REACTORS
330
12
102
}
330
12
100
AcDbXrecord
280
     1
270
     1
271
     1
  0
XRECORD
  5
16
102
{ACAD_REACTORS
330
12
102
}
330
12
100
AcDbXrecord
280
     1
270
     1
271
     1
  0
XRECORD
  5
18
102
{ACAD_REACTORS
330
12
102
}
330
12
100
AcDbXrecord
280
     1
270
     1
271
     1
  0
XRECORD
  5
15
102
{ACAD_REACTORS
330
12
102
}
330
12
100
AcDbXrecord
280
     1
270
     1
271
     1
  0
XRECORD
  5
24
102
{ACAD_REACTORS
330
22
102
}
330
22
100
AcDbXrecord
280
     1
270
     1
271
     1
  0
XRECORD
  5
23
102
{ACAD_REACTORS
330
22
102
}
330
22
100
AcDbXrecord
280
     1
270
     1
271
     1
  0
XRECORD
  5
27
102
{ACAD_REACTORS
330
22
102
}
330
22
100
AcDbXrecord
280
     1
270
     1
271
     1
  0
XRECORD
  5
26
102
{ACAD_REACTORS
330
22
102
}
330
22
100
AcDbXrecord
280
     1
270
     1
271
     1
  0
XRECORD
  5
28
102
{ACAD_REACTORS
330
22
102
}
330
22
100
AcDbXrecord
280
     1
270
     1
271
     1
  0
XRECORD
  5
25
102
{ACAD_REACTORS
330
22
102
}
330
22
100
AcDbXrecord
280
     1
270
     1
271
     1
  0
XRECORD
  5
13C
102
{ACAD_REACTORS
330
13B
102
}
330
13B
100
AcDbXrecord
280
     1
102
ACAD_ROUNDTRIP_2012_MLEADER_STYLE
298
     1
  0
XRECORD
  5
13E
102
{ACAD_REACTORS
330
13D
102
}
330
13D
100
AcDbXrecord
280
     1
102
DISPLAYNAME
  1
Imperial24
102
FLAGS
 90
        0
  0
CELLSTYLEMAP
  5
109
102
{ACAD_REACTORS
330
108
102
}
330
108
100
AcDbCellStyleMap
 90
        3
300
CELLSTYLE
  1
TABLEFORMAT_BEGIN
 90
        5
170
     1
 91
        0
 92
    32768
 62
   257
 93
        1
300
CONTENTFORMAT
  1
CONTENTFORMAT_BEGIN
 90
        0
 91
        0
 92
      512
 93
        0
300

 40
0.0
140
1.0
 94
        5
 62
     0
340
55
144
0.25
309
CONTENTFORMAT_END
171
     0
 94
        0
309
TABLEFORMAT_END
  1
CELLSTYLE_BEGIN
 90
        1
 91
        1
300
_TITLE
309
CELLSTYLE_END
300
CELLSTYLE
  1
TABLEFORMAT_BEGIN
 90
        5
170
     1
 91
        0
 92
        0
 62
   257
 93
        1
300
CONTENTFORMAT
  1
CONTENTFORMAT_BEGIN
 90
        0
 91
        0
 92
      512
 93
        0
300

 40
0.0
140
1.0
 94
        5
 62
     0
340
55
144
0.18
309
CONTENTFORMAT_END
171
     0
 94
        0
309
TABLEFORMAT_END
  1
CELLSTYLE_BEGIN
 90
        2
 91
        1
300
_HEADER
309
CELLSTYLE_END
300
CELLSTYLE
  1
TABLEFORMAT_BEGIN
 90
        5
170
     1
 91
        0
 92
        0
 62
   257
 93
        1
300
CONTENTFORMAT
  1
CONTENTFORMAT_BEGIN
 90
        0
 91
        0
 92
      512
 93
        0
300

 40
0.0
140
1.0
 94
        2
 62
     0
340
55
144
0.18
309
CONTENTFORMAT_END
171
     0
 94
        0
309
TABLEFORMAT_END
  1
CELLSTYLE_BEGIN
 90
        3
 91
        2
300
_DATA
309
CELLSTYLE_END
  0
XRECORD
  5
116
102
{ACAD_REACTORS
330
115
102
}
330
115
100
AcDbXrecord
280
     1
102
RTVSPost2010Prop28
280
     1
102
RTVSPost2010PropOp28
 70
     1
102
RTVSPost2010Prop29
280
     1
102
RTVSPost2010PropOp29
 70
     1
102
RTVSPost2010Prop30
280
     0
102
RTVSPost2010PropOp30
 70
     1
102
RTVSPost2010Prop31
280
     0
102
RTVSPost2010PropOp31
 70
     1
102
RTVSPost2010Prop32
280
     0
102
RTVSPost2010PropOp32
 70
     1
102
RTVSPost2010Prop33
280
     0
102
RTVSPost2010PropOp33
 70
     1
102
RTVSPost2010Prop34
280
     0
102
RTVSPost2010PropOp34
 70
     1
102
RTVSPost2010Prop35
280
     0
102
RTVSPost2010PropOp35
 70
     1
102
RTVSPost2010Prop36
280
     0
102
RTVSPost2010PropOp36
 70
     1
102
RTVSPost2010Prop37
 90
       50
102
RTVSPost2010PropOp37
 70
     1
102
RTVSPost2010Prop38
140
0.0
102
RTVSPost2010PropOp38
 70
     1
102
RTVSPost2010Prop39
140
1.0
102
RTVSPost2010PropOp39
 70
     1
102
RTVSPost2010Prop40
 90
        0
102
RTVSPost2010PropOp40
 70
     1
102
RTVSPost2010Prop41ColorIndex
 90
       18
102
RTVSPost2010Prop41ColorRGB
 90
        0
102
RTVSPost2010PropOp41
 70
     1
102
RTVSPost2010Prop42
 90
       50
102
RTVSPost2010PropOp42
 70
     1
102
RTVSPost2010Prop43
 90
        3
102
RTVSPost2010PropOp43
 70
     1
102
RTVSPost2010Prop44ColorIndex
 90
        5
102
RTVSPost2010Prop44ColorRGB
 90
      255
102
RTVSPost2010PropOp44
 70
     1
102
RTVSPost2010Prop45
280
     0
102
RTVSPost2010PropOp45
 70
     1
102
RTVSPost2010Prop46
 90
       50
102
RTVSPost2010PropOp46
 70
     1
102
RTVSPost2010Prop47
 90
       50
102
RTVSPost2010PropOp47
 70
     1
102
RTVSPost2010Prop48
 90
       50
102
RTVSPost2010PropOp48
 70
     1
102
RTVSPost2010Prop49
280
     0
102
RTVSPost2010PropOp49
 70
     1
102
RTVSPost2010Prop50
 90
       50
102
RTVSPost2010PropOp50
 70
     1
102
RTVSPost2010Prop51ColorIndex
 90
      256
102
RTVSPost2010Prop51ColorRGB
 90
-16777216
102
RTVSPost2010PropOp51
 70
     0
102
RTVSPost2010Prop52
140
1.0
102
RTVSPost2010PropOp52
 70
     0
102
RTVSPost2010Prop53
 90
        2
102
RTVSPost2010PropOp53
 70
     1
102
RTVSPost2010Prop54
  1
strokes_ogs.tif
102
RTVSPost2010PropOp54
 70
     1
102
RTVSPost2010Prop55
280
     0
102
RTVSPost2010PropOp55
 70
     1
102
RTVSPost2010Prop56
140
1.0
102
RTVSPost2010PropOp56
 70
     1
102
RTVSPost2010Prop57
140
1.0
102
RTVSPost2010PropOp57
 70
     1
  0
XRECORD
  5
114
102
{ACAD_REACTORS
330
113
102
}
330
113
100
AcDbXrecord
280
     1
102
RTVSPost2010Prop28
280
     0
102
RTVSPost2010PropOp28
 70
     1
102
RTVSPost2010Prop29
280
     1
102
RTVSPost2010PropOp29
 70
     1
102
RTVSPost2010Prop30
280
     1
102
RTVSPost2010PropOp30
 70
     1
102
RTVSPost2010Prop31
280
     0
102
RTVSPost2010PropOp31
 70
     1
102
RTVSPost2010Prop32
280
     0
102
RTVSPost2010PropOp32
 70
     1
102
RTVSPost2010Prop33
280
     0
102
RTVSPost2010PropOp33
 70
     1
102
RTVSPost2010Prop34
280
     0
102
RTVSPost2010PropOp34
 70
     1
102
RTVSPost2010Prop35
280
     0
102
RTVSPost2010PropOp35
 70
     1
102
RTVSPost2010Prop36
280
     0
102
RTVSPost2010PropOp36
 70
     1
102
RTVSPost2010Prop37
 90
       50
102
RTVSPost2010PropOp37
 70
     1
102
RTVSPost2010Prop38
140
0.0
102
RTVSPost2010PropOp38
 70
     1
102
RTVSPost2010Prop39
140
1.0
102
RTVSPost2010PropOp39
 70
     1
102
RTVSPost2010Prop40
 90
        0
102
RTVSPost2010PropOp40
 70
     1
102
RTVSPost2010Prop41ColorIndex
 90
       18
102
RTVSPost2010Prop41ColorRGB
 90
        0
102
RTVSPost2010PropOp41
 70
     1
102
RTVSPost2010Prop42
 90
       50
102
RTVSPost2010PropOp42
 70
     1
102
RTVSPost2010Prop43
 90
        3
102
RTVSPost2010PropOp43
 70
     1
102
RTVSPost2010Prop44ColorIndex
 90
        5
102
RTVSPost2010Prop44ColorRGB
 90
      255
102
RTVSPost2010PropOp44
 70
     1
102
RTVSPost2010Prop45
280
     0
102
RTVSPost2010PropOp45
 70
     1
102
RTVSPost2010Prop46
 90
       50
102
RTVSPost2010PropOp46
 70
     1
102
RTVSPost2010Prop47
 90
       50
102
RTVSPost2010PropOp47
 70
     1
102
RTVSPost2010Prop48
 90
       50
102
RTVSPost2010PropOp48
 70
     1
102
RTVSPost2010Prop49
280
     0
102
RTVSPost2010PropOp49
 70
     1
102
RTVSPost2010Prop50
 90
       50
102
RTVSPost2010PropOp50
 70
     1
102
RTVSPost2010Prop51ColorIndex
 90
      256
102
RTVSPost2010Prop51ColorRGB
 90
-16777216
102
RTVSPost2010PropOp51
 70
     0
102
RTVSPost2010Prop52
140
1.0
102
RTVSPost2010PropOp52
 70
     0
102
RTVSPost2010Prop53
 90
        2
102
RTVSPost2010PropOp53
 70
     1
102
RTVSPost2010Prop54
  1
strokes_ogs.tif
102
RTVSPost2010PropOp54
 70
     1
102
RTVSPost2010Prop55
280
     0
102
RTVSPost2010PropOp55
 70
     1
102
RTVSPost2010Prop56
140
1.0
102
RTVSPost2010PropOp56
 70
     1
102
RTVSPost2010Prop57
140
1.0
102
RTVSPost2010PropOp57
 70
     1
  0
XRECORD
  5
122
102
{ACAD_REACTORS
330
121
102
}
330
121
100
AcDbXrecord
280
     1
102
RTVSPost2010Prop28
280
     0
102
RTVSPost2010PropOp28
 70
     1
102
RTVSPost2010Prop29
280
     1
102
RTVSPost2010PropOp29
 70
     1
102
RTVSPost2010Prop30
280
     1
102
RTVSPost2010PropOp30
 70
     1
102
RTVSPost2010Prop31
280
     0
102
RTVSPost2010PropOp31
 70
     1
102
RTVSPost2010Prop32
280
     0
102
RTVSPost2010PropOp32
 70
     1
102
RTVSPost2010Prop33
280
     0
102
RTVSPost2010PropOp33
 70
     1
102
RTVSPost2010Prop34
280
     0
102
RTVSPost2010PropOp34
 70
     1
102
RTVSPost2010Prop35
280
     0
102
RTVSPost2010PropOp35
 70
     1
102
RTVSPost2010Prop36
280
     0
102
RTVSPost2010PropOp36
 70
     1
102
RTVSPost2010Prop37
 90
       50
102
RTVSPost2010PropOp37
 70
     1
102
RTVSPost2010Prop38
140
0.0
102
RTVSPost2010PropOp38
 70
     1
102
RTVSPost2010Prop39
140
1.0
102
RTVSPost2010PropOp39
 70
     1
102
RTVSPost2010Prop40
 90
        0
102
RTVSPost2010PropOp40
 70
     1
102
RTVSPost2010Prop41ColorIndex
 90
       18
102
RTVSPost2010Prop41ColorRGB
 90
        0
102
RTVSPost2010PropOp41
 70
     1
102
RTVSPost2010Prop42
 90
       50
102
RTVSPost2010PropOp42
 70
     1
102
RTVSPost2010Prop43
 90
        3
102
RTVSPost2010PropOp43
 70
     1
102
RTVSPost2010Prop44ColorIndex
 90
        5
102
RTVSPost2010Prop44ColorRGB
 90
      255
102
RTVSPost2010PropOp44
 70
     1
102
RTVSPost2010Prop45
280
     0
102
RTVSPost2010PropOp45
 70
     1
102
RTVSPost2010Prop46
 90
       50
102
RTVSPost2010PropOp46
 70
     1
102
RTVSPost2010Prop47
 90
       50
102
RTVSPost2010PropOp47
 70
     1
102
RTVSPost2010Prop48
 90
       50
102
RTVSPost2010PropOp48
 70
     1
102
RTVSPost2010Prop49
280
     0
102
RTVSPost2010PropOp49
 70
     1
102
RTVSPost2010Prop50
 90
       50
102
RTVSPost2010PropOp50
 70
     1
102
RTVSPost2010Prop51ColorIndex
 90
      256
102
RTVSPost2010Prop51ColorRGB
 90
-16777216
102
RTVSPost2010PropOp51
 70
     0
102
RTVSPost2010Prop52
140
1.0
102
RTVSPost2010PropOp52
 70
     0
102
RTVSPost2010Prop53
 90
        2
102
RTVSPost2010PropOp53
 70
     1
102
RTVSPost2010Prop54
  1
strokes_ogs.tif
102
RTVSPost2010PropOp54
 70
     1
102
RTVSPost2010Prop55
280
     0
102
RTVSPost2010PropOp55
 70
     1
102
RTVSPost2010Prop56
140
1.0
102
RTVSPost2010PropOp56
 70
     1
102
RTVSPost2010Prop57
140
1.0
102
RTVSPost2010PropOp57
 70
     1
  0
XRECORD
  5
12A
102
{ACAD_REACTORS
330
129
102
}
330
129
100
AcDbXrecord
280
     1
102
RTVSPost2010Prop28
280
     0
102
RTVSPost2010PropOp28
 70
     1
102
RTVSPost2010Prop29
280
     1
102
RTVSPost2010PropOp29
 70
     1
102
RTVSPost2010Prop30
280
     1
102
RTVSPost2010PropOp30
 70
     1
102
RTVSPost2010Prop31
280
     0
102
RTVSPost2010PropOp31
 70
     1
102
RTVSPost2010Prop32
280
     0
102
RTVSPost2010PropOp32
 70
     1
102
RTVSPost2010Prop33
280
     0
102
RTVSPost2010PropOp33
 70
     1
102
RTVSPost2010Prop34
280
     0
102
RTVSPost2010PropOp34
 70
     1
102
RTVSPost2010Prop35
280
     0
102
RTVSPost2010PropOp35
 70
     1
102
RTVSPost2010Prop36
280
     0
102
RTVSPost2010PropOp36
 70
     1
102
RTVSPost2010Prop37
 90
       50
102
RTVSPost2010PropOp37
 70
     1
102
RTVSPost2010Prop38
140
0.0
102
RTVSPost2010PropOp38
 70
     1
102
RTVSPost2010Prop39
140
1.0
102
RTVSPost2010PropOp39
 70
     1
102
RTVSPost2010Prop40
 90
        0
102
RTVSPost2010PropOp40
 70
     1
102
RTVSPost2010Prop41ColorIndex
 90
       18
102
RTVSPost2010Prop41ColorRGB
 90
        0
102
RTVSPost2010PropOp41
 70
     1
102
RTVSPost2010Prop42
 90
       50
102
RTVSPost2010PropOp42
 70
     1
102
RTVSPost2010Prop43
 90
        3
102
RTVSPost2010PropOp43
 70
     1
102
RTVSPost2010Prop44ColorIndex
 90
        5
102
RTVSPost2010Prop44ColorRGB
 90
      255
102
RTVSPost2010PropOp44
 70
     1
102
RTVSPost2010Prop45
280
     0
102
RTVSPost2010PropOp45
 70
     1
102
RTVSPost2010Prop46
 90
       50
102
RTVSPost2010PropOp46
 70
     1
102
RTVSPost2010Prop47
 90
       50
102
RTVSPost2010PropOp47
 70
     1
102
RTVSPost2010Prop48
 90
       50
102
RTVSPost2010PropOp48
 70
     1
102
RTVSPost2010Prop49
280
     0
102
RTVSPost2010PropOp49
 70
     1
102
RTVSPost2010Prop50
 90
       50
102
RTVSPost2010PropOp50
 70
     1
102
RTVSPost2010Prop51ColorIndex
 90
      256
102
RTVSPost2010Prop51ColorRGB
 90
-16777216
102
RTVSPost2010PropOp51
 70
     0
102
RTVSPost2010Prop52
140
1.0
102
RTVSPost2010PropOp52
 70
     0
102
RTVSPost2010Prop53
 90
        2
102
RTVSPost2010PropOp53
 70
     1
102
RTVSPost2010Prop54
  1
strokes_ogs.tif
102
RTVSPost2010PropOp54
 70
     1
102
RTVSPost2010Prop55
280
     0
102
RTVSPost2010PropOp55
 70
     1
102
RTVSPost2010Prop56
140
1.0
102
RTVSPost2010PropOp56
 70
     1
102
RTVSPost2010Prop57
140
1.0
102
RTVSPost2010PropOp57
 70
     1
  0
XRECORD
  5
11C
102
{ACAD_REACTORS
330
11B
102
}
330
11B
100
AcDbXrecord
280
     1
102
RTVSPost2010Prop28
280
     0
102
RTVSPost2010PropOp28
 70
     1
102
RTVSPost2010Prop29
280
     1
102
RTVSPost2010PropOp29
 70
     1
102
RTVSPost2010Prop30
280
     1
102
RTVSPost2010PropOp30
 70
     1
102
RTVSPost2010Prop31
280
     0
102
RTVSPost2010PropOp31
 70
     1
102
RTVSPost2010Prop32
280
     0
102
RTVSPost2010PropOp32
 70
     1
102
RTVSPost2010Prop33
280
     0
102
RTVSPost2010PropOp33
 70
     1
102
RTVSPost2010Prop34
280
     0
102
RTVSPost2010PropOp34
 70
     1
102
RTVSPost2010Prop35
280
     0
102
RTVSPost2010PropOp35
 70
     1
102
RTVSPost2010Prop36
280
     0
102
RTVSPost2010PropOp36
 70
     1
102
RTVSPost2010Prop37
 90
       50
102
RTVSPost2010PropOp37
 70
     1
102
RTVSPost2010Prop38
140
0.0
102
RTVSPost2010PropOp38
 70
     1
102
RTVSPost2010Prop39
140
1.0
102
RTVSPost2010PropOp39
 70
     1
102
RTVSPost2010Prop40
 90
        0
102
RTVSPost2010PropOp40
 70
     1
102
RTVSPost2010Prop41ColorIndex
 90
       18
102
RTVSPost2010Prop41ColorRGB
 90
        0
102
RTVSPost2010PropOp41
 70
     1
102
RTVSPost2010Prop42
 90
       50
102
RTVSPost2010PropOp42
 70
     1
102
RTVSPost2010Prop43
 90
        3
102
RTVSPost2010PropOp43
 70
     1
102
RTVSPost2010Prop44ColorIndex
 90
        5
102
RTVSPost2010Prop44ColorRGB
 90
      255
102
RTVSPost2010PropOp44
 70
     1
102
RTVSPost2010Prop45
280
     0
102
RTVSPost2010PropOp45
 70
     1
102
RTVSPost2010Prop46
 90
       50
102
RTVSPost2010PropOp46
 70
     1
102
RTVSPost2010Prop47
 90
       50
102
RTVSPost2010PropOp47
 70
     1
102
RTVSPost2010Prop48
 90
       50
102
RTVSPost2010PropOp48
 70
     1
102
RTVSPost2010Prop49
280
     0
102
RTVSPost2010PropOp49
 70
     1
102
RTVSPost2010Prop50
 90
       50
102
RTVSPost2010PropOp50
 70
     1
102
RTVSPost2010Prop51ColorIndex
 90
      256
102
RTVSPost2010Prop51ColorRGB
 90
-16777216
102
RTVSPost2010PropOp51
 70
     0
102
RTVSPost2010Prop52
140
1.0
102
RTVSPost2010PropOp52
 70
     0
102
RTVSPost2010Prop53
 90
        2
102
RTVSPost2010PropOp53
 70
     1
102
RTVSPost2010Prop54
  1
strokes_ogs.tif
102
RTVSPost2010PropOp54
 70
     1
102
RTVSPost2010Prop55
280
     0
102
RTVSPost2010PropOp55
 70
     1
102
RTVSPost2010Prop56
140
1.0
102
RTVSPost2010PropOp56
 70
     1
102
RTVSPost2010Prop57
140
1.0
102
RTVSPost2010PropOp57
 70
     1
  0
XRECORD
  5
120
102
{ACAD_REACTORS
330
11F
102
}
330
11F
100
AcDbXrecord
280
     1
102
RTVSPost2010Prop28
280
     0
102
RTVSPost2010PropOp28
 70
     1
102
RTVSPost2010Prop29
280
     1
102
RTVSPost2010PropOp29
 70
     1
102
RTVSPost2010Prop30
280
     1
102
RTVSPost2010PropOp30
 70
     1
102
RTVSPost2010Prop31
280
     0
102
RTVSPost2010PropOp31
 70
     1
102
RTVSPost2010Prop32
280
     0
102
RTVSPost2010PropOp32
 70
     1
102
RTVSPost2010Prop33
280
     0
102
RTVSPost2010PropOp33
 70
     1
102
RTVSPost2010Prop34
280
     0
102
RTVSPost2010PropOp34
 70
     1
102
RTVSPost2010Prop35
280
     0
102
RTVSPost2010PropOp35
 70
     1
102
RTVSPost2010Prop36
280
     0
102
RTVSPost2010PropOp36
 70
     1
102
RTVSPost2010Prop37
 90
       50
102
RTVSPost2010PropOp37
 70
     1
102
RTVSPost2010Prop38
140
0.0
102
RTVSPost2010PropOp38
 70
     1
102
RTVSPost2010Prop39
140
1.0
102
RTVSPost2010PropOp39
 70
     1
102
RTVSPost2010Prop40
 90
        0
102
RTVSPost2010PropOp40
 70
     1
102
RTVSPost2010Prop41ColorIndex
 90
       18
102
RTVSPost2010Prop41ColorRGB
 90
        0
102
RTVSPost2010PropOp41
 70
     1
102
RTVSPost2010Prop42
 90
       50
102
RTVSPost2010PropOp42
 70
     1
102
RTVSPost2010Prop43
 90
        3
102
RTVSPost2010PropOp43
 70
     1
102
RTVSPost2010Prop44ColorIndex
 90
        5
102
RTVSPost2010Prop44ColorRGB
 90
      255
102
RTVSPost2010PropOp44
 70
     1
102
RTVSPost2010Prop45
280
     0
102
RTVSPost2010PropOp45
 70
     1
102
RTVSPost2010Prop46
 90
       50
102
RTVSPost2010PropOp46
 70
     1
102
RTVSPost2010Prop47
 90
       50
102
RTVSPost2010PropOp47
 70
     1
102
RTVSPost2010Prop48
 90
       50
102
RTVSPost2010PropOp48
 70
     1
102
RTVSPost2010Prop49
280
     0
102
RTVSPost2010PropOp49
 70
     1
102
RTVSPost2010Prop50
 90
       50
102
RTVSPost2010PropOp50
 70
     1
102
RTVSPost2010Prop51ColorIndex
 90
      256
102
RTVSPost2010Prop51ColorRGB
 90
-16777216
102
RTVSPost2010PropOp51
 70
     0
102
RTVSPost2010Prop52
140
1.0
102
RTVSPost2010PropOp52
 70
     0
102
RTVSPost2010Prop53
 90
        2
102
RTVSPost2010PropOp53
 70
     1
102
RTVSPost2010Prop54
  1
strokes_ogs.tif
102
RTVSPost2010PropOp54
 70
     1
102
RTVSPost2010Prop55
280
     0
102
RTVSPost2010PropOp55
 70
     1
102
RTVSPost2010Prop56
140
1.0
102
RTVSPost2010PropOp56
 70
     1
102
RTVSPost2010Prop57
140
1.0
102
RTVSPost2010PropOp57
 70
     1
  0
XRECORD
  5
13A
102
{ACAD_REACTORS
330
139
102
}
330
139
100
AcDbXrecord
280
     1
102
RTVSPost2010Prop28
280
     0
102
RTVSPost2010PropOp28
 70
     0
102
RTVSPost2010Prop29
280
     1
102
RTVSPost2010PropOp29
 70
     0
102
RTVSPost2010Prop30
280
     1
102
RTVSPost2010PropOp30
 70
     0
102
RTVSPost2010Prop31
280
     0
102
RTVSPost2010PropOp31
 70
     0
102
RTVSPost2010Prop32
280
     0
102
RTVSPost2010PropOp32
 70
     0
102
RTVSPost2010Prop33
280
     0
102
RTVSPost2010PropOp33
 70
     0
102
RTVSPost2010Prop34
280
     0
102
RTVSPost2010PropOp34
 70
     0
102
RTVSPost2010Prop35
280
     0
102
RTVSPost2010PropOp35
 70
     0
102
RTVSPost2010Prop36
280
     0
102
RTVSPost2010PropOp36
 70
     0
102
RTVSPost2010Prop37
 90
       50
102
RTVSPost2010PropOp37
 70
     0
102
RTVSPost2010Prop38
140
0.0
102
RTVSPost2010PropOp38
 70
     0
102
RTVSPost2010Prop39
140
1.0
102
RTVSPost2010PropOp39
 70
     0
102
RTVSPost2010Prop40
 90
        0
102
RTVSPost2010PropOp40
 70
     0
102
RTVSPost2010Prop41ColorIndex
 90
       18
102
RTVSPost2010Prop41ColorRGB
 90
        0
102
RTVSPost2010PropOp41
 70
     0
102
RTVSPost2010Prop42
 90
       50
102
RTVSPost2010PropOp42
 70
     0
102
RTVSPost2010Prop43
 90
        3
102
RTVSPost2010PropOp43
 70
     0
102
RTVSPost2010Prop44ColorIndex
 90
        5
102
RTVSPost2010Prop44ColorRGB
 90
      255
102
RTVSPost2010PropOp44
 70
     0
102
RTVSPost2010Prop45
280
     0
102
RTVSPost2010PropOp45
 70
     0
102
RTVSPost2010Prop46
 90
       50
102
RTVSPost2010PropOp46
 70
     0
102
RTVSPost2010Prop47
 90
       50
102
RTVSPost2010PropOp47
 70
     0
102
RTVSPost2010Prop48
 90
       50
102
RTVSPost2010PropOp48
 70
     0
102
RTVSPost2010Prop49
280
     0
102
RTVSPost2010PropOp49
 70
     0
102
RTVSPost2010Prop50
 90
       50
102
RTVSPost2010PropOp50
 70
     0
102
RTVSPost2010Prop51ColorIndex
 90
      256
102
RTVSPost2010Prop51ColorRGB
 90
-16777216
102
RTVSPost2010PropOp51
 70
     0
102
RTVSPost2010Prop52
140
1.0
102
RTVSPost2010PropOp52
 70
     0
102
RTVSPost2010Prop53
 90
        2
102
RTVSPost2010PropOp53
 70
     0
102
RTVSPost2010Prop54
  1
strokes_ogs.tif
102
RTVSPost2010PropOp54
 70
     0
102
RTVSPost2010Prop55
280
     0
102
RTVSPost2010PropOp55
 70
     0
102
RTVSPost2010Prop56
140
1.0
102
RTVSPost2010PropOp56
 70
     0
102
RTVSPost2010Prop57
140
1.0
102
RTVSPost2010PropOp57
 70
     0
  0
XRECORD
  5
128
102
{ACAD_REACTORS
330
127
102
}
330
127
100
AcDbXrecord
280
     1
102
RTVSPost2010Prop28
280
     0
102
RTVSPost2010PropOp28
 70
     1
102
RTVSPost2010Prop29
280
     1
102
RTVSPost2010PropOp29
 70
     1
102
RTVSPost2010Prop30
280
     1
102
RTVSPost2010PropOp30
 70
     1
102
RTVSPost2010Prop31
280
     0
102
RTVSPost2010PropOp31
 70
     1
102
RTVSPost2010Prop32
280
     0
102
RTVSPost2010PropOp32
 70
     1
102
RTVSPost2010Prop33
280
     0
102
RTVSPost2010PropOp33
 70
     1
102
RTVSPost2010Prop34
280
     0
102
RTVSPost2010PropOp34
 70
     1
102
RTVSPost2010Prop35
280
     0
102
RTVSPost2010PropOp35
 70
     1
102
RTVSPost2010Prop36
280
     0
102
RTVSPost2010PropOp36
 70
     1
102
RTVSPost2010Prop37
 90
       50
102
RTVSPost2010PropOp37
 70
     1
102
RTVSPost2010Prop38
140
0.0
102
RTVSPost2010PropOp38
 70
     1
102
RTVSPost2010Prop39
140
1.0
102
RTVSPost2010PropOp39
 70
     1
102
RTVSPost2010Prop40
 90
        0
102
RTVSPost2010PropOp40
 70
     1
102
RTVSPost2010Prop41ColorIndex
 90
       18
102
RTVSPost2010Prop41ColorRGB
 90
        0
102
RTVSPost2010PropOp41
 70
     1
102
RTVSPost2010Prop42
 90
       50
102
RTVSPost2010PropOp42
 70
     1
102
RTVSPost2010Prop43
 90
        3
102
RTVSPost2010PropOp43
 70
     1
102
RTVSPost2010Prop44ColorIndex
 90
        5
102
RTVSPost2010Prop44ColorRGB
 90
      255
102
RTVSPost2010PropOp44
 70
     1
102
RTVSPost2010Prop45
280
     0
102
RTVSPost2010PropOp45
 70
     1
102
RTVSPost2010Prop46
 90
       50
102
RTVSPost2010PropOp46
 70
     1
102
RTVSPost2010Prop47
 90
       50
102
RTVSPost2010PropOp47
 70
     1
102
RTVSPost2010Prop48
 90
       50
102
RTVSPost2010PropOp48
 70
     1
102
RTVSPost2010Prop49
280
     0
102
RTVSPost2010PropOp49
 70
     1
102
RTVSPost2010Prop50
 90
       50
102
RTVSPost2010PropOp50
 70
     1
102
RTVSPost2010Prop51ColorIndex
 90
      256
102
RTVSPost2010Prop51ColorRGB
 90
-16777216
102
RTVSPost2010PropOp51
 70
     0
102
RTVSPost2010Prop52
140
1.0
102
RTVSPost2010PropOp52
 70
     0
102
RTVSPost2010Prop53
 90
        2
102
RTVSPost2010PropOp53
 70
     1
102
RTVSPost2010Prop54
  1
strokes_ogs.tif
102
RTVSPost2010PropOp54
 70
     1
102
RTVSPost2010Prop55
280
     0
102
RTVSPost2010PropOp55
 70
     1
102
RTVSPost2010Prop56
140
1.0
102
RTVSPost2010PropOp56
 70
     1
102
RTVSPost2010Prop57
140
1.0
102
RTVSPost2010PropOp57
 70
     1
  0
XRECORD
  5
10C
102
{ACAD_REACTORS
330
10B
102
}
330
10B
100
AcDbXrecord
280
     1
102
RTVSPost2010Prop28
280
     0
102
RTVSPost2010PropOp28
 70
     1
102
RTVSPost2010Prop29
280
     1
102
RTVSPost2010PropOp29
 70
     1
102
RTVSPost2010Prop30
280
     1
102
RTVSPost2010PropOp30
 70
     1
102
RTVSPost2010Prop31
280
     0
102
RTVSPost2010PropOp31
 70
     1
102
RTVSPost2010Prop32
280
     0
102
RTVSPost2010PropOp32
 70
     1
102
RTVSPost2010Prop33
280
     0
102
RTVSPost2010PropOp33
 70
     1
102
RTVSPost2010Prop34
280
     0
102
RTVSPost2010PropOp34
 70
     1
102
RTVSPost2010Prop35
280
     0
102
RTVSPost2010PropOp35
 70
     1
102
RTVSPost2010Prop36
280
     0
102
RTVSPost2010PropOp36
 70
     1
102
RTVSPost2010Prop37
 90
       50
102
RTVSPost2010PropOp37
 70
     1
102
RTVSPost2010Prop38
140
0.0
102
RTVSPost2010PropOp38
 70
     1
102
RTVSPost2010Prop39
140
1.0
102
RTVSPost2010PropOp39
 70
     1
102
RTVSPost2010Prop40
 90
        0
102
RTVSPost2010PropOp40
 70
     1
102
RTVSPost2010Prop41ColorIndex
 90
       18
102
RTVSPost2010Prop41ColorRGB
 90
        0
102
RTVSPost2010PropOp41
 70
     1
102
RTVSPost2010Prop42
 90
       50
102
RTVSPost2010PropOp42
 70
     1
102
RTVSPost2010Prop43
 90
        3
102
RTVSPost2010PropOp43
 70
     1
102
RTVSPost2010Prop44ColorIndex
 90
        5
102
RTVSPost2010Prop44ColorRGB
 90
      255
102
RTVSPost2010PropOp44
 70
     1
102
RTVSPost2010Prop45
280
     0
102
RTVSPost2010PropOp45
 70
     1
102
RTVSPost2010Prop46
 90
       50
102
RTVSPost2010PropOp46
 70
     1
102
RTVSPost2010Prop47
 90
       50
102
RTVSPost2010PropOp47
 70
     1
102
RTVSPost2010Prop48
 90
       50
102
RTVSPost2010PropOp48
 70
     1
102
RTVSPost2010Prop49
280
     0
102
RTVSPost2010PropOp49
 70
     1
102
RTVSPost2010Prop50
 90
       50
102
RTVSPost2010PropOp50
 70
     1
102
RTVSPost2010Prop51ColorIndex
 90
      256
102
RTVSPost2010Prop51ColorRGB
 90
-16777216
102
RTVSPost2010PropOp51
 70
     0
102
RTVSPost2010Prop52
140
1.0
102
RTVSPost2010PropOp52
 70
     0
102
RTVSPost2010Prop53
 90
        2
102
RTVSPost2010PropOp53
 70
     1
102
RTVSPost2010Prop54
  1
strokes_ogs.tif
102
RTVSPost2010PropOp54
 70
     1
102
RTVSPost2010Prop55
280
     0
102
RTVSPost2010PropOp55
 70
     1
102
RTVSPost2010Prop56
140
1.0
102
RTVSPost2010PropOp56
 70
     1
102
RTVSPost2010Prop57
140
1.0
102
RTVSPost2010PropOp57
 70
     1
  0
XRECORD
  5
10E
102
{ACAD_REACTORS
330
10D
102
}
330
10D
100
AcDbXrecord
280
     1
102
RTVSPost2010Prop28
280
     0
102
RTVSPost2010PropOp28
 70
     1
102
RTVSPost2010Prop29
280
     1
102
RTVSPost2010PropOp29
 70
     1
102
RTVSPost2010Prop30
280
     1
102
RTVSPost2010PropOp30
 70
     1
102
RTVSPost2010Prop31
280
     0
102
RTVSPost2010PropOp31
 70
     1
102
RTVSPost2010Prop32
280
     0
102
RTVSPost2010PropOp32
 70
     1
102
RTVSPost2010Prop33
280
     0
102
RTVSPost2010PropOp33
 70
     1
102
RTVSPost2010Prop34
280
     0
102
RTVSPost2010PropOp34
 70
     1
102
RTVSPost2010Prop35
280
     0
102
RTVSPost2010PropOp35
 70
     1
102
RTVSPost2010Prop36
280
     0
102
RTVSPost2010PropOp36
 70
     1
102
RTVSPost2010Prop37
 90
       50
102
RTVSPost2010PropOp37
 70
     1
102
RTVSPost2010Prop38
140
0.0
102
RTVSPost2010PropOp38
 70
     1
102
RTVSPost2010Prop39
140
1.0
102
RTVSPost2010PropOp39
 70
     1
102
RTVSPost2010Prop40
 90
        0
102
RTVSPost2010PropOp40
 70
     1
102
RTVSPost2010Prop41ColorIndex
 90
       18
102
RTVSPost2010Prop41ColorRGB
 90
        0
102
RTVSPost2010PropOp41
 70
     1
102
RTVSPost2010Prop42
 90
       50
102
RTVSPost2010PropOp42
 70
     1
102
RTVSPost2010Prop43
 90
        3
102
RTVSPost2010PropOp43
 70
     1
102
RTVSPost2010Prop44ColorIndex
 90
        5
102
RTVSPost2010Prop44ColorRGB
 90
      255
102
RTVSPost2010PropOp44
 70
     1
102
RTVSPost2010Prop45
280
     0
102
RTVSPost2010PropOp45
 70
     1
102
RTVSPost2010Prop46
 90
       50
102
RTVSPost2010PropOp46
 70
     1
102
RTVSPost2010Prop47
 90
       50
102
RTVSPost2010PropOp47
 70
     1
102
RTVSPost2010Prop48
 90
       50
102
RTVSPost2010PropOp48
 70
     1
102
RTVSPost2010Prop49
280
     0
102
RTVSPost2010PropOp49
 70
     1
102
RTVSPost2010Prop50
 90
       50
102
RTVSPost2010PropOp50
 70
     1
102
RTVSPost2010Prop51ColorIndex
 90
      256
102
RTVSPost2010Prop51ColorRGB
 90
-16777216
102
RTVSPost2010PropOp51
 70
     0
102
RTVSPost2010Prop52
140
1.0
102
RTVSPost2010PropOp52
 70
     0
102
RTVSPost2010Prop53
 90
        2
102
RTVSPost2010PropOp53
 70
     1
102
RTVSPost2010Prop54
  1
strokes_ogs.tif
102
RTVSPost2010PropOp54
 70
     1
102
RTVSPost2010Prop55
280
     0
102
RTVSPost2010PropOp55
 70
     1
102
RTVSPost2010Prop56
140
1.0
102
RTVSPost2010PropOp56
 70
     1
102
RTVSPost2010Prop57
140
1.0
102
RTVSPost2010PropOp57
 70
     1
  0
XRECORD
  5
110
102
{ACAD_REACTORS
330
10F
102
}
330
10F
100
AcDbXrecord
280
     1
102
RTVSPost2010Prop28
280
     0
102
RTVSPost2010PropOp28
 70
     1
102
RTVSPost2010Prop29
280
     1
102
RTVSPost2010PropOp29
 70
     1
102
RTVSPost2010Prop30
280
     1
102
RTVSPost2010PropOp30
 70
     1
102
RTVSPost2010Prop31
280
     0
102
RTVSPost2010PropOp31
 70
     1
102
RTVSPost2010Prop32
280
     0
102
RTVSPost2010PropOp32
 70
     1
102
RTVSPost2010Prop33
280
     0
102
RTVSPost2010PropOp33
 70
     1
102
RTVSPost2010Prop34
280
     0
102
RTVSPost2010PropOp34
 70
     1
102
RTVSPost2010Prop35
280
     0
102
RTVSPost2010PropOp35
 70
     1
102
RTVSPost2010Prop36
280
     0
102
RTVSPost2010PropOp36
 70
     1
102
RTVSPost2010Prop37
 90
       50
102
RTVSPost2010PropOp37
 70
     1
102
RTVSPost2010Prop38
140
0.0
102
RTVSPost2010PropOp38
 70
     1
102
RTVSPost2010Prop39
140
1.0
102
RTVSPost2010PropOp39
 70
     1
102
RTVSPost2010Prop40
 90
        0
102
RTVSPost2010PropOp40
 70
     1
102
RTVSPost2010Prop41ColorIndex
 90
       18
102
RTVSPost2010Prop41ColorRGB
 90
        0
102
RTVSPost2010PropOp41
 70
     1
102
RTVSPost2010Prop42
 90
       50
102
RTVSPost2010PropOp42
 70
     1
102
RTVSPost2010Prop43
 90
        3
102
RTVSPost2010PropOp43
 70
     1
102
RTVSPost2010Prop44ColorIndex
 90
        5
102
RTVSPost2010Prop44ColorRGB
 90
      255
102
RTVSPost2010PropOp44
 70
     1
102
RTVSPost2010Prop45
280
     0
102
RTVSPost2010PropOp45
 70
     1
102
RTVSPost2010Prop46
 90
       50
102
RTVSPost2010PropOp46
 70
     1
102
RTVSPost2010Prop47
 90
       50
102
RTVSPost2010PropOp47
 70
     1
102
RTVSPost2010Prop48
 90
       50
102
RTVSPost2010PropOp48
 70
     1
102
RTVSPost2010Prop49
280
     0
102
RTVSPost2010PropOp49
 70
     1
102
RTVSPost2010Prop50
 90
       50
102
RTVSPost2010PropOp50
 70
     1
102
RTVSPost2010Prop51ColorIndex
 90
      256
102
RTVSPost2010Prop51ColorRGB
 90
-16777216
102
RTVSPost2010PropOp51
 70
     0
102
RTVSPost2010Prop52
140
1.0
102
RTVSPost2010PropOp52
 70
     0
102
RTVSPost2010Prop53
 90
        2
102
RTVSPost2010PropOp53
 70
     1
102
RTVSPost2010Prop54
  1
strokes_ogs.tif
102
RTVSPost2010PropOp54
 70
     1
102
RTVSPost2010Prop55
280
     0
102
RTVSPost2010PropOp55
 70
     1
102
RTVSPost2010Prop56
140
1.0
102
RTVSPost2010PropOp56
 70
     1
102
RTVSPost2010Prop57
140
1.0
102
RTVSPost2010PropOp57
 70
     1
  0
XRECORD
  5
112
102
{ACAD_REACTORS
330
111
102
}
330
111
100
AcDbXrecord
280
     1
102
RTVSPost2010Prop28
280
     0
102
RTVSPost2010PropOp28
 70
     1
102
RTVSPost2010Prop29
280
     1
102
RTVSPost2010PropOp29
 70
     1
102
RTVSPost2010Prop30
280
     1
102
RTVSPost2010PropOp30
 70
     1
102
RTVSPost2010Prop31
280
     0
102
RTVSPost2010PropOp31
 70
     1
102
RTVSPost2010Prop32
280
     0
102
RTVSPost2010PropOp32
 70
     1
102
RTVSPost2010Prop33
280
     0
102
RTVSPost2010PropOp33
 70
     1
102
RTVSPost2010Prop34
280
     0
102
RTVSPost2010PropOp34
 70
     1
102
RTVSPost2010Prop35
280
     0
102
RTVSPost2010PropOp35
 70
     1
102
RTVSPost2010Prop36
280
     0
102
RTVSPost2010PropOp36
 70
     1
102
RTVSPost2010Prop37
 90
       50
102
RTVSPost2010PropOp37
 70
     1
102
RTVSPost2010Prop38
140
0.0
102
RTVSPost2010PropOp38
 70
     1
102
RTVSPost2010Prop39
140
1.0
102
RTVSPost2010PropOp39
 70
     1
102
RTVSPost2010Prop40
 90
        0
102
RTVSPost2010PropOp40
 70
     1
102
RTVSPost2010Prop41ColorIndex
 90
       18
102
RTVSPost2010Prop41ColorRGB
 90
        0
102
RTVSPost2010PropOp41
 70
     1
102
RTVSPost2010Prop42
 90
       50
102
RTVSPost2010PropOp42
 70
     1
102
RTVSPost2010Prop43
 90
        3
102
RTVSPost2010PropOp43
 70
     1
102
RTVSPost2010Prop44ColorIndex
 90
        5
102
RTVSPost2010Prop44ColorRGB
 90
      255
102
RTVSPost2010PropOp44
 70
     1
102
RTVSPost2010Prop45
280
     0
102
RTVSPost2010PropOp45
 70
     1
102
RTVSPost2010Prop46
 90
       50
102
RTVSPost2010PropOp46
 70
     1
102
RTVSPost2010Prop47
 90
       50
102
RTVSPost2010PropOp47
 70
     1
102
RTVSPost2010Prop48
 90
       50
102
RTVSPost2010PropOp48
 70
     1
102
RTVSPost2010Prop49
280
     0
102
RTVSPost2010PropOp49
 70
     1
102
RTVSPost2010Prop50
 90
       50
102
RTVSPost2010PropOp50
 70
     1
102
RTVSPost2010Prop51ColorIndex
 90
      256
102
RTVSPost2010Prop51ColorRGB
 90
-16777216
102
RTVSPost2010PropOp51
 70
     0
102
RTVSPost2010Prop52
140
1.0
102
RTVSPost2010PropOp52
 70
     0
102
RTVSPost2010Prop53
 90
        2
102
RTVSPost2010PropOp53
 70
     1
102
RTVSPost2010Prop54
  1
strokes_ogs.tif
102
RTVSPost2010PropOp54
 70
     1
102
RTVSPost2010Prop55
280
     0
102
RTVSPost2010PropOp55
 70
     1
102
RTVSPost2010Prop56
140
1.0
102
RTVSPost2010PropOp56
 70
     1
102
RTVSPost2010Prop57
140
1.0
102
RTVSPost2010PropOp57
 70
     1
  0
XRECORD
  5
11A
102
{ACAD_REACTORS
330
119
102
}
330
119
100
AcDbXrecord
280
     1
102
RTVSPost2010Prop28
280
     0
102
RTVSPost2010PropOp28
 70
     1
102
RTVSPost2010Prop29
280
     1
102
RTVSPost2010PropOp29
 70
     1
102
RTVSPost2010Prop30
280
     1
102
RTVSPost2010PropOp30
 70
     1
102
RTVSPost2010Prop31
280
     0
102
RTVSPost2010PropOp31
 70
     1
102
RTVSPost2010Prop32
280
     0
102
RTVSPost2010PropOp32
 70
     1
102
RTVSPost2010Prop33
280
     0
102
RTVSPost2010PropOp33
 70
     1
102
RTVSPost2010Prop34
280
     0
102
RTVSPost2010PropOp34
 70
     1
102
RTVSPost2010Prop35
280
     0
102
RTVSPost2010PropOp35
 70
     1
102
RTVSPost2010Prop36
280
     0
102
RTVSPost2010PropOp36
 70
     1
102
RTVSPost2010Prop37
 90
       50
102
RTVSPost2010PropOp37
 70
     1
102
RTVSPost2010Prop38
140
0.0
102
RTVSPost2010PropOp38
 70
     1
102
RTVSPost2010Prop39
140
1.0
102
RTVSPost2010PropOp39
 70
     1
102
RTVSPost2010Prop40
 90
        0
102
RTVSPost2010PropOp40
 70
     1
102
RTVSPost2010Prop41ColorIndex
 90
       18
102
RTVSPost2010Prop41ColorRGB
 90
        0
102
RTVSPost2010PropOp41
 70
     1
102
RTVSPost2010Prop42
 90
       50
102
RTVSPost2010PropOp42
 70
     1
102
RTVSPost2010Prop43
 90
        3
102
RTVSPost2010PropOp43
 70
     1
102
RTVSPost2010Prop44ColorIndex
 90
        5
102
RTVSPost2010Prop44ColorRGB
 90
      255
102
RTVSPost2010PropOp44
 70
     1
102
RTVSPost2010Prop45
280
     0
102
RTVSPost2010PropOp45
 70
     1
102
RTVSPost2010Prop46
 90
       50
102
RTVSPost2010PropOp46
 70
     1
102
RTVSPost2010Prop47
 90
       50
102
RTVSPost2010PropOp47
 70
     1
102
RTVSPost2010Prop48
 90
       50
102
RTVSPost2010PropOp48
 70
     1
102
RTVSPost2010Prop49
280
     0
102
RTVSPost2010PropOp49
 70
     1
102
RTVSPost2010Prop50
 90
       50
102
RTVSPost2010PropOp50
 70
     1
102
RTVSPost2010Prop51ColorIndex
 90
      256
102
RTVSPost2010Prop51ColorRGB
 90
-16777216
102
RTVSPost2010PropOp51
 70
     0
102
RTVSPost2010Prop52
140
1.0
102
RTVSPost2010PropOp52
 70
     0
102
RTVSPost2010Prop53
 90
        2
102
RTVSPost2010PropOp53
 70
     1
102
RTVSPost2010Prop54
  1
strokes_ogs.tif
102
RTVSPost2010PropOp54
 70
     1
102
RTVSPost2010Prop55
280
     0
102
RTVSPost2010PropOp55
 70
     1
102
RTVSPost2010Prop56
140
1.0
102
RTVSPost2010PropOp56
 70
     1
102
RTVSPost2010Prop57
140
1.0
102
RTVSPost2010PropOp57
 70
     1
  0
XRECORD
  5
136
102
{ACAD_REACTORS
330
135
102
}
330
135
100
AcDbXrecord
280
     1
102
RTVSPost2010Prop28
280
     0
102
RTVSPost2010PropOp28
 70
     0
102
RTVSPost2010Prop29
280
     1
102
RTVSPost2010PropOp29
 70
     0
102
RTVSPost2010Prop30
280
     1
102
RTVSPost2010PropOp30
 70
     0
102
RTVSPost2010Prop31
280
     0
102
RTVSPost2010PropOp31
 70
     0
102
RTVSPost2010Prop32
280
     0
102
RTVSPost2010PropOp32
 70
     0
102
RTVSPost2010Prop33
280
     0
102
RTVSPost2010PropOp33
 70
     0
102
RTVSPost2010Prop34
280
     0
102
RTVSPost2010PropOp34
 70
     0
102
RTVSPost2010Prop35
280
     0
102
RTVSPost2010PropOp35
 70
     0
102
RTVSPost2010Prop36
280
     0
102
RTVSPost2010PropOp36
 70
     0
102
RTVSPost2010Prop37
 90
       50
102
RTVSPost2010PropOp37
 70
     0
102
RTVSPost2010Prop38
140
0.0
102
RTVSPost2010PropOp38
 70
     0
102
RTVSPost2010Prop39
140
1.0
102
RTVSPost2010PropOp39
 70
     0
102
RTVSPost2010Prop40
 90
        0
102
RTVSPost2010PropOp40
 70
     0
102
RTVSPost2010Prop41ColorIndex
 90
       18
102
RTVSPost2010Prop41ColorRGB
 90
        0
102
RTVSPost2010PropOp41
 70
     0
102
RTVSPost2010Prop42
 90
       50
102
RTVSPost2010PropOp42
 70
     0
102
RTVSPost2010Prop43
 90
        3
102
RTVSPost2010PropOp43
 70
     0
102
RTVSPost2010Prop44ColorIndex
 90
        5
102
RTVSPost2010Prop44ColorRGB
 90
      255
102
RTVSPost2010PropOp44
 70
     0
102
RTVSPost2010Prop45
280
     0
102
RTVSPost2010PropOp45
 70
     0
102
RTVSPost2010Prop46
 90
       50
102
RTVSPost2010PropOp46
 70
     0
102
RTVSPost2010Prop47
 90
       50
102
RTVSPost2010PropOp47
 70
     0
102
RTVSPost2010Prop48
 90
       50
102
RTVSPost2010PropOp48
 70
     0
102
RTVSPost2010Prop49
280
     0
102
RTVSPost2010PropOp49
 70
     0
102
RTVSPost2010Prop50
 90
       50
102
RTVSPost2010PropOp50
 70
     0
102
RTVSPost2010Prop51ColorIndex
 90
      256
102
RTVSPost2010Prop51ColorRGB
 90
-16777216
102
RTVSPost2010PropOp51
 70
     0
102
RTVSPost2010Prop52
140
1.0
102
RTVSPost2010PropOp52
 70
     0
102
RTVSPost2010Prop53
 90
        2
102
RTVSPost2010PropOp53
 70
     0
102
RTVSPost2010Prop54
  1
strokes_ogs.tif
102
RTVSPost2010PropOp54
 70
     0
102
RTVSPost2010Prop55
280
     0
102
RTVSPost2010PropOp55
 70
     0
102
RTVSPost2010Prop56
140
1.0
102
RTVSPost2010PropOp56
 70
     0
102
RTVSPost2010Prop57
140
1.0
102
RTVSPost2010PropOp57
 70
     0
  0
XRECORD
  5
126
102
{ACAD_REACTORS
330
125
102
}
330
125
100
AcDbXrecord
280
     1
102
RTVSPost2010Prop28
280
     0
102
RTVSPost2010PropOp28
 70
     1
102
RTVSPost2010Prop29
280
     1
102
RTVSPost2010PropOp29
 70
     1
102
RTVSPost2010Prop30
280
     1
102
RTVSPost2010PropOp30
 70
     1
102
RTVSPost2010Prop31
280
     0
102
RTVSPost2010PropOp31
 70
     1
102
RTVSPost2010Prop32
280
     0
102
RTVSPost2010PropOp32
 70
     1
102
RTVSPost2010Prop33
280
     0
102
RTVSPost2010PropOp33
 70
     1
102
RTVSPost2010Prop34
280
     0
102
RTVSPost2010PropOp34
 70
     1
102
RTVSPost2010Prop35
280
     0
102
RTVSPost2010PropOp35
 70
     1
102
RTVSPost2010Prop36
280
     0
102
RTVSPost2010PropOp36
 70
     1
102
RTVSPost2010Prop37
 90
       50
102
RTVSPost2010PropOp37
 70
     1
102
RTVSPost2010Prop38
140
0.0
102
RTVSPost2010PropOp38
 70
     1
102
RTVSPost2010Prop39
140
1.0
102
RTVSPost2010PropOp39
 70
     1
102
RTVSPost2010Prop40
 90
        0
102
RTVSPost2010PropOp40
 70
     1
102
RTVSPost2010Prop41ColorIndex
 90
       18
102
RTVSPost2010Prop41ColorRGB
 90
        0
102
RTVSPost2010PropOp41
 70
     1
102
RTVSPost2010Prop42
 90
       50
102
RTVSPost2010PropOp42
 70
     1
102
RTVSPost2010Prop43
 90
        3
102
RTVSPost2010PropOp43
 70
     1
102
RTVSPost2010Prop44ColorIndex
 90
        5
102
RTVSPost2010Prop44ColorRGB
 90
      255
102
RTVSPost2010PropOp44
 70
     1
102
RTVSPost2010Prop45
280
     0
102
RTVSPost2010PropOp45
 70
     1
102
RTVSPost2010Prop46
 90
       50
102
RTVSPost2010PropOp46
 70
     1
102
RTVSPost2010Prop47
 90
       50
102
RTVSPost2010PropOp47
 70
     1
102
RTVSPost2010Prop48
 90
       50
102
RTVSPost2010PropOp48
 70
     1
102
RTVSPost2010Prop49
280
     0
102
RTVSPost2010PropOp49
 70
     1
102
RTVSPost2010Prop50
 90
       50
102
RTVSPost2010PropOp50
 70
     1
102
RTVSPost2010Prop51ColorIndex
 90
      256
102
RTVSPost2010Prop51ColorRGB
 90
-16777216
102
RTVSPost2010PropOp51
 70
     0
102
RTVSPost2010Prop52
140
1.0
102
RTVSPost2010PropOp52
 70
     0
102
RTVSPost2010Prop53
 90
        2
102
RTVSPost2010PropOp53
 70
     1
102
RTVSPost2010Prop54
  1
strokes_ogs.tif
102
RTVSPost2010PropOp54
 70
     1
102
RTVSPost2010Prop55
280
     0
102
RTVSPost2010PropOp55
 70
     1
102
RTVSPost2010Prop56
140
1.0
102
RTVSPost2010PropOp56
 70
     1
102
RTVSPost2010Prop57
140
1.0
102
RTVSPost2010PropOp57
 70
     1
  0
XRECORD
  5
138
102
{ACAD_REACTORS
330
137
102
}
330
137
100
AcDbXrecord
280
     1
102
RTVSPost2010Prop28
280
     0
102
RTVSPost2010PropOp28
 70
     0
102
RTVSPost2010Prop29
280
     1
102
RTVSPost2010PropOp29
 70
     0
102
RTVSPost2010Prop30
280
     1
102
RTVSPost2010PropOp30
 70
     0
102
RTVSPost2010Prop31
280
     0
102
RTVSPost2010PropOp31
 70
     0
102
RTVSPost2010Prop32
280
     0
102
RTVSPost2010PropOp32
 70
     0
102
RTVSPost2010Prop33
280
     0
102
RTVSPost2010PropOp33
 70
     0
102
RTVSPost2010Prop34
280
     0
102
RTVSPost2010PropOp34
 70
     0
102
RTVSPost2010Prop35
280
     0
102
RTVSPost2010PropOp35
 70
     0
102
RTVSPost2010Prop36
280
     0
102
RTVSPost2010PropOp36
 70
     0
102
RTVSPost2010Prop37
 90
       50
102
RTVSPost2010PropOp37
 70
     0
102
RTVSPost2010Prop38
140
0.0
102
RTVSPost2010PropOp38
 70
     0
102
RTVSPost2010Prop39
140
1.0
102
RTVSPost2010PropOp39
 70
     0
102
RTVSPost2010Prop40
 90
        0
102
RTVSPost2010PropOp40
 70
     0
102
RTVSPost2010Prop41ColorIndex
 90
       18
102
RTVSPost2010Prop41ColorRGB
 90
        0
102
RTVSPost2010PropOp41
 70
     0
102
RTVSPost2010Prop42
 90
       50
102
RTVSPost2010PropOp42
 70
     0
102
RTVSPost2010Prop43
 90
        3
102
RTVSPost2010PropOp43
 70
     0
102
RTVSPost2010Prop44ColorIndex
 90
        5
102
RTVSPost2010Prop44ColorRGB
 90
      255
102
RTVSPost2010PropOp44
 70
     0
102
RTVSPost2010Prop45
280
     0
102
RTVSPost2010PropOp45
 70
     0
102
RTVSPost2010Prop46
 90
       50
102
RTVSPost2010PropOp46
 70
     0
102
RTVSPost2010Prop47
 90
       50
102
RTVSPost2010PropOp47
 70
     0
102
RTVSPost2010Prop48
 90
       50
102
RTVSPost2010PropOp48
 70
     0
102
RTVSPost2010Prop49
280
     0
102
RTVSPost2010PropOp49
 70
     0
102
RTVSPost2010Prop50
 90
       50
102
RTVSPost2010PropOp50
 70
     0
102
RTVSPost2010Prop51ColorIndex
 90
      256
102
RTVSPost2010Prop51ColorRGB
 90
-16777216
102
RTVSPost2010PropOp51
 70
     0
102
RTVSPost2010Prop52
140
1.0
102
RTVSPost2010PropOp52
 70
     0
102
RTVSPost2010Prop53
 90
        2
102
RTVSPost2010PropOp53
 70
     0
102
RTVSPost2010Prop54
  1
strokes_ogs.tif
102
RTVSPost2010PropOp54
 70
     0
102
RTVSPost2010Prop55
280
     0
102
RTVSPost2010PropOp55
 70
     0
102
RTVSPost2010Prop56
140
1.0
102
RTVSPost2010PropOp56
 70
     0
102
RTVSPost2010Prop57
140
1.0
102
RTVSPost2010PropOp57
 70
     0
  0
XRECORD
  5
11E
102
{ACAD_REACTORS
330
11D
102
}
330
11D
100
AcDbXrecord
280
     1
102
RTVSPost2010Prop28
280
     0
102
RTVSPost2010PropOp28
 70
     1
102
RTVSPost2010Prop29
280
     1
102
RTVSPost2010PropOp29
 70
     1
102
RTVSPost2010Prop30
280
     1
102
RTVSPost2010PropOp30
 70
     1
102
RTVSPost2010Prop31
280
     0
102
RTVSPost2010PropOp31
 70
     1
102
RTVSPost2010Prop32
280
     0
102
RTVSPost2010PropOp32
 70
     1
102
RTVSPost2010Prop33
280
     0
102
RTVSPost2010PropOp33
 70
     1
102
RTVSPost2010Prop34
280
     0
102
RTVSPost2010PropOp34
 70
     1
102
RTVSPost2010Prop35
280
     0
102
RTVSPost2010PropOp35
 70
     1
102
RTVSPost2010Prop36
280
     0
102
RTVSPost2010PropOp36
 70
     1
102
RTVSPost2010Prop37
 90
       50
102
RTVSPost2010PropOp37
 70
     1
102
RTVSPost2010Prop38
140
0.0
102
RTVSPost2010PropOp38
 70
     1
102
RTVSPost2010Prop39
140
1.0
102
RTVSPost2010PropOp39
 70
     1
102
RTVSPost2010Prop40
 90
        0
102
RTVSPost2010PropOp40
 70
     1
102
RTVSPost2010Prop41ColorIndex
 90
       18
102
RTVSPost2010Prop41ColorRGB
 90
        0
102
RTVSPost2010PropOp41
 70
     1
102
RTVSPost2010Prop42
 90
       50
102
RTVSPost2010PropOp42
 70
     1
102
RTVSPost2010Prop43
 90
        3
102
RTVSPost2010PropOp43
 70
     1
102
RTVSPost2010Prop44ColorIndex
 90
        5
102
RTVSPost2010Prop44ColorRGB
 90
      255
102
RTVSPost2010PropOp44
 70
     1
102
RTVSPost2010Prop45
280
     0
102
RTVSPost2010PropOp45
 70
     1
102
RTVSPost2010Prop46
 90
       50
102
RTVSPost2010PropOp46
 70
     1
102
RTVSPost2010Prop47
 90
       50
102
RTVSPost2010PropOp47
 70
     1
102
RTVSPost2010Prop48
 90
       50
102
RTVSPost2010PropOp48
 70
     1
102
RTVSPost2010Prop49
280
     0
102
RTVSPost2010PropOp49
 70
     1
102
RTVSPost2010Prop50
 90
       50
102
RTVSPost2010PropOp50
 70
     1
102
RTVSPost2010Prop51ColorIndex
 90
      256
102
RTVSPost2010Prop51ColorRGB
 90
-16777216
102
RTVSPost2010PropOp51
 70
     0
102
RTVSPost2010Prop52
140
1.0
102
RTVSPost2010PropOp52
 70
     0
102
RTVSPost2010Prop53
 90
        2
102
RTVSPost2010PropOp53
 70
     1
102
RTVSPost2010Prop54
  1
strokes_ogs.tif
102
RTVSPost2010PropOp54
 70
     1
102
RTVSPost2010Prop55
280
     0
102
RTVSPost2010PropOp55
 70
     1
102
RTVSPost2010Prop56
140
1.0
102
RTVSPost2010PropOp56
 70
     1
102
RTVSPost2010Prop57
140
1.0
102
RTVSPost2010PropOp57
 70
     1
  0
XRECORD
  5
134
102
{ACAD_REACTORS
330
133
102
}
330
133
100
AcDbXrecord
280
     1
102
RTVSPost2010Prop28
280
     0
102
RTVSPost2010PropOp28
 70
     1
102
RTVSPost2010Prop29
280
     1
102
RTVSPost2010PropOp29
 70
     1
102
RTVSPost2010Prop30
280
     1
102
RTVSPost2010PropOp30
 70
     1
102
RTVSPost2010Prop31
280
     0
102
RTVSPost2010PropOp31
 70
     1
102
RTVSPost2010Prop32
280
     0
102
RTVSPost2010PropOp32
 70
     1
102
RTVSPost2010Prop33
280
     0
102
RTVSPost2010PropOp33
 70
     1
102
RTVSPost2010Prop34
280
     0
102
RTVSPost2010PropOp34
 70
     1
102
RTVSPost2010Prop35
280
     0
102
RTVSPost2010PropOp35
 70
     1
102
RTVSPost2010Prop36
280
     0
102
RTVSPost2010PropOp36
 70
     1
102
RTVSPost2010Prop37
 90
       50
102
RTVSPost2010PropOp37
 70
     1
102
RTVSPost2010Prop38
140
0.0
102
RTVSPost2010PropOp38
 70
     1
102
RTVSPost2010Prop39
140
1.0
102
RTVSPost2010PropOp39
 70
     1
102
RTVSPost2010Prop40
 90
        0
102
RTVSPost2010PropOp40
 70
     1
102
RTVSPost2010Prop41ColorIndex
 90
       18
102
RTVSPost2010Prop41ColorRGB
 90
        0
102
RTVSPost2010PropOp41
 70
     1
102
RTVSPost2010Prop42
 90
       50
102
RTVSPost2010PropOp42
 70
     1
102
RTVSPost2010Prop43
 90
        3
102
RTVSPost2010PropOp43
 70
     1
102
RTVSPost2010Prop44ColorIndex
 90
        5
102
RTVSPost2010Prop44ColorRGB
 90
      255
102
RTVSPost2010PropOp44
 70
     1
102
RTVSPost2010Prop45
280
     0
102
RTVSPost2010PropOp45
 70
     1
102
RTVSPost2010Prop46
 90
       50
102
RTVSPost2010PropOp46
 70
     1
102
RTVSPost2010Prop47
 90
       50
102
RTVSPost2010PropOp47
 70
     1
102
RTVSPost2010Prop48
 90
       50
102
RTVSPost2010PropOp48
 70
     1
102
RTVSPost2010Prop49
280
     0
102
RTVSPost2010PropOp49
 70
     1
102
RTVSPost2010Prop50
 90
       50
102
RTVSPost2010PropOp50
 70
     1
102
RTVSPost2010Prop51ColorIndex
 90
      256
102
RTVSPost2010Prop51ColorRGB
 90
-16777216
102
RTVSPost2010PropOp51
 70
     0
102
RTVSPost2010Prop52
140
1.0
102
RTVSPost2010PropOp52
 70
     0
102
RTVSPost2010Prop53
 90
        2
102
RTVSPost2010PropOp53
 70
     1
102
RTVSPost2010Prop54
  1
strokes_ogs.tif
102
RTVSPost2010PropOp54
 70
     1
102
RTVSPost2010Prop55
280
     0
102
RTVSPost2010PropOp55
 70
     1
102
RTVSPost2010Prop56
140
1.0
102
RTVSPost2010PropOp56
 70
     1
102
RTVSPost2010Prop57
140
1.0
102
RTVSPost2010PropOp57
 70
     1
  0
XRECORD
  5
132
102
{ACAD_REACTORS
330
131
102
}
330
131
100
AcDbXrecord
280
     1
102
RTVSPost2010Prop28
280
     0
102
RTVSPost2010PropOp28
 70
     1
102
RTVSPost2010Prop29
280
     1
102
RTVSPost2010PropOp29
 70
     1
102
RTVSPost2010Prop30
280
     1
102
RTVSPost2010PropOp30
 70
     1
102
RTVSPost2010Prop31
280
     0
102
RTVSPost2010PropOp31
 70
     1
102
RTVSPost2010Prop32
280
     0
102
RTVSPost2010PropOp32
 70
     1
102
RTVSPost2010Prop33
280
     0
102
RTVSPost2010PropOp33
 70
     1
102
RTVSPost2010Prop34
280
     0
102
RTVSPost2010PropOp34
 70
     1
102
RTVSPost2010Prop35
280
     0
102
RTVSPost2010PropOp35
 70
     1
102
RTVSPost2010Prop36
280
     0
102
RTVSPost2010PropOp36
 70
     1
102
RTVSPost2010Prop37
 90
       50
102
RTVSPost2010PropOp37
 70
     1
102
RTVSPost2010Prop38
140
0.0
102
RTVSPost2010PropOp38
 70
     1
102
RTVSPost2010Prop39
140
1.0
102
RTVSPost2010PropOp39
 70
     1
102
RTVSPost2010Prop40
 90
        0
102
RTVSPost2010PropOp40
 70
     1
102
RTVSPost2010Prop41ColorIndex
 90
       18
102
RTVSPost2010Prop41ColorRGB
 90
        0
102
RTVSPost2010PropOp41
 70
     1
102
RTVSPost2010Prop42
 90
       50
102
RTVSPost2010PropOp42
 70
     1
102
RTVSPost2010Prop43
 90
        3
102
RTVSPost2010PropOp43
 70
     1
102
RTVSPost2010Prop44ColorIndex
 90
        5
102
RTVSPost2010Prop44ColorRGB
 90
      255
102
RTVSPost2010PropOp44
 70
     1
102
RTVSPost2010Prop45
280
     0
102
RTVSPost2010PropOp45
 70
     1
102
RTVSPost2010Prop46
 90
       50
102
RTVSPost2010PropOp46
 70
     1
102
RTVSPost2010Prop47
 90
       50
102
RTVSPost2010PropOp47
 70
     1
102
RTVSPost2010Prop48
 90
       50
102
RTVSPost2010PropOp48
 70
     1
102
RTVSPost2010Prop49
280
     0
102
RTVSPost2010PropOp49
 70
     1
102
RTVSPost2010Prop50
 90
       50
102
RTVSPost2010PropOp50
 70
     1
102
RTVSPost2010Prop51ColorIndex
 90
      256
102
RTVSPost2010Prop51ColorRGB
 90
-16777216
102
RTVSPost2010PropOp51
 70
     0
102
RTVSPost2010Prop52
140
1.0
102
RTVSPost2010PropOp52
 70
     0
102
RTVSPost2010Prop53
 90
        2
102
RTVSPost2010PropOp53
 70
     1
102
RTVSPost2010Prop54
  1
strokes_ogs.tif
102
RTVSPost2010PropOp54
 70
     1
102
RTVSPost2010Prop55
280
     0
102
RTVSPost2010PropOp55
 70
     1
102
RTVSPost2010Prop56
140
1.0
102
RTVSPost2010PropOp56
 70
     1
102
RTVSPost2010Prop57
140
1.0
102
RTVSPost2010PropOp57
 70
     1
  0
XRECORD
  5
12C
102
{ACAD_REACTORS
330
12B
102
}
330
12B
100
AcDbXrecord
280
     1
102
RTVSPost2010Prop28
280
     0
102
RTVSPost2010PropOp28
 70
     1
102
RTVSPost2010Prop29
280
     1
102
RTVSPost2010PropOp29
 70
     1
102
RTVSPost2010Prop30
280
     1
102
RTVSPost2010PropOp30
 70
     1
102
RTVSPost2010Prop31
280
     0
102
RTVSPost2010PropOp31
 70
     1
102
RTVSPost2010Prop32
280
     0
102
RTVSPost2010PropOp32
 70
     1
102
RTVSPost2010Prop33
280
     0
102
RTVSPost2010PropOp33
 70
     1
102
RTVSPost2010Prop34
280
     0
102
RTVSPost2010PropOp34
 70
     1
102
RTVSPost2010Prop35
280
     0
102
RTVSPost2010PropOp35
 70
     1
102
RTVSPost2010Prop36
280
     0
102
RTVSPost2010PropOp36
 70
     1
102
RTVSPost2010Prop37
 90
       50
102
RTVSPost2010PropOp37
 70
     1
102
RTVSPost2010Prop38
140
0.0
102
RTVSPost2010PropOp38
 70
     1
102
RTVSPost2010Prop39
140
1.0
102
RTVSPost2010PropOp39
 70
     1
102
RTVSPost2010Prop40
 90
        0
102
RTVSPost2010PropOp40
 70
     1
102
RTVSPost2010Prop41ColorIndex
 90
       18
102
RTVSPost2010Prop41ColorRGB
 90
        0
102
RTVSPost2010PropOp41
 70
     1
102
RTVSPost2010Prop42
 90
       50
102
RTVSPost2010PropOp42
 70
     1
102
RTVSPost2010Prop43
 90
        3
102
RTVSPost2010PropOp43
 70
     1
102
RTVSPost2010Prop44ColorIndex
 90
        5
102
RTVSPost2010Prop44ColorRGB
 90
      255
102
RTVSPost2010PropOp44
 70
     1
102
RTVSPost2010Prop45
280
     0
102
RTVSPost2010PropOp45
 70
     1
102
RTVSPost2010Prop46
 90
       50
102
RTVSPost2010PropOp46
 70
     1
102
RTVSPost2010Prop47
 90
       50
102
RTVSPost2010PropOp47
 70
     1
102
RTVSPost2010Prop48
 90
       50
102
RTVSPost2010PropOp48
 70
     1
102
RTVSPost2010Prop49
280
     0
102
RTVSPost2010PropOp49
 70
     1
102
RTVSPost2010Prop50
 90
       50
102
RTVSPost2010PropOp50
 70
     1
102
RTVSPost2010Prop51ColorIndex
 90
      256
102
RTVSPost2010Prop51ColorRGB
 90
-16777216
102
RTVSPost2010PropOp51
 70
     0
102
RTVSPost2010Prop52
140
1.0
102
RTVSPost2010PropOp52
 70
     0
102
RTVSPost2010Prop53
 90
        2
102
RTVSPost2010PropOp53
 70
     1
102
RTVSPost2010Prop54
  1
strokes_ogs.tif
102
RTVSPost2010PropOp54
 70
     1
102
RTVSPost2010Prop55
280
     0
102
RTVSPost2010PropOp55
 70
     1
102
RTVSPost2010Prop56
140
1.0
102
RTVSPost2010PropOp56
 70
     1
102
RTVSPost2010Prop57
140
1.0
102
RTVSPost2010PropOp57
 70
     1
  0
XRECORD
  5
12E
102
{ACAD_REACTORS
330
12D
102
}
330
12D
100
AcDbXrecord
280
     1
102
RTVSPost2010Prop28
280
     0
102
RTVSPost2010PropOp28
 70
     1
102
RTVSPost2010Prop29
280
     1
102
RTVSPost2010PropOp29
 70
     1
102
RTVSPost2010Prop30
280
     1
102
RTVSPost2010PropOp30
 70
     1
102
RTVSPost2010Prop31
280
     0
102
RTVSPost2010PropOp31
 70
     1
102
RTVSPost2010Prop32
280
     0
102
RTVSPost2010PropOp32
 70
     1
102
RTVSPost2010Prop33
280
     0
102
RTVSPost2010PropOp33
 70
     1
102
RTVSPost2010Prop34
280
     0
102
RTVSPost2010PropOp34
 70
     1
102
RTVSPost2010Prop35
280
     0
102
RTVSPost2010PropOp35
 70
     1
102
RTVSPost2010Prop36
280
     0
102
RTVSPost2010PropOp36
 70
     1
102
RTVSPost2010Prop37
 90
       50
102
RTVSPost2010PropOp37
 70
     1
102
RTVSPost2010Prop38
140
0.0
102
RTVSPost2010PropOp38
 70
     1
102
RTVSPost2010Prop39
140
1.0
102
RTVSPost2010PropOp39
 70
     1
102
RTVSPost2010Prop40
 90
        0
102
RTVSPost2010PropOp40
 70
     1
102
RTVSPost2010Prop41ColorIndex
 90
       18
102
RTVSPost2010Prop41ColorRGB
 90
        0
102
RTVSPost2010PropOp41
 70
     1
102
RTVSPost2010Prop42
 90
       50
102
RTVSPost2010PropOp42
 70
     1
102
RTVSPost2010Prop43
 90
        3
102
RTVSPost2010PropOp43
 70
     1
102
RTVSPost2010Prop44ColorIndex
 90
        5
102
RTVSPost2010Prop44ColorRGB
 90
      255
102
RTVSPost2010PropOp44
 70
     1
102
RTVSPost2010Prop45
280
     0
102
RTVSPost2010PropOp45
 70
     1
102
RTVSPost2010Prop46
 90
       50
102
RTVSPost2010PropOp46
 70
     1
102
RTVSPost2010Prop47
 90
       50
102
RTVSPost2010PropOp47
 70
     1
102
RTVSPost2010Prop48
 90
       50
102
RTVSPost2010PropOp48
 70
     1
102
RTVSPost2010Prop49
280
     0
102
RTVSPost2010PropOp49
 70
     1
102
RTVSPost2010Prop50
 90
       50
102
RTVSPost2010PropOp50
 70
     1
102
RTVSPost2010Prop51ColorIndex
 90
      256
102
RTVSPost2010Prop51ColorRGB
 90
-16777216
102
RTVSPost2010PropOp51
 70
     0
102
RTVSPost2010Prop52
140
1.0
102
RTVSPost2010PropOp52
 70
     0
102
RTVSPost2010Prop53
 90
        2
102
RTVSPost2010PropOp53
 70
     1
102
RTVSPost2010Prop54
  1
strokes_ogs.tif
102
RTVSPost2010PropOp54
 70
     1
102
RTVSPost2010Prop55
280
     0
102
RTVSPost2010PropOp55
 70
     1
102
RTVSPost2010Prop56
140
1.0
102
RTVSPost2010PropOp56
 70
     1
102
RTVSPost2010Prop57
140
1.0
102
RTVSPost2010PropOp57
 70
     1
  0
XRECORD
  5
124
102
{ACAD_REACTORS
330
123
102
}
330
123
100
AcDbXrecord
280
     1
102
RTVSPost2010Prop28
280
     0
102
RTVSPost2010PropOp28
 70
     1
102
RTVSPost2010Prop29
280
     1
102
RTVSPost2010PropOp29
 70
     1
102
RTVSPost2010Prop30
280
     1
102
RTVSPost2010PropOp30
 70
     1
102
RTVSPost2010Prop31
280
     0
102
RTVSPost2010PropOp31
 70
     1
102
RTVSPost2010Prop32
280
     0
102
RTVSPost2010PropOp32
 70
     1
102
RTVSPost2010Prop33
280
     0
102
RTVSPost2010PropOp33
 70
     1
102
RTVSPost2010Prop34
280
     0
102
RTVSPost2010PropOp34
 70
     1
102
RTVSPost2010Prop35
280
     0
102
RTVSPost2010PropOp35
 70
     1
102
RTVSPost2010Prop36
280
     0
102
RTVSPost2010PropOp36
 70
     1
102
RTVSPost2010Prop37
 90
       50
102
RTVSPost2010PropOp37
 70
     1
102
RTVSPost2010Prop38
140
0.0
102
RTVSPost2010PropOp38
 70
     1
102
RTVSPost2010Prop39
140
1.0
102
RTVSPost2010PropOp39
 70
     1
102
RTVSPost2010Prop40
 90
        0
102
RTVSPost2010PropOp40
 70
     1
102
RTVSPost2010Prop41ColorIndex
 90
       18
102
RTVSPost2010Prop41ColorRGB
 90
        0
102
RTVSPost2010PropOp41
 70
     1
102
RTVSPost2010Prop42
 90
       50
102
RTVSPost2010PropOp42
 70
     1
102
RTVSPost2010Prop43
 90
        3
102
RTVSPost2010PropOp43
 70
     1
102
RTVSPost2010Prop44ColorIndex
 90
        5
102
RTVSPost2010Prop44ColorRGB
 90
      255
102
RTVSPost2010PropOp44
 70
     1
102
RTVSPost2010Prop45
280
     0
102
RTVSPost2010PropOp45
 70
     1
102
RTVSPost2010Prop46
 90
       50
102
RTVSPost2010PropOp46
 70
     1
102
RTVSPost2010Prop47
 90
       50
102
RTVSPost2010PropOp47
 70
     1
102
RTVSPost2010Prop48
 90
       50
102
RTVSPost2010PropOp48
 70
     1
102
RTVSPost2010Prop49
280
     0
102
RTVSPost2010PropOp49
 70
     1
102
RTVSPost2010Prop50
 90
       50
102
RTVSPost2010PropOp50
 70
     1
102
RTVSPost2010Prop51ColorIndex
 90
      256
102
RTVSPost2010Prop51ColorRGB
 90
-16777216
102
RTVSPost2010PropOp51
 70
     0
102
RTVSPost2010Prop52
140
1.0
102
RTVSPost2010PropOp52
 70
     0
102
RTVSPost2010Prop53
 90
        2
102
RTVSPost2010PropOp53
 70
     1
102
RTVSPost2010Prop54
  1
strokes_ogs.tif
102
RTVSPost2010PropOp54
 70
     1
102
RTVSPost2010Prop55
280
     0
102
RTVSPost2010PropOp55
 70
     1
102
RTVSPost2010Prop56
140
1.0
102
RTVSPost2010PropOp56
 70
     1
102
RTVSPost2010Prop57
140
1.0
102
RTVSPost2010PropOp57
 70
     1
  0
XRECORD
  5
118
102
{ACAD_REACTORS
330
117
102
}
330
117
100
AcDbXrecord
280
     1
102
RTVSPost2010Prop28
280
     0
102
RTVSPost2010PropOp28
 70
     1
102
RTVSPost2010Prop29
280
     1
102
RTVSPost2010PropOp29
 70
     1
102
RTVSPost2010Prop30
280
     1
102
RTVSPost2010PropOp30
 70
     1
102
RTVSPost2010Prop31
280
     0
102
RTVSPost2010PropOp31
 70
     1
102
RTVSPost2010Prop32
280
     0
102
RTVSPost2010PropOp32
 70
     1
102
RTVSPost2010Prop33
280
     0
102
RTVSPost2010PropOp33
 70
     1
102
RTVSPost2010Prop34
280
     0
102
RTVSPost2010PropOp34
 70
     1
102
RTVSPost2010Prop35
280
     0
102
RTVSPost2010PropOp35
 70
     1
102
RTVSPost2010Prop36
280
     0
102
RTVSPost2010PropOp36
 70
     1
102
RTVSPost2010Prop37
 90
       50
102
RTVSPost2010PropOp37
 70
     1
102
RTVSPost2010Prop38
140
0.0
102
RTVSPost2010PropOp38
 70
     1
102
RTVSPost2010Prop39
140
1.0
102
RTVSPost2010PropOp39
 70
     1
102
RTVSPost2010Prop40
 90
        0
102
RTVSPost2010PropOp40
 70
     1
102
RTVSPost2010Prop41ColorIndex
 90
       18
102
RTVSPost2010Prop41ColorRGB
 90
        0
102
RTVSPost2010PropOp41
 70
     1
102
RTVSPost2010Prop42
 90
       50
102
RTVSPost2010PropOp42
 70
     1
102
RTVSPost2010Prop43
 90
        3
102
RTVSPost2010PropOp43
 70
     1
102
RTVSPost2010Prop44ColorIndex
 90
        5
102
RTVSPost2010Prop44ColorRGB
 90
      255
102
RTVSPost2010PropOp44
 70
     1
102
RTVSPost2010Prop45
280
     0
102
RTVSPost2010PropOp45
 70
     1
102
RTVSPost2010Prop46
 90
       50
102
RTVSPost2010PropOp46
 70
     1
102
RTVSPost2010Prop47
 90
       50
102
RTVSPost2010PropOp47
 70
     1
102
RTVSPost2010Prop48
 90
       50
102
RTVSPost2010PropOp48
 70
     1
102
RTVSPost2010Prop49
280
     0
102
RTVSPost2010PropOp49
 70
     1
102
RTVSPost2010Prop50
 90
       50
102
RTVSPost2010PropOp50
 70
     1
102
RTVSPost2010Prop51ColorIndex
 90
      256
102
RTVSPost2010Prop51ColorRGB
 90
-16777216
102
RTVSPost2010PropOp51
 70
     0
102
RTVSPost2010Prop52
140
1.0
102
RTVSPost2010PropOp52
 70
     0
102
RTVSPost2010Prop53
 90
        2
102
RTVSPost2010PropOp53
 70
     1
102
RTVSPost2010Prop54
  1
strokes_ogs.tif
102
RTVSPost2010PropOp54
 70
     1
102
RTVSPost2010Prop55
280
     0
102
RTVSPost2010PropOp55
 70
     1
102
RTVSPost2010Prop56
140
1.0
102
RTVSPost2010PropOp56
 70
     1
102
RTVSPost2010Prop57
140
1.0
102
RTVSPost2010PropOp57
 70
     1
  0
XRECORD
  5
130
102
{ACAD_REACTORS
330
12F
102
}
330
12F
100
AcDbXrecord
280
     1
102
RTVSPost2010Prop28
280
     0
102
RTVSPost2010PropOp28
 70
     1
102
RTVSPost2010Prop29
280
     1
102
RTVSPost2010PropOp29
 70
     1
102
RTVSPost2010Prop30
280
     1
102
RTVSPost2010PropOp30
 70
     1
102
RTVSPost2010Prop31
280
     0
102
RTVSPost2010PropOp31
 70
     1
102
RTVSPost2010Prop32
280
     0
102
RTVSPost2010PropOp32
 70
     1
102
RTVSPost2010Prop33
280
     0
102
RTVSPost2010PropOp33
 70
     1
102
RTVSPost2010Prop34
280
     0
102
RTVSPost2010PropOp34
 70
     1
102
RTVSPost2010Prop35
280
     0
102
RTVSPost2010PropOp35
 70
     1
102
RTVSPost2010Prop36
280
     0
102
RTVSPost2010PropOp36
 70
     1
102
RTVSPost2010Prop37
 90
       50
102
RTVSPost2010PropOp37
 70
     1
102
RTVSPost2010Prop38
140
0.0
102
RTVSPost2010PropOp38
 70
     1
102
RTVSPost2010Prop39
140
1.0
102
RTVSPost2010PropOp39
 70
     1
102
RTVSPost2010Prop40
 90
        0
102
RTVSPost2010PropOp40
 70
     1
102
RTVSPost2010Prop41ColorIndex
 90
       18
102
RTVSPost2010Prop41ColorRGB
 90
        0
102
RTVSPost2010PropOp41
 70
     1
102
RTVSPost2010Prop42
 90
       50
102
RTVSPost2010PropOp42
 70
     1
102
RTVSPost2010Prop43
 90
        3
102
RTVSPost2010PropOp43
 70
     1
102
RTVSPost2010Prop44ColorIndex
 90
        5
102
RTVSPost2010Prop44ColorRGB
 90
      255
102
RTVSPost2010PropOp44
 70
     1
102
RTVSPost2010Prop45
280
     0
102
RTVSPost2010PropOp45
 70
     1
102
RTVSPost2010Prop46
 90
       50
102
RTVSPost2010PropOp46
 70
     1
102
RTVSPost2010Prop47
 90
       50
102
RTVSPost2010PropOp47
 70
     1
102
RTVSPost2010Prop48
 90
       50
102
RTVSPost2010PropOp48
 70
     1
102
RTVSPost2010Prop49
280
     0
102
RTVSPost2010PropOp49
 70
     1
102
RTVSPost2010Prop50
 90
       50
102
RTVSPost2010PropOp50
 70
     1
102
RTVSPost2010Prop51ColorIndex
 90
      256
102
RTVSPost2010Prop51ColorRGB
 90
-16777216
102
RTVSPost2010PropOp51
 70
     0
102
RTVSPost2010Prop52
140
1.0
102
RTVSPost2010PropOp52
 70
     0
102
RTVSPost2010Prop53
 90
        2
102
RTVSPost2010PropOp53
 70
     1
102
RTVSPost2010Prop54
  1
strokes_ogs.tif
102
RTVSPost2010PropOp54
 70
     1
102
RTVSPost2010Prop55
280
     0
102
RTVSPost2010PropOp55
 70
     1
102
RTVSPost2010Prop56
140
1.0
102
RTVSPost2010PropOp56
 70
     1
102
RTVSPost2010Prop57
140
1.0
102
RTVSPost2010PropOp57
 70
     1
  0
ENDSEC
  0
EOF
