  0
SECTION
  2
HEADER
  9
$ACADVER
  1
AC1024
  9
$ACADMAINTVER
 70
     6
  9
$DWGCODEPAGE
  3
UNDEFINED
  9
$INSBASE
 10
0.0
 20
0.0
 30
0.0
  9
$EXTMIN
 10
1.000000000000000E+20
 20
1.000000000000000E+20
 30
1.000000000000000E+20
  9
$EXTMAX
 10
-1.000000000000000E+20
 20
-1.000000000000000E+20
 30
-1.000000000000000E+20
  9
$LIMMIN
 10
0.0
 20
0.0
  9
$LIMMAX
 10
12.0
 20
9.0
  9
$ORTHOMODE
 70
     0
  9
$REGENMODE
 70
     1
  9
$FILLMODE
 70
     1
  9
$QTEXTMODE
 70
     0
  9
$MIRRTEXT
 70
     1
  9
$LTSCALE
 40
1.0
  9
$ATTMODE
 70
     1
  9
$TEXTSIZE
 40
0.2
  9
$TRACEWID
 40
0.05
  9
$TEXTSTYLE
  7
Standard
  9
$CLAYER
  8
0
  9
$CELTYPE
  6
ByLayer
  9
$CECOLOR
 62
   256
  9
$CELTSCALE
 40
1.0
  9
$DISPSILH
 70
     0
  9
$DIMSCALE
 40
1.0
  9
$DIMASZ
 40
0.18
  9
$DIMEXO
 40
0.0625
  9
$DIMDLI
 40
0.38
  9
$DIMRND
 40
0.0
  9
$DIMDLE
 40
0.0
  9
$DIMEXE
 40
0.18
  9
$DIMTP
 40
0.0
  9
$DIMTM
 40
0.0
  9
$DIMTXT
 40
0.18
  9
$DIMCEN
 40
0.09
  9
$DIMTSZ
 40
0.0
  9
$DIMTOL
 70
     0
  9
$DIMLIM
 70
     0
  9
$DIMTIH
 70
     1
  9
$DIMTOH
 70
     1
  9
$DIMSE1
 70
     0
  9
$DIMSE2
 70
     0
  9
$DIMTAD
 70
     0
  9
$DIMZIN
 70
     0
  9
$DIMBLK
  1

  9
$DIMASO
 70
     1
  9
$DIMSHO
 70
     1
  9
$DIMPOST
  1

  9
$DIMAPOST
  1

  9
$DIMALT
 70
     0
  9
$DIMALTD
 70
     2
  9
$DIMALTF
 40
25.4
  9
$DIMLFAC
 40
1.0
  9
$DIMTOFL
 70
     0
  9
$DIMTVP
 40
0.0
  9
$DIMTIX
 70
     0
  9
$DIMSOXD
 70
     0
  9
$DIMSAH
 70
     0
  9
$DIMBLK1
  1

  9
$DIMBLK2
  1

  9
$DIMSTYLE
  2
Standard
  9
$DIMCLRD
 70
     0
  9
$DIMCLRE
 70
     0
  9
$DIMCLRT
 70
     0
  9
$DIMTFAC
 40
1.0
  9
$DIMGAP
 40
0.09
  9
$DIMJUST
 70
     0
  9
$DIMSD1
 70
     0
  9
$DIMSD2
 70
     0
  9
$DIMTOLJ
 70
     1
  9
$DIMTZIN
 70
     0
  9
$DIMALTZ
 70
     0
  9
$DIMALTTZ
 70
     0
  9
$DIMUPT
 70
     0
  9
$DIMDEC
 70
     4
  9
$DIMTDEC
 70
     4
  9
$DIMALTU
 70
     2
  9
$DIMALTTD
 70
     2
  9
$DIMTXSTY
  7
Standard
  9
$DIMAUNIT
 70
     0
  9
$DIMADEC
 70
     0
  9
$DIMALTRND
 40
0.0
  9
$DIMAZIN
 70
     0
  9
$DIMDSEP
 70
    46
  9
$DIMATFIT
 70
     3
  9
$DIMFRAC
 70
     0
  9
$DIMLDRBLK
  1

  9
$DIMLUNIT
 70
     2
  9
$DIMLWD
 70
    -2
  9
$DIMLWE
 70
    -2
  9
$DIMTMOVE
 70
     0
  9
$DIMFXL
 40
1.0
  9
$DIMFXLON
 70
     0
  9
$DIMJOGANG
 40
0.7853981633974483
  9
$DIMTFILL
 70
     0
  9
$DIMTFILLCLR
 70
     0
  9
$DIMARCSYM
 70
     0
  9
$DIMLTYPE
  6

  9
$DIMLTEX1
  6

  9
$DIMLTEX2
  6

  9
$DIMTXTDIRECTION
 70
     0
  9
$LUNITS
 70
     2
  9
$LUPREC
 70
     4
  9
$SKETCHINC
 40
0.1
  9
$FILLETRAD
 40
0.5
  9
$AUNITS
 70
     0
  9
$AUPREC
 70
     0
  9
$MENU
  1
.
  9
$ELEVATION
 40
0.0
  9
$PELEVATION
 40
0.0
  9
$THICKNESS
 40
0.0
  9
$LIMCHECK
 70
     0
  9
$CHAMFERA
 40
0.5
  9
$CHAMFERB
 40
0.5
  9
$CHAMFERC
 40
1.0
  9
$CHAMFERD
 40
0.0
  9
$SKPOLY
 70
     0
  9
$TDCREATE
 40
2457917.586087963
  9
$TDUCREATE
 40
2457917.211087963
  9
$TDUPDATE
 40
2457917.586099537
  9
$TDUUPDATE
 40
2457917.211099537
  9
$TDINDWG
 40
0.0000000116
  9
$TDUSRTIMER
 40
0.0000000116
  9
$USRTIMER
 70
     1
  9
$ANGBASE
 50
0.0
  9
$ANGDIR
 70
     0
  9
$PDMODE
 70
     0
  9
$PDSIZE
 40
0.0
  9
$PLINEWID
 40
0.0
  9
$SPLFRAME
 70
     0
  9
$SPLINETYPE
 70
     6
  9
$SPLINESEGS
 70
     8
  9
$HANDSEED
  5
122
  9
$SURFTAB1
 70
     6
  9
$SURFTAB2
 70
     6
  9
$SURFTYPE
 70
     6
  9
$SURFU
 70
     6
  9
$SURFV
 70
     6
  9
$UCSBASE
  2

  9
$UCSNAME
  2

  9
$UCSORG
 10
0.0
 20
0.0
 30
0.0
  9
$UCSXDIR
 10
1.0
 20
0.0
 30
0.0
  9
$UCSYDIR
 10
0.0
 20
1.0
 30
0.0
  9
$UCSORTHOREF
  2

  9
$UCSORTHOVIEW
 70
     0
  9
$UCSORGTOP
 10
0.0
 20
0.0
 30
0.0
  9
$UCSORGBOTTOM
 10
0.0
 20
0.0
 30
0.0
  9
$UCSORGLEFT
 10
0.0
 20
0.0
 30
0.0
  9
$UCSORGRIGHT
 10
0.0
 20
0.0
 30
0.0
  9
$UCSORGFRONT
 10
0.0
 20
0.0
 30
0.0
  9
$UCSORGBACK
 10
0.0
 20
0.0
 30
0.0
  9
$PUCSBASE
  2

  9
$PUCSNAME
  2

  9
$PUCSORG
 10
0.0
 20
0.0
 30
0.0
  9
$PUCSXDIR
 10
1.0
 20
0.0
 30
0.0
  9
$PUCSYDIR
 10
0.0
 20
1.0
 30
0.0
  9
$PUCSORTHOREF
  2

  9
$PUCSORTHOVIEW
 70
     0
  9
$PUCSORGTOP
 10
0.0
 20
0.0
 30
0.0
  9
$PUCSORGBOTTOM
 10
0.0
 20
0.0
 30
0.0
  9
$PUCSORGLEFT
 10
0.0
 20
0.0
 30
0.0
  9
$PUCSORGRIGHT
 10
0.0
 20
0.0
 30
0.0
  9
$PUCSORGFRONT
 10
0.0
 20
0.0
 30
0.0
  9
$PUCSORGBACK
 10
0.0
 20
0.0
 30
0.0
  9
$USERI1
 70
     0
  9
$USERI2
 70
     0
  9
$USERI3
 70
     0
  9
$USERI4
 70
     0
  9
$USERI5
 70
     0
  9
$USERR1
 40
0.0
  9
$USERR2
 40
0.0
  9
$USERR3
 40
0.0
  9
$USERR4
 40
0.0
  9
$USERR5
 40
0.0
  9
$WORLDVIEW
 70
     1
  9
$SHADEDGE
 70
     3
  9
$SHADEDIF
 70
    70
  9
$TILEMODE
 70
     1
  9
$MAXACTVP
 70
    64
  9
$PINSBASE
 10
0.0
 20
0.0
 30
0.0
  9
$PLIMCHECK
 70
     0
  9
$PEXTMIN
 10
1.000000000000000E+20
 20
1.000000000000000E+20
 30
1.000000000000000E+20
  9
$PEXTMAX
 10
-1.000000000000000E+20
 20
-1.000000000000000E+20
 30
-1.000000000000000E+20
  9
$PLIMMIN
 10
0.0
 20
0.0
  9
$PLIMMAX
 10
12.0
 20
9.0
  9
$UNITMODE
 70
     0
  9
$VISRETAIN
 70
     1
  9
$PLINEGEN
 70
     0
  9
$PSLTSCALE
 70
     1
  9
$TREEDEPTH
 70
  3020
  9
$CMLSTYLE
  2
Standard
  9
$CMLJUST
 70
     0
  9
$CMLSCALE
 40
1.0
  9
$PROXYGRAPHICS
 70
     1
  9
$MEASUREMENT
 70
     0
  9
$CELWEIGHT
370
    -1
  9
$ENDCAPS
280
     0
  9
$JOINSTYLE
280
     0
  9
$LWDISPLAY
290
     1
  9
$INSUNITS
 70
     1
  9
$HYPERLINKBASE
  1

  9
$STYLESHEET
  1

  9
$XEDIT
290
     1
  9
$CEPSNTYPE
380
     0
  9
$PSTYLEMODE
290
     1
  9
$FINGERPRINTGUID
  2
{DA0F7DFA-8BD1-0174-B4F3-A0BFB214F003}
  9
$VERSIONGUID
  2
{FAEB1C32-E019-11D5-929B-00C0DF256EC4}
  9
$EXTNAMES
290
     1
  9
$PSVPSCALE
 40
0.0
  9
$OLESTARTUP
290
     0
  9
$SORTENTS
280
   127
  9
$INDEXCTL
280
     0
  9
$HIDETEXT
280
     1
  9
$XCLIPFRAME
280
     2
  9
$HALOGAP
280
     0
  9
$OBSCOLOR
 70
   257
  9
$OBSLTYPE
280
     0
  9
$INTERSECTIONDISPLAY
280
     0
  9
$INTERSECTIONCOLOR
 70
   257
  9
$DIMASSOC
280
     2
  9
$PROJECTNAME
  1

  9
$CAMERADISPLAY
290
     0
  9
$LENSLENGTH
 40
50.0
  9
$CAMERAHEIGHT
 40
0.0
  9
$STEPSPERSEC
 40
2.0
  9
$STEPSIZE
 40
6.0
  9
$3DDWFPREC
 40
2.0
  9
$PSOLWIDTH
 40
0.25
  9
$PSOLHEIGHT
 40
4.0
  9
$LOFTANG1
 40
1.570796326794897
  9
$LOFTANG2
 40
1.570796326794897
  9
$LOFTMAG1
 40
0.0
  9
$LOFTMAG2
 40
0.0
  9
$LOFTPARAM
 70
     7
  9
$LOFTNORMALS
280
     1
  9
$LATITUDE
 40
37.795
  9
$LONGITUDE
 40
-122.394
  9
$NORTHDIRECTION
 40
0.0
  9
$TIMEZONE
 70
 -8000
  9
$LIGHTGLYPHDISPLAY
280
     1
  9
$TILEMODELIGHTSYNCH
280
     1
  9
$CMATERIAL
347
3C
  9
$SOLIDHIST
280
     1
  9
$SHOWHIST
280
     1
  9
$DWFFRAME
280
     2
  9
$DGNFRAME
280
     2
  9
$REALWORLDSCALE
290
     1
  9
$INTERFERECOLOR
 62
   256
  9
$CSHADOW
280
     0
  9
$SHADOWPLANELOCATION
 40
0.0
  0
ENDSEC
  0
SECTION
  2
CLASSES
  0
CLASS
  1
ACDBDICTIONARYWDFLT
  2
AcDbDictionaryWithDefault
  3
ObjectDBX Classes
 90
        0
 91
        4
280
     0
281
     0
  0
CLASS
  1
VISUALSTYLE
  2
AcDbVisualStyle
  3
ObjectDBX Classes
 90
     4095
 91
        4
280
     0
281
     0
  0
CLASS
  1
MATERIAL
  2
AcDbMaterial
  3
ObjectDBX Classes
 90
     1153
 91
        4
280
     0
281
     0
  0
CLASS
  1
SUN
  2
AcDbSun
  3
SCENEOE
 90
     1024
 91
        4
280
     0
281
     0
  0
ENDSEC
  0
SECTION
  2
TABLES
  0
TABLE
  2
VPORT
  5
8
330
0
100
AcDbSymbolTable
 70
     1
  0
VPORT
  5
29
330
8
100
AcDbSymbolTableRecord
100
AcDbViewportTableRecord
  2
*Active
 70
     0
 10
0.0
 20
0.0
 11
1.0
 21
1.0
 12
0.0
 22
0.0
 13
0.0
 23
0.0
 14
0.5
 24
0.5
 15
0.5
 25
0.5
 16
0.0
 26
0.0
 36
1.0
 17
63.499999984125
 27
-89.00059456108309
 37
0.0
 40
178.0011891221662
 41
0.7134783795241226
 42
50.0
 43
0.0
 44
0.0
 50
0.0
 51
0.0
 71
     0
 72
   100
 73
     1
 74
     3
 75
     0
 76
     0
 77
     0
 78
     0
281
     0
 65
     1
110
0.0
120
0.0
130
0.0
111
1.0
121
0.0
131
0.0
112
0.0
122
1.0
132
0.0
 79
     0
146
0.0
 60
     3
 61
     5
292
     1
282
     1
141
0.0
142
0.0
 63
   250
361
3F
  0
ENDTAB
  0
TABLE
  2
LTYPE
  5
5
330
0
100
AcDbSymbolTable
 70
     1
  0
LTYPE
  5
14
330
5
100
AcDbSymbolTableRecord
100
AcDbLinetypeTableRecord
  2
ByBlock
 70
     0
  3

 72
    65
 73
     0
 40
0.0
  0
LTYPE
  5
15
330
5
100
AcDbSymbolTableRecord
100
AcDbLinetypeTableRecord
  2
ByLayer
 70
     0
  3

 72
    65
 73
     0
 40
0.0
  0
LTYPE
  5
16
330
5
100
AcDbSymbolTableRecord
100
AcDbLinetypeTableRecord
  2
Continuous
 70
     0
  3
Solid line
 72
    65
 73
     0
 40
0.0
  0
ENDTAB
  0
TABLE
  2
LAYER
  5
2
330
0
100
AcDbSymbolTable
 70
     2
  0
LAYER
  5
10
330
2
100
AcDbSymbolTableRecord
100
AcDbLayerTableRecord
  2
0
 70
     0
 62
     7
  6
Continuous
370
    -3
390
F
347
3E
  0
LAYER
  5
40
330
2
100
AcDbSymbolTableRecord
100
AcDbLayerTableRecord
  2
_U+30EC_U+30A4_U+30E4_U+30FC 1
 70
     0
 62
     7
  6
Continuous
370
    -3
390
F
347
3E
  0
ENDTAB
  0
TABLE
  2
STYLE
  5
3
330
0
100
AcDbSymbolTable
 70
     1
  0
STYLE
  5
11
330
3
100
AcDbSymbolTableRecord
100
AcDbTextStyleTableRecord
  2
Standard
 70
     0
 40
0.0
 41
1.0
 50
0.0
 71
     0
 42
0.2
  3
txt
  4

  0
ENDTAB
  0
TABLE
  2
VIEW
  5
6
330
0
100
AcDbSymbolTable
 70
     0
  0
ENDTAB
  0
TABLE
  2
UCS
  5
7
330
0
100
AcDbSymbolTable
 70
     0
  0
ENDTAB
  0
TABLE
  2
APPID
  5
9
330
0
100
AcDbSymbolTable
 70
     1
  0
APPID
  5
12
330
9
100
AcDbSymbolTableRecord
100
AcDbRegAppTableRecord
  2
ACAD
 70
     0
  0
ENDTAB
  0
TABLE
  2
DIMSTYLE
  5
A
330
0
100
AcDbSymbolTable
 70
     1
100
AcDbDimStyleTable
  0
DIMSTYLE
105
27
330
A
100
AcDbSymbolTableRecord
100
AcDbDimStyleTableRecord
  2
Standard
 70
     0
178
     0
340
11
  0
ENDTAB
  0
TABLE
  2
BLOCK_RECORD
  5
1
330
0
100
AcDbSymbolTable
 70
    13
  0
BLOCK_RECORD
  5
1F
330
1
100
AcDbSymbolTableRecord
100
AcDbBlockTableRecord
  2
*Model_Space
340
22
 70
     0
280
     1
281
     0
  0
BLOCK_RECORD
  5
1B
330
1
100
AcDbSymbolTableRecord
100
AcDbBlockTableRecord
  2
*Paper_Space
340
1E
 70
     0
280
     1
281
     0
  0
BLOCK_RECORD
  5
23
330
1
100
AcDbSymbolTableRecord
100
AcDbBlockTableRecord
  2
*Paper_Space0
340
26
 70
     0
280
     1
281
     0
  0
BLOCK_RECORD
  5
83
330
1
100
AcDbSymbolTableRecord
100
AcDbBlockTableRecord
  2
block 2
340
0
102
{BLKREFS
331
84
102
}
 70
     0
280
     1
281
     0
  0
BLOCK_RECORD
  5
97
330
1
100
AcDbSymbolTableRecord
100
AcDbBlockTableRecord
  2
block 3
340
0
102
{BLKREFS
331
98
102
}
 70
     0
280
     1
281
     0
  0
BLOCK_RECORD
  5
9D
330
1
100
AcDbSymbolTableRecord
100
AcDbBlockTableRecord
  2
block 4
340
0
102
{BLKREFS
331
9E
102
}
 70
     0
280
     1
281
     0
  0
BLOCK_RECORD
  5
B1
330
1
100
AcDbSymbolTableRecord
100
AcDbBlockTableRecord
  2
block 5
340
0
102
{BLKREFS
331
B2
102
}
 70
     0
280
     1
281
     0
  0
BLOCK_RECORD
  5
C2
330
1
100
AcDbSymbolTableRecord
100
AcDbBlockTableRecord
  2
block 6
340
0
102
{BLKREFS
331
C3
102
}
 70
     0
280
     1
281
     0
  0
BLOCK_RECORD
  5
D2
330
1
100
AcDbSymbolTableRecord
100
AcDbBlockTableRecord
  2
block 7
340
0
102
{BLKREFS
331
D3
102
}
 70
     0
280
     1
281
     0
  0
BLOCK_RECORD
  5
DB
330
1
100
AcDbSymbolTableRecord
100
AcDbBlockTableRecord
  2
block 8
340
0
102
{BLKREFS
331
DC
102
}
 70
     0
280
     1
281
     0
  0
BLOCK_RECORD
  5
E7
330
1
100
AcDbSymbolTableRecord
100
AcDbBlockTableRecord
  2
block 9
340
0
102
{BLKREFS
331
E8
102
}
 70
     0
280
     1
281
     0
  0
BLOCK_RECORD
  5
EF
330
1
100
AcDbSymbolTableRecord
100
AcDbBlockTableRecord
  2
block 10
340
0
102
{BLKREFS
331
F0
102
}
 70
     0
280
     1
281
     0
  0
BLOCK_RECORD
  5
FF
330
1
100
AcDbSymbolTableRecord
100
AcDbBlockTableRecord
  2
block 11
340
0
102
{BLKREFS
331
100
102
}
 70
     0
280
     1
281
     0
  0
BLOCK_RECORD
  5
107
330
1
100
AcDbSymbolTableRecord
100
AcDbBlockTableRecord
  2
block 12
340
0
102
{BLKREFS
331
108
102
}
 70
     0
280
     1
281
     0
  0
BLOCK_RECORD
  5
117
330
1
100
AcDbSymbolTableRecord
100
AcDbBlockTableRecord
  2
block 13
340
0
102
{BLKREFS
331
118
102
}
 70
     0
280
     1
281
     0
  0
ENDTAB
  0
ENDSEC
  0
SECTION
  2
BLOCKS
  0
BLOCK
  5
20
330
1F
100
AcDbEntity
  8
0
100
AcDbBlockBegin
  2
*Model_Space
 70
     0
 10
0.0
 20
0.0
 30
0.0
  3
*Model_Space
  1

  0
ENDBLK
  5
21
330
1F
100
AcDbEntity
  8
0
100
AcDbBlockEnd
  0
BLOCK
  5
1C
330
1B
100
AcDbEntity
 67
     1
  8
0
100
AcDbBlockBegin
  2
*Paper_Space
 70
     0
 10
0.0
 20
0.0
 30
0.0
  3
*Paper_Space
  1

  0
ENDBLK
  5
1D
330
1B
100
AcDbEntity
 67
     1
  8
0
100
AcDbBlockEnd
  0
BLOCK
  5
24
330
23
100
AcDbEntity
  8
0
100
AcDbBlockBegin
  2
*Paper_Space0
 70
     0
 10
0.0
 20
0.0
 30
0.0
  3
*Paper_Space0
  1

  0
ENDBLK
  5
25
330
23
100
AcDbEntity
  8
0
100
AcDbBlockEnd
  0
BLOCK
  5
85
330
83
100
AcDbEntity
  8
0
100
AcDbBlockBegin
  2
block 2
 70
     0
 10
0.0
 20
0.0
 30
0.0
  3
block 2
  1

  0
POLYLINE
  5
87
330
83
100
AcDbEntity
  8
_U+30EC_U+30A4_U+30E4_U+30FC 1
 62
   179
420
  2234388
370
     9
100
AcDb2dPolyline
 66
     1
 10
0.0
 20
0.0
 30
0.0
  0
VERTEX
  5
88
330
87
100
AcDbEntity
  8
_U+30EC_U+30A4_U+30E4_U+30FC 1
 62
   179
420
  2234388
370
     9
100
AcDbVertex
100
AcDb2dVertex
 10
82.75947733307427
 20
-86.46431636727276
 30
0.0
  0
VERTEX
  5
89
330
87
100
AcDbEntity
  8
_U+30EC_U+30A4_U+30E4_U+30FC 1
 62
   179
420
  2234388
370
     9
100
AcDbVertex
100
AcDb2dVertex
 10
82.75947733307427
 20
-80.66655470205568
 30
0.0
  0
SEQEND
  5
8A
330
87
100
AcDbEntity
  8
_U+30EC_U+30A4_U+30E4_U+30FC 1
 62
   179
420
  2234388
370
     9
  0
POLYLINE
  5
8B
330
83
100
AcDbEntity
  8
_U+30EC_U+30A4_U+30E4_U+30FC 1
 62
   179
420
  2234388
370
     9
100
AcDb2dPolyline
 66
     1
 10
0.0
 20
0.0
 30
0.0
  0
VERTEX
  5
8C
330
8B
100
AcDbEntity
  8
_U+30EC_U+30A4_U+30E4_U+30FC 1
 62
   179
420
  2234388
370
     9
100
AcDbVertex
100
AcDb2dVertex
 10
82.75947733307427
 20
-84.4368672011131
 30
0.0
  0
VERTEX
  5
8D
330
8B
100
AcDbEntity
  8
_U+30EC_U+30A4_U+30E4_U+30FC 1
 62
   179
420
  2234388
370
     9
100
AcDbVertex
100
AcDb2dVertex
 10
82.75947733307427
 20
-85.43663942308532
 30
0.0
  0
SEQEND
  5
8E
330
8B
100
AcDbEntity
  8
_U+30EC_U+30A4_U+30E4_U+30FC 1
 62
   179
420
  2234388
370
     9
  0
POLYLINE
  5
8F
330
83
100
AcDbEntity
  8
_U+30EC_U+30A4_U+30E4_U+30FC 1
 62
   179
420
  2234388
370
     9
100
AcDb2dPolyline
 66
     1
 10
0.0
 20
0.0
 30
0.0
  0
VERTEX
  5
90
330
8F
100
AcDbEntity
  8
_U+30EC_U+30A4_U+30E4_U+30FC 1
 62
   179
420
  2234388
370
     9
100
AcDbVertex
100
AcDb2dVertex
 10
81.29943598143414
 20
-84.4368672011131
 30
0.0
  0
VERTEX
  5
91
330
8F
100
AcDbEntity
  8
_U+30EC_U+30A4_U+30E4_U+30FC 1
 62
   179
420
  2234388
370
     9
100
AcDbVertex
100
AcDb2dVertex
 10
83.75991980755086
 20
-84.4368672011131
 30
0.0
  0
SEQEND
  5
92
330
8F
100
AcDbEntity
  8
_U+30EC_U+30A4_U+30E4_U+30FC 1
 62
   179
420
  2234388
370
     9
  0
POLYLINE
  5
93
330
83
100
AcDbEntity
  8
_U+30EC_U+30A4_U+30E4_U+30FC 1
 62
   179
420
  2234388
370
     9
100
AcDb2dPolyline
 66
     1
 10
0.0
 20
0.0
 30
0.0
  0
VERTEX
  5
94
330
93
100
AcDbEntity
  8
_U+30EC_U+30A4_U+30E4_U+30FC 1
 62
   179
420
  2234388
370
     9
100
AcDbVertex
100
AcDb2dVertex
 10
81.29943598143414
 20
-85.43663942308532
 30
0.0
  0
VERTEX
  5
95
330
93
100
AcDbEntity
  8
_U+30EC_U+30A4_U+30E4_U+30FC 1
 62
   179
420
  2234388
370
     9
100
AcDbVertex
100
AcDb2dVertex
 10
83.75991980755086
 20
-85.43663942308532
 30
0.0
  0
SEQEND
  5
96
330
93
100
AcDbEntity
  8
_U+30EC_U+30A4_U+30E4_U+30FC 1
 62
   179
420
  2234388
370
     9
  0
INSERT
  5
98
330
83
100
AcDbEntity
  8
_U+30EC_U+30A4_U+30E4_U+30FC 1
100
AcDbBlockReference
  2
block 3
 10
0.0
 20
0.0
 30
0.0
  0
ENDBLK
  5
86
330
83
100
AcDbEntity
  8
0
100
AcDbBlockEnd
  0
BLOCK
  5
99
330
97
100
AcDbEntity
  8
0
100
AcDbBlockBegin
  2
block 3
 70
     0
 10
0.0
 20
0.0
 30
0.0
  3
block 3
  1

  0
SPLINE
  5
9B
330
97
100
AcDbEntity
  8
_U+30EC_U+30A4_U+30E4_U+30FC 1
370
     0
100
AcDbSpline
210
0.0
220
0.0
230
1.0
 70
    11
 71
     3
 72
    26
 73
    22
 74
     0
 42
0.0000000001
 43
0.0000000001
 12
1.0
 22
0.0
 32
0.0
 13
1.0
 23
0.0
 33
0.0
 40
0.0
 40
0.0
 40
0.0
 40
0.0
 40
1.0
 40
1.0
 40
1.0
 40
2.0
 40
2.0
 40
2.0
 40
3.0
 40
3.0
 40
3.0
 40
4.0
 40
4.0
 40
4.0
 40
5.0
 40
5.0
 40
5.0
 40
6.0
 40
6.0
 40
6.0
 40
7.0
 40
7.0
 40
7.0
 40
7.0
 10
82.11385089092987
 20
-81.48942733422834
 30
0.0
 10
82.11385089092987
 20
-81.48942733422834
 30
0.0
 10
81.0096977879073
 20
-81.48942733422834
 30
0.0
 10
81.0096977879073
 20
-81.48942733422834
 30
0.0
 10
81.0096977879073
 20
-81.48942733422834
 30
0.0
 10
81.0096977879073
 20
-81.84220511191792
 30
0.0
 10
81.0096977879073
 20
-81.84220511191792
 30
0.0
 10
81.0096977879073
 20
-81.84220511191792
 30
0.0
 10
80.86155868204156
 20
-81.84220511191792
 30
0.0
 10
80.86155868204156
 20
-81.84220511191792
 30
0.0
 10
80.84674477145498
 20
-81.48718802216293
 30
0.0
 10
80.68379175500267
 20
-81.43740639240107
 30
0.0
 10
80.56941458489237
 20
-81.40588376871104
 30
0.0
 10
80.56941458489237
 20
-81.40588376871104
 30
0.0
 10
80.56941458489237
 20
-81.24982094322921
 30
0.0
 10
80.56941458489237
 20
-81.24982094322921
 30
0.0
 10
80.56941458489237
 20
-81.24982094322921
 30
0.0
 10
82.11385089092987
 20
-81.24982094322921
 30
0.0
 10
82.11385089092987
 20
-81.24982094322921
 30
0.0
 10
82.11385089092987
 20
-81.24982094322921
 30
0.0
 10
82.11385089092987
 20
-81.48942733422834
 30
0.0
 10
82.11385089092987
 20
-81.48942733422834
 30
0.0
  0
HATCH
  5
9C
330
97
100
AcDbEntity
  8
_U+30EC_U+30A4_U+30E4_U+30FC 1
 62
   179
420
  2234388
100
AcDbHatch
 10
0.0
 20
0.0
 30
0.0
210
0.0
220
0.0
230
1.0
  2
SOLID
 70
     1
 71
     0
 91
        1
 92
        1
 93
        1
 72
     4
 94
        3
 73
     0
 74
     1
 95
       26
 96
       22
 40
0.0
 40
0.0
 40
0.0
 40
0.0
 40
1.0
 40
1.0
 40
1.0
 40
2.0
 40
2.0
 40
2.0
 40
3.0
 40
3.0
 40
3.0
 40
4.0
 40
4.0
 40
4.0
 40
5.0
 40
5.0
 40
5.0
 40
6.0
 40
6.0
 40
6.0
 40
7.0
 40
7.0
 40
7.0
 40
7.0
 10
82.11385089092987
 20
-81.48942733422834
 10
82.11385089092987
 20
-81.48942733422834
 10
81.0096977879073
 20
-81.48942733422834
 10
81.0096977879073
 20
-81.48942733422834
 10
81.0096977879073
 20
-81.48942733422834
 10
81.0096977879073
 20
-81.84220511191792
 10
81.0096977879073
 20
-81.84220511191792
 10
81.0096977879073
 20
-81.84220511191792
 10
80.86155868204156
 20
-81.84220511191792
 10
80.86155868204156
 20
-81.84220511191792
 10
80.84674477145498
 20
-81.48718802216293
 10
80.68379175500267
 20
-81.43740639240107
 10
80.56941458489237
 20
-81.40588376871104
 10
80.56941458489237
 20
-81.40588376871104
 10
80.56941458489237
 20
-81.24982094322921
 10
80.56941458489237
 20
-81.24982094322921
 10
80.56941458489237
 20
-81.24982094322921
 10
82.11385089092987
 20
-81.24982094322921
 10
82.11385089092987
 20
-81.24982094322921
 10
82.11385089092987
 20
-81.24982094322921
 10
82.11385089092987
 20
-81.48942733422834
 10
82.11385089092987
 20
-81.48942733422834
 97
        0
 97
        0
 75
     2
 76
     1
 98
        0
  0
ENDBLK
  5
9A
330
97
100
AcDbEntity
  8
0
100
AcDbBlockEnd
  0
BLOCK
  5
9F
330
9D
100
AcDbEntity
  8
0
100
AcDbBlockBegin
  2
block 4
 70
     0
 10
0.0
 20
0.0
 30
0.0
  3
block 4
  1

  0
POLYLINE
  5
A1
330
9D
100
AcDbEntity
  8
_U+30EC_U+30A4_U+30E4_U+30FC 1
 62
   179
420
  2234388
370
     9
100
AcDb2dPolyline
 66
     1
 10
0.0
 20
0.0
 30
0.0
  0
VERTEX
  5
A2
330
A1
100
AcDbEntity
  8
_U+30EC_U+30A4_U+30E4_U+30FC 1
 62
   179
420
  2234388
370
     9
100
AcDbVertex
100
AcDb2dVertex
 10
68.75998546800885
 20
-95.43672525391865
 30
0.0
  0
VERTEX
  5
A3
330
A1
100
AcDbEntity
  8
_U+30EC_U+30A4_U+30E4_U+30FC 1
 62
   179
420
  2234388
370
     9
100
AcDbVertex
100
AcDb2dVertex
 10
68.75998546800885
 20
-90.17881942189975
 30
0.0
  0
SEQEND
  5
A4
330
A1
100
AcDbEntity
  8
_U+30EC_U+30A4_U+30E4_U+30FC 1
 62
   179
420
  2234388
370
     9
  0
POLYLINE
  5
A5
330
9D
100
AcDbEntity
  8
_U+30EC_U+30A4_U+30E4_U+30FC 1
 62
   179
420
  2234388
370
     9
100
AcDb2dPolyline
 66
     1
 10
0.0
 20
0.0
 30
0.0
  0
VERTEX
  5
A6
330
A5
100
AcDbEntity
  8
_U+30EC_U+30A4_U+30E4_U+30FC 1
 62
   179
420
  2234388
370
     9
100
AcDbVertex
100
AcDb2dVertex
 10
68.75998546800885
 20
-95.43672525391865
 30
0.0
  0
VERTEX
  5
A7
330
A5
100
AcDbEntity
  8
_U+30EC_U+30A4_U+30E4_U+30FC 1
 62
   179
420
  2234388
370
     9
100
AcDbVertex
100
AcDb2dVertex
 10
68.75998546800885
 20
-96.9367363646549
 30
0.0
  0
SEQEND
  5
A8
330
A5
100
AcDbEntity
  8
_U+30EC_U+30A4_U+30E4_U+30FC 1
 62
   179
420
  2234388
370
     9
  0
POLYLINE
  5
A9
330
9D
100
AcDbEntity
  8
_U+30EC_U+30A4_U+30E4_U+30FC 1
 62
   179
420
  2234388
370
     9
100
AcDb2dPolyline
 66
     1
 10
0.0
 20
0.0
 30
0.0
  0
VERTEX
  5
AA
330
A9
100
AcDbEntity
  8
_U+30EC_U+30A4_U+30E4_U+30FC 1
 62
   179
420
  2234388
370
     9
100
AcDbVertex
100
AcDb2dVertex
 10
67.29994411636872
 20
-95.43672525391865
 30
0.0
  0
VERTEX
  5
AB
330
A9
100
AcDbEntity
  8
_U+30EC_U+30A4_U+30E4_U+30FC 1
 62
   179
420
  2234388
370
     9
100
AcDbVertex
100
AcDb2dVertex
 10
69.75972238694789
 20
-95.43672525391865
 30
0.0
  0
SEQEND
  5
AC
330
A9
100
AcDbEntity
  8
_U+30EC_U+30A4_U+30E4_U+30FC 1
 62
   179
420
  2234388
370
     9
  0
POLYLINE
  5
AD
330
9D
100
AcDbEntity
  8
_U+30EC_U+30A4_U+30E4_U+30FC 1
 62
   179
420
  2234388
370
     9
100
AcDb2dPolyline
 66
     1
 10
0.0
 20
0.0
 30
0.0
  0
VERTEX
  5
AE
330
AD
100
AcDbEntity
  8
_U+30EC_U+30A4_U+30E4_U+30FC 1
 62
   179
420
  2234388
370
     9
100
AcDbVertex
100
AcDb2dVertex
 10
67.29994411636872
 20
-95.9366113649046
 30
0.0
  0
VERTEX
  5
AF
330
AD
100
AcDbEntity
  8
_U+30EC_U+30A4_U+30E4_U+30FC 1
 62
   179
420
  2234388
370
     9
100
AcDbVertex
100
AcDb2dVertex
 10
69.75972238694789
 20
-95.9366113649046
 30
0.0
  0
SEQEND
  5
B0
330
AD
100
AcDbEntity
  8
_U+30EC_U+30A4_U+30E4_U+30FC 1
 62
   179
420
  2234388
370
     9
  0
INSERT
  5
B2
330
9D
100
AcDbEntity
  8
_U+30EC_U+30A4_U+30E4_U+30FC 1
100
AcDbBlockReference
  2
block 5
 10
0.0
 20
0.0
 30
0.0
  0
ENDBLK
  5
A0
330
9D
100
AcDbEntity
  8
0
100
AcDbBlockEnd
  0
BLOCK
  5
B3
330
B1
100
AcDbEntity
  8
0
100
AcDbBlockBegin
  2
block 5
 70
     0
 10
0.0
 20
0.0
 30
0.0
  3
block 5
  1

  0
SPLINE
  5
B5
330
B1
100
AcDbEntity
  8
_U+30EC_U+30A4_U+30E4_U+30FC 1
370
     0
100
AcDbSpline
210
0.0
220
0.0
230
1.0
 70
    11
 71
     3
 72
    29
 73
    25
 74
     0
 42
0.0000000001
 43
0.0000000001
 12
1.0
 22
0.0
 32
0.0
 13
1.0
 23
0.0
 33
0.0
 40
0.0
 40
0.0
 40
0.0
 40
0.0
 40
1.0
 40
1.0
 40
1.0
 40
2.0
 40
2.0
 40
2.0
 40
3.0
 40
3.0
 40
3.0
 40
4.0
 40
4.0
 40
4.0
 40
5.0
 40
5.0
 40
5.0
 40
6.0
 40
6.0
 40
6.0
 40
7.0
 40
7.0
 40
7.0
 40
8.0
 40
8.0
 40
8.0
 40
8.0
 10
68.1718939716723
 20
-93.15193682567035
 30
0.0
 10
68.3813557771755
 20
-93.2670030148777
 30
0.0
 10
68.40030380234437
 20
-93.45234915198414
 30
0.0
 10
68.40030380234437
 20
-93.57671709900166
 30
0.0
 10
68.40030380234437
 20
-93.74862736371563
 30
0.0
 10
68.35379501329349
 20
-93.90021156506661
 30
0.0
 10
68.1718939716723
 20
-94.00184188188149
 30
0.0
 10
67.97724607675569
 20
-94.112429446958
 30
0.0
 10
67.7402235073705
 20
-94.1331000198695
 30
0.0
 10
67.57761500046671
 20
-94.1331000198695
 30
0.0
 10
67.43361000918327
 20
-94.1331000198695
 30
0.0
 10
67.1817735292115
 20
-94.11484101379769
 30
0.0
 10
66.98299151971258
 20
-94.00184188188149
 30
0.0
 10
66.78007539563137
 20
-93.88643118312562
 30
0.0
 10
66.75664874633168
 20
-93.71486542796018
 30
0.0
 10
66.75664874633168
 20
-93.57671709900166
 30
0.0
 10
66.75664874633168
 20
-93.40721840112737
 30
0.0
 10
66.8010904780914
 20
-93.2532226329367
 30
0.0
 10
66.98299151971258
 20
-93.15193682567035
 30
0.0
 10
67.17557235733805
 20
-93.04548337517613
 30
0.0
 10
67.40398218801012
 20
-93.02067868768233
 30
0.0
 10
67.57761500046671
 20
-93.02067868768233
 30
0.0
 10
67.74883624608363
 20
-93.02067868768233
 30
0.0
 10
67.97931313404685
 20
-93.04307180833646
 30
0.0
 10
68.1718939716723
 20
-93.15193682567035
 30
0.0
  0
SPLINE
  5
B6
330
B1
100
AcDbEntity
  8
_U+30EC_U+30A4_U+30E4_U+30FC 1
370
     0
100
AcDbSpline
210
0.0
220
0.0
230
1.0
 70
    11
 71
     3
 72
    17
 73
    13
 74
     0
 42
0.0000000001
 43
0.0000000001
 12
1.0
 22
0.0
 32
0.0
 13
1.0
 23
0.0
 33
0.0
 40
0.0
 40
0.0
 40
0.0
 40
0.0
 40
1.0
 40
1.0
 40
1.0
 40
2.0
 40
2.0
 40
2.0
 40
3.0
 40
3.0
 40
3.0
 40
4.0
 40
4.0
 40
4.0
 40
4.0
 10
66.94922958395713
 20
-93.57671709900166
 30
0.0
 10
66.94922958395713
 20
-93.84371199910852
 30
0.0
 10
67.2327609423932
 20
-93.89332137409612
 30
0.0
 10
67.57761500046671
 20
-93.89332137409612
 30
0.0
 10
67.89697535194937
 20
-93.89332137409612
 30
0.0
 10
68.20565590742775
 20
-93.85473630466132
 30
0.0
 10
68.20565590742775
 20
-93.57671709900166
 30
0.0
 10
68.20565590742775
 20
-93.312478275283
 30
0.0
 10
67.92453611583137
 20
-93.26011282390719
 30
0.0
 10
67.57761500046671
 20
-93.26011282390719
 30
0.0
 10
67.25791013943552
 20
-93.26011282390719
 30
0.0
 10
66.94922958395713
 20
-93.30076495063315
 30
0.0
 10
66.94922958395713
 20
-93.57671709900166
 30
0.0
  0
HATCH
  5
B7
330
B1
100
AcDbEntity
  8
_U+30EC_U+30A4_U+30E4_U+30FC 1
 62
   179
420
  2234388
100
AcDbHatch
 10
0.0
 20
0.0
 30
0.0
210
0.0
220
0.0
230
1.0
  2
SOLID
 70
     1
 71
     0
 91
        2
 92
        1
 93
        1
 72
     4
 94
        3
 73
     0
 74
     1
 95
       29
 96
       25
 40
0.0
 40
0.0
 40
0.0
 40
0.0
 40
1.0
 40
1.0
 40
1.0
 40
2.0
 40
2.0
 40
2.0
 40
3.0
 40
3.0
 40
3.0
 40
4.0
 40
4.0
 40
4.0
 40
5.0
 40
5.0
 40
5.0
 40
6.0
 40
6.0
 40
6.0
 40
7.0
 40
7.0
 40
7.0
 40
8.0
 40
8.0
 40
8.0
 40
8.0
 10
68.1718939716723
 20
-93.15193682567035
 10
68.3813557771755
 20
-93.2670030148777
 10
68.40030380234437
 20
-93.45234915198414
 10
68.40030380234437
 20
-93.57671709900166
 10
68.40030380234437
 20
-93.74862736371563
 10
68.35379501329349
 20
-93.90021156506661
 10
68.1718939716723
 20
-94.00184188188149
 10
67.97724607675569
 20
-94.112429446958
 10
67.7402235073705
 20
-94.1331000198695
 10
67.57761500046671
 20
-94.1331000198695
 10
67.43361000918327
 20
-94.1331000198695
 10
67.1817735292115
 20
-94.11484101379769
 10
66.98299151971258
 20
-94.00184188188149
 10
66.78007539563137
 20
-93.88643118312562
 10
66.75664874633168
 20
-93.71486542796018
 10
66.75664874633168
 20
-93.57671709900166
 10
66.75664874633168
 20
-93.40721840112737
 10
66.8010904780914
 20
-93.2532226329367
 10
66.98299151971258
 20
-93.15193682567035
 10
67.17557235733805
 20
-93.04548337517613
 10
67.40398218801012
 20
-93.02067868768233
 10
67.57761500046671
 20
-93.02067868768233
 10
67.74883624608363
 20
-93.02067868768233
 10
67.97931313404685
 20
-93.04307180833646
 10
68.1718939716723
 20
-93.15193682567035
 97
        0
 97
        0
 92
        1
 93
        1
 72
     4
 94
        3
 73
     0
 74
     1
 95
       17
 96
       13
 40
0.0
 40
0.0
 40
0.0
 40
0.0
 40
1.0
 40
1.0
 40
1.0
 40
2.0
 40
2.0
 40
2.0
 40
3.0
 40
3.0
 40
3.0
 40
4.0
 40
4.0
 40
4.0
 40
4.0
 10
66.94922958395713
 20
-93.57671709900166
 10
66.94922958395713
 20
-93.84371199910852
 10
67.2327609423932
 20
-93.89332137409612
 10
67.57761500046671
 20
-93.89332137409612
 10
67.89697535194937
 20
-93.89332137409612
 10
68.20565590742775
 20
-93.85473630466132
 10
68.20565590742775
 20
-93.57671709900166
 10
68.20565590742775
 20
-93.312478275283
 10
67.92453611583137
 20
-93.26011282390719
 10
67.57761500046671
 20
-93.26011282390719
 10
67.25791013943552
 20
-93.26011282390719
 10
66.94922958395713
 20
-93.30076495063315
 10
66.94922958395713
 20
-93.57671709900166
 97
        0
 97
        0
 75
     2
 76
     1
 98
        0
  0
POLYLINE
  5
B8
330
B1
100
AcDbEntity
  8
_U+30EC_U+30A4_U+30E4_U+30FC 1
370
     0
100
AcDb2dPolyline
 66
     1
 10
0.0
 20
0.0
 30
0.0
  0
VERTEX
  5
B9
330
B8
100
AcDbEntity
  8
_U+30EC_U+30A4_U+30E4_U+30FC 1
370
     0
100
AcDbVertex
100
AcDb2dVertex
 10
68.34966089871119
 20
-92.78916827107355
 30
0.0
  0
VERTEX
  5
BA
330
B8
100
AcDbEntity
  8
_U+30EC_U+30A4_U+30E4_U+30FC 1
370
     0
100
AcDbVertex
100
AcDb2dVertex
 10
68.09782441873944
 20
-92.78916827107355
 30
0.0
  0
VERTEX
  5
BB
330
B8
100
AcDbEntity
  8
_U+30EC_U+30A4_U+30E4_U+30FC 1
370
     0
100
AcDbVertex
100
AcDb2dVertex
 10
68.09782441873944
 20
-92.52010631367553
 30
0.0
  0
VERTEX
  5
BC
330
B8
100
AcDbEntity
  8
_U+30EC_U+30A4_U+30E4_U+30FC 1
370
     0
100
AcDbVertex
100
AcDb2dVertex
 10
68.34966089871119
 20
-92.52010631367553
 30
0.0
  0
VERTEX
  5
BD
330
B8
100
AcDbEntity
  8
_U+30EC_U+30A4_U+30E4_U+30FC 1
370
     0
100
AcDbVertex
100
AcDb2dVertex
 10
68.34966089871119
 20
-92.78916827107355
 30
0.0
  0
SEQEND
  5
BE
330
B8
100
AcDbEntity
  8
_U+30EC_U+30A4_U+30E4_U+30FC 1
370
     0
  0
HATCH
  5
BF
330
B1
100
AcDbEntity
  8
_U+30EC_U+30A4_U+30E4_U+30FC 1
 62
   179
420
  2234388
100
AcDbHatch
 10
0.0
 20
0.0
 30
0.0
210
0.0
220
0.0
230
1.0
  2
SOLID
 70
     1
 71
     0
 91
        1
 92
        1
 93
        4
 72
     1
 10
68.34966089871119
 20
-92.78916827107355
 11
68.09782441873944
 21
-92.78916827107355
 72
     1
 10
68.09782441873944
 20
-92.78916827107355
 11
68.09782441873944
 21
-92.52010631367553
 72
     1
 10
68.09782441873944
 20
-92.52010631367553
 11
68.34966089871119
 21
-92.52010631367553
 72
     1
 10
68.34966089871119
 20
-92.52010631367553
 11
68.34966089871119
 21
-92.78916827107355
 97
        0
 75
     2
 76
     1
 98
        0
  0
SPLINE
  5
C0
330
B1
100
AcDbEntity
  8
_U+30EC_U+30A4_U+30E4_U+30FC 1
370
     0
100
AcDbSpline
210
0.0
220
0.0
230
1.0
 70
    11
 71
     3
 72
    53
 73
    49
 74
     0
 42
0.0000000001
 43
0.0000000001
 12
1.0
 22
0.0
 32
0.0
 13
1.0
 23
0.0
 33
0.0
 40
0.0
 40
0.0
 40
0.0
 40
0.0
 40
1.0
 40
1.0
 40
1.0
 40
2.0
 40
2.0
 40
2.0
 40
3.0
 40
3.0
 40
3.0
 40
4.0
 40
4.0
 40
4.0
 40
5.0
 40
5.0
 40
5.0
 40
6.0
 40
6.0
 40
6.0
 40
7.0
 40
7.0
 40
7.0
 40
8.0
 40
8.0
 40
8.0
 40
9.0
 40
9.0
 40
9.0
 40
10.0
 40
10.0
 40
10.0
 40
11.0
 40
11.0
 40
11.0
 40
12.0
 40
12.0
 40
12.0
 40
13.0
 40
13.0
 40
13.0
 40
14.0
 40
14.0
 40
14.0
 40
15.0
 40
15.0
 40
15.0
 40
16.0
 40
16.0
 40
16.0
 40
16.0
 10
68.40030380234437
 20
-91.75322805865892
 30
0.0
 10
68.40030380234437
 20
-91.83728838849902
 30
0.0
 10
68.38342283446664
 20
-91.94546438673586
 30
0.0
 10
68.32003307753806
 20
-92.05432940406976
 30
0.0
 10
68.21013453155858
 20
-92.2396755411762
 30
0.0
 10
68.07887639357057
 20
-92.26206866183033
 30
0.0
 10
67.97104490488225
 20
-92.2823947251933
 30
0.0
 10
67.97104490488225
 20
-92.2823947251933
 30
0.0
 10
67.97104490488225
 20
-92.04502764625958
 30
0.0
 10
67.97104490488225
 20
-92.04502764625958
 30
0.0
 10
68.16982691438116
 20
-91.98611651346181
 30
0.0
 10
68.19945473555431
 20
-91.8507242608915
 30
0.0
 10
68.19945473555431
 20
-91.75116100136776
 30
0.0
 10
68.19945473555431
 20
-91.60198836685645
 30
0.0
 10
68.09989147603059
 20
-91.43903535040414
 30
0.0
 10
67.86734753077623
 20
-91.43903535040414
 30
0.0
 10
67.61137693622216
 20
-91.43903535040414
 30
0.0
 10
67.54144149787159
 20
-91.63127167848107
 30
0.0
 10
67.54144149787159
 20
-91.76011824962941
 30
0.0
 10
67.54144149787159
 20
-91.79422469493339
 30
0.0
 10
67.54144149787159
 20
-91.94546438673586
 30
0.0
 10
67.67063257856846
 20
-92.04054902212876
 30
0.0
 10
67.67063257856846
 20
-92.04054902212876
 30
0.0
 10
67.65168455339958
 20
-92.22830672607488
 30
0.0
 10
67.65168455339958
 20
-92.22830672607488
 30
0.0
 10
67.65168455339958
 20
-92.22830672607488
 30
0.0
 10
66.8052245926737
 20
-92.09946015492653
 30
0.0
 10
66.8052245926737
 20
-92.09946015492653
 30
0.0
 10
66.8052245926737
 20
-92.09946015492653
 30
0.0
 10
66.8052245926737
 20
-91.2674695952387
 30
0.0
 10
66.8052245926737
 20
-91.2674695952387
 30
0.0
 10
66.8052245926737
 20
-91.2674695952387
 30
0.0
 10
66.99987248759031
 20
-91.2674695952387
 30
0.0
 10
66.99987248759031
 20
-91.2674695952387
 30
0.0
 10
66.99987248759031
 20
-91.2674695952387
 30
0.0
 10
66.99987248759031
 20
-91.92548283292142
 30
0.0
 10
66.99987248759031
 20
-91.92548283292142
 30
0.0
 10
66.99987248759031
 20
-91.92548283292142
 30
0.0
 10
67.42293021317899
 20
-91.99541827127199
 30
0.0
 10
67.42293021317899
 20
-91.99541827127199
 30
0.0
 10
67.38916827742355
 20
-91.92961694750372
 30
0.0
 10
67.34886066024612
 20
-91.84142250308132
 30
0.0
 10
67.34886066024612
 20
-91.71498749877264
 30
0.0
 10
67.34886066024612
 20
-91.44385848408348
 30
0.0
 10
67.53524032599813
 20
-91.19029945636909
 30
0.0
 10
67.84839950560735
 20
-91.19029945636909
 30
0.0
 10
68.16569279979886
 20
-91.19029945636909
 30
0.0
 10
68.40030380234437
 20
-91.43007810214249
 30
0.0
 10
68.40030380234437
 20
-91.75322805865892
 30
0.0
  0
HATCH
  5
C1
330
B1
100
AcDbEntity
  8
_U+30EC_U+30A4_U+30E4_U+30FC 1
 62
   179
420
  2234388
100
AcDbHatch
 10
0.0
 20
0.0
 30
0.0
210
0.0
220
0.0
230
1.0
  2
SOLID
 70
     1
 71
     0
 91
        1
 92
        1
 93
        1
 72
     4
 94
        3
 73
     0
 74
     1
 95
       53
 96
       49
 40
0.0
 40
0.0
 40
0.0
 40
0.0
 40
1.0
 40
1.0
 40
1.0
 40
2.0
 40
2.0
 40
2.0
 40
3.0
 40
3.0
 40
3.0
 40
4.0
 40
4.0
 40
4.0
 40
5.0
 40
5.0
 40
5.0
 40
6.0
 40
6.0
 40
6.0
 40
7.0
 40
7.0
 40
7.0
 40
8.0
 40
8.0
 40
8.0
 40
9.0
 40
9.0
 40
9.0
 40
10.0
 40
10.0
 40
10.0
 40
11.0
 40
11.0
 40
11.0
 40
12.0
 40
12.0
 40
12.0
 40
13.0
 40
13.0
 40
13.0
 40
14.0
 40
14.0
 40
14.0
 40
15.0
 40
15.0
 40
15.0
 40
16.0
 40
16.0
 40
16.0
 40
16.0
 10
68.40030380234437
 20
-91.75322805865892
 10
68.40030380234437
 20
-91.83728838849902
 10
68.38342283446664
 20
-91.94546438673586
 10
68.32003307753806
 20
-92.05432940406976
 10
68.21013453155858
 20
-92.2396755411762
 10
68.07887639357057
 20
-92.26206866183033
 10
67.97104490488225
 20
-92.2823947251933
 10
67.97104490488225
 20
-92.2823947251933
 10
67.97104490488225
 20
-92.04502764625958
 10
67.97104490488225
 20
-92.04502764625958
 10
68.16982691438116
 20
-91.98611651346181
 10
68.19945473555431
 20
-91.8507242608915
 10
68.19945473555431
 20
-91.75116100136776
 10
68.19945473555431
 20
-91.60198836685645
 10
68.09989147603059
 20
-91.43903535040414
 10
67.86734753077623
 20
-91.43903535040414
 10
67.61137693622216
 20
-91.43903535040414
 10
67.54144149787159
 20
-91.63127167848107
 10
67.54144149787159
 20
-91.76011824962941
 10
67.54144149787159
 20
-91.79422469493339
 10
67.54144149787159
 20
-91.94546438673586
 10
67.67063257856846
 20
-92.04054902212876
 10
67.67063257856846
 20
-92.04054902212876
 10
67.65168455339958
 20
-92.22830672607488
 10
67.65168455339958
 20
-92.22830672607488
 10
67.65168455339958
 20
-92.22830672607488
 10
66.8052245926737
 20
-92.09946015492653
 10
66.8052245926737
 20
-92.09946015492653
 10
66.8052245926737
 20
-92.09946015492653
 10
66.8052245926737
 20
-91.2674695952387
 10
66.8052245926737
 20
-91.2674695952387
 10
66.8052245926737
 20
-91.2674695952387
 10
66.99987248759031
 20
-91.2674695952387
 10
66.99987248759031
 20
-91.2674695952387
 10
66.99987248759031
 20
-91.2674695952387
 10
66.99987248759031
 20
-91.92548283292142
 10
66.99987248759031
 20
-91.92548283292142
 10
66.99987248759031
 20
-91.92548283292142
 10
67.42293021317899
 20
-91.99541827127199
 10
67.42293021317899
 20
-91.99541827127199
 10
67.38916827742355
 20
-91.92961694750372
 10
67.34886066024612
 20
-91.84142250308132
 10
67.34886066024612
 20
-91.71498749877264
 10
67.34886066024612
 20
-91.44385848408348
 10
67.53524032599813
 20
-91.19029945636909
 10
67.84839950560735
 20
-91.19029945636909
 10
68.16569279979886
 20
-91.19029945636909
 10
68.40030380234437
 20
-91.43007810214249
 10
68.40030380234437
 20
-91.75322805865892
 97
        0
 97
        0
 75
     2
 76
     1
 98
        0
  0
ENDBLK
  5
B4
330
B1
100
AcDbEntity
  8
0
100
AcDbBlockEnd
  0
BLOCK
  5
C4
330
C2
100
AcDbEntity
  8
0
100
AcDbBlockBegin
  2
block 6
 70
     0
 10
0.0
 20
0.0
 30
0.0
  3
block 6
  1

  0
POLYLINE
  5
C6
330
C2
100
AcDbEntity
  8
_U+30EC_U+30A4_U+30E4_U+30FC 1
 62
   179
420
  2234388
370
     9
100
AcDb2dPolyline
 66
     1
 10
0.0
 20
0.0
 30
0.0
  0
VERTEX
  5
C7
330
C6
100
AcDbEntity
  8
_U+30EC_U+30A4_U+30E4_U+30FC 1
 62
   179
420
  2234388
370
     9
100
AcDbVertex
100
AcDb2dVertex
 10
54.75996443629025
 20
-100.6367402526187
 30
0.0
  0
VERTEX
  5
C8
330
C6
100
AcDbEntity
  8
_U+30EC_U+30A4_U+30E4_U+30FC 1
 62
   179
420
  2234388
370
     9
100
AcDbVertex
100
AcDb2dVertex
 10
64.75952084784699
 20
-100.6367402526187
 30
0.0
  0
SEQEND
  5
C9
330
C6
100
AcDbEntity
  8
_U+30EC_U+30A4_U+30E4_U+30FC 1
 62
   179
420
  2234388
370
     9
  0
POLYLINE
  5
CA
330
C2
100
AcDbEntity
  8
_U+30EC_U+30A4_U+30E4_U+30FC 1
 62
   179
420
  2234388
370
     9
100
AcDb2dPolyline
 66
     1
 10
0.0
 20
0.0
 30
0.0
  0
VERTEX
  5
CB
330
CA
100
AcDbEntity
  8
_U+30EC_U+30A4_U+30E4_U+30FC 1
 62
   179
420
  2234388
370
     9
100
AcDbVertex
100
AcDb2dVertex
 10
54.75996443629025
 20
-99.17673414187253
 30
0.0
  0
VERTEX
  5
CC
330
CA
100
AcDbEntity
  8
_U+30EC_U+30A4_U+30E4_U+30FC 1
 62
   179
420
  2234388
370
     9
100
AcDbVertex
100
AcDb2dVertex
 10
54.75996443629025
 20
-101.6368652523684
 30
0.0
  0
SEQEND
  5
CD
330
CA
100
AcDbEntity
  8
_U+30EC_U+30A4_U+30E4_U+30FC 1
 62
   179
420
  2234388
370
     9
  0
POLYLINE
  5
CE
330
C2
100
AcDbEntity
  8
_U+30EC_U+30A4_U+30E4_U+30FC 1
 62
   179
420
  2234388
370
     9
100
AcDb2dPolyline
 66
     1
 10
0.0
 20
0.0
 30
0.0
  0
VERTEX
  5
CF
330
CE
100
AcDbEntity
  8
_U+30EC_U+30A4_U+30E4_U+30FC 1
 62
   179
420
  2234388
370
     9
100
AcDbVertex
100
AcDb2dVertex
 10
64.75952084784699
 20
-98.47668191982554
 30
0.0
  0
VERTEX
  5
D0
330
CE
100
AcDbEntity
  8
_U+30EC_U+30A4_U+30E4_U+30FC 1
 62
   179
420
  2234388
370
     9
100
AcDbVertex
100
AcDb2dVertex
 10
64.75952084784699
 20
-101.6368652523684
 30
0.0
  0
SEQEND
  5
D1
330
CE
100
AcDbEntity
  8
_U+30EC_U+30A4_U+30E4_U+30FC 1
 62
   179
420
  2234388
370
     9
  0
INSERT
  5
D3
330
C2
100
AcDbEntity
  8
_U+30EC_U+30A4_U+30E4_U+30FC 1
100
AcDbBlockReference
  2
block 7
 10
0.0
 20
0.0
 30
0.0
  0
ENDBLK
  5
C5
330
C2
100
AcDbEntity
  8
0
100
AcDbBlockEnd
  0
BLOCK
  5
D4
330
D2
100
AcDbEntity
  8
0
100
AcDbBlockBegin
  2
block 7
 70
     0
 10
0.0
 20
0.0
 30
0.0
  3
block 7
  1

  0
SPLINE
  5
D6
330
D2
100
AcDbEntity
  8
_U+30EC_U+30A4_U+30E4_U+30FC 1
370
     0
100
AcDbSpline
210
0.0
220
0.0
230
1.0
 70
    11
 71
     3
 72
    26
 73
    22
 74
     0
 42
0.0000000001
 43
0.0000000001
 12
1.0
 22
0.0
 32
0.0
 13
1.0
 23
0.0
 33
0.0
 40
0.0
 40
0.0
 40
0.0
 40
0.0
 40
1.0
 40
1.0
 40
1.0
 40
2.0
 40
2.0
 40
2.0
 40
3.0
 40
3.0
 40
3.0
 40
4.0
 40
4.0
 40
4.0
 40
5.0
 40
5.0
 40
5.0
 40
6.0
 40
6.0
 40
6.0
 40
7.0
 40
7.0
 40
7.0
 40
7.0
 10
59.07856443835536
 20
-99.28524031806064
 30
0.0
 10
59.07856443835536
 20
-99.28524031806064
 30
0.0
 10
59.07856443835536
 20
-98.18108721503806
 30
0.0
 10
59.07856443835536
 20
-98.18108721503806
 30
0.0
 10
59.07856443835536
 20
-98.18108721503806
 30
0.0
 10
58.72578666066578
 20
-98.18108721503806
 30
0.0
 10
58.72578666066578
 20
-98.18108721503806
 30
0.0
 10
58.72578666066578
 20
-98.18108721503806
 30
0.0
 10
58.72578666066578
 20
-98.03294810917232
 30
0.0
 10
58.72578666066578
 20
-98.03294810917232
 30
0.0
 10
59.08080375042078
 20
-98.01813419858576
 30
0.0
 10
59.13058538018264
 20
-97.85518118213344
 30
0.0
 10
59.16228025864693
 20
-97.74080401202313
 30
0.0
 10
59.16228025864693
 20
-97.74080401202313
 30
0.0
 10
59.31817082935449
 20
-97.74080401202313
 30
0.0
 10
59.31817082935449
 20
-97.74080401202313
 30
0.0
 10
59.31817082935449
 20
-97.74080401202313
 30
0.0
 10
59.31817082935449
 20
-99.28524031806064
 30
0.0
 10
59.31817082935449
 20
-99.28524031806064
 30
0.0
 10
59.31817082935449
 20
-99.28524031806064
 30
0.0
 10
59.07856443835536
 20
-99.28524031806064
 30
0.0
 10
59.07856443835536
 20
-99.28524031806064
 30
0.0
  0
HATCH
  5
D7
330
D2
100
AcDbEntity
  8
_U+30EC_U+30A4_U+30E4_U+30FC 1
 62
   179
420
  2234388
100
AcDbHatch
 10
0.0
 20
0.0
 30
0.0
210
0.0
220
0.0
230
1.0
  2
SOLID
 70
     1
 71
     0
 91
        1
 92
        1
 93
        1
 72
     4
 94
        3
 73
     0
 74
     1
 95
       26
 96
       22
 40
0.0
 40
0.0
 40
0.0
 40
0.0
 40
1.0
 40
1.0
 40
1.0
 40
2.0
 40
2.0
 40
2.0
 40
3.0
 40
3.0
 40
3.0
 40
4.0
 40
4.0
 40
4.0
 40
5.0
 40
5.0
 40
5.0
 40
6.0
 40
6.0
 40
6.0
 40
7.0
 40
7.0
 40
7.0
 40
7.0
 10
59.07856443835536
 20
-99.28524031806064
 10
59.07856443835536
 20
-99.28524031806064
 10
59.07856443835536
 20
-98.18108721503806
 10
59.07856443835536
 20
-98.18108721503806
 10
59.07856443835536
 20
-98.18108721503806
 10
58.72578666066578
 20
-98.18108721503806
 10
58.72578666066578
 20
-98.18108721503806
 10
58.72578666066578
 20
-98.18108721503806
 10
58.72578666066578
 20
-98.03294810917232
 10
58.72578666066578
 20
-98.03294810917232
 10
59.08080375042078
 20
-98.01813419858576
 10
59.13058538018264
 20
-97.85518118213344
 10
59.16228025864693
 20
-97.74080401202313
 10
59.16228025864693
 20
-97.74080401202313
 10
59.31817082935449
 20
-97.74080401202313
 10
59.31817082935449
 20
-97.74080401202313
 10
59.31817082935449
 20
-97.74080401202313
 10
59.31817082935449
 20
-99.28524031806064
 10
59.31817082935449
 20
-99.28524031806064
 10
59.31817082935449
 20
-99.28524031806064
 10
59.07856443835536
 20
-99.28524031806064
 10
59.07856443835536
 20
-99.28524031806064
 97
        0
 97
        0
 75
     2
 76
     1
 98
        0
  0
SPLINE
  5
D8
330
D2
100
AcDbEntity
  8
_U+30EC_U+30A4_U+30E4_U+30FC 1
370
     0
100
AcDbSpline
210
0.0
220
0.0
230
1.0
 70
    11
 71
     3
 72
    29
 73
    25
 74
     0
 42
0.0000000001
 43
0.0000000001
 12
1.0
 22
0.0
 32
0.0
 13
1.0
 23
0.0
 33
0.0
 40
0.0
 40
0.0
 40
0.0
 40
0.0
 40
1.0
 40
1.0
 40
1.0
 40
2.0
 40
2.0
 40
2.0
 40
3.0
 40
3.0
 40
3.0
 40
4.0
 40
4.0
 40
4.0
 40
5.0
 40
5.0
 40
5.0
 40
6.0
 40
6.0
 40
6.0
 40
7.0
 40
7.0
 40
7.0
 40
8.0
 40
8.0
 40
8.0
 40
8.0
 10
60.81334226995292
 20
-99.10747339102174
 30
0.0
 10
60.69810382597131
 20
-99.31693519652494
 30
0.0
 10
60.51275768886487
 20
-99.3358832216938
 30
0.0
 10
60.38838974184735
 20
-99.3358832216938
 30
0.0
 10
60.21647947713338
 20
-99.3358832216938
 30
0.0
 10
60.06506753055665
 20
-99.28937443264294
 30
0.0
 10
59.96326495896752
 20
-99.10747339102174
 30
0.0
 10
59.85250513911674
 20
-98.91282549610513
 30
0.0
 10
59.83217907575376
 20
-98.67614743626847
 30
0.0
 10
59.83217907575376
 20
-98.51319441981614
 30
0.0
 10
59.83217907575376
 20
-98.3691894285327
 30
0.0
 10
59.85026582705132
 20
-98.11735294856095
 30
0.0
 10
59.96326495896752
 20
-97.91857093906202
 30
0.0
 10
60.07867565772339
 20
-97.71565481498081
 30
0.0
 10
60.2504136676631
 20
-97.69222816568112
 30
0.0
 10
60.38838974184735
 20
-97.69222816568112
 30
0.0
 10
60.55788843972164
 20
-97.69222816568112
 30
0.0
 10
60.71171195313805
 20
-97.73666989744083
 30
0.0
 10
60.81334226995292
 20
-97.91857093906202
 30
0.0
 10
60.91962346567288
 20
-98.11115177668749
 30
0.0
 10
60.94442815316668
 20
-98.33956160735956
 30
0.0
 10
60.94442815316668
 20
-98.51319441981614
 30
0.0
 10
60.94442815316668
 20
-98.68441566543306
 30
0.0
 10
60.92186277773829
 20
-98.91489255339629
 30
0.0
 10
60.81334226995292
 20
-99.10747339102174
 30
0.0
  0
SPLINE
  5
D9
330
D2
100
AcDbEntity
  8
_U+30EC_U+30A4_U+30E4_U+30FC 1
370
     0
100
AcDbSpline
210
0.0
220
0.0
230
1.0
 70
    11
 71
     3
 72
    17
 73
    13
 74
     0
 42
0.0000000001
 43
0.0000000001
 12
1.0
 22
0.0
 32
0.0
 13
1.0
 23
0.0
 33
0.0
 40
0.0
 40
0.0
 40
0.0
 40
0.0
 40
1.0
 40
1.0
 40
1.0
 40
2.0
 40
2.0
 40
2.0
 40
3.0
 40
3.0
 40
3.0
 40
4.0
 40
4.0
 40
4.0
 40
4.0
 10
60.38838974184735
 20
-97.88480900330659
 30
0.0
 10
60.12156709651475
 20
-97.88480900330659
 30
0.0
 10
60.07178546675289
 20
-98.16834036174264
 30
0.0
 10
60.07178546675289
 20
-98.51319441981614
 30
0.0
 10
60.07178546675289
 20
-98.83255477129882
 30
0.0
 10
60.11019828141342
 20
-99.14123532677719
 30
0.0
 10
60.38838974184735
 20
-99.14123532677719
 30
0.0
 10
60.65280082034027
 20
-99.14123532677719
 30
0.0
 10
60.70482176216755
 20
-98.86011553518081
 30
0.0
 10
60.70482176216755
 20
-98.51319441981614
 30
0.0
 10
60.70482176216755
 20
-98.19348955878496
 30
0.0
 10
60.6641696354416
 20
-97.88480900330659
 30
0.0
 10
60.38838974184735
 20
-97.88480900330659
 30
0.0
  0
HATCH
  5
DA
330
D2
100
AcDbEntity
  8
_U+30EC_U+30A4_U+30E4_U+30FC 1
 62
   179
420
  2234388
100
AcDbHatch
 10
0.0
 20
0.0
 30
0.0
210
0.0
220
0.0
230
1.0
  2
SOLID
 70
     1
 71
     0
 91
        2
 92
        1
 93
        1
 72
     4
 94
        3
 73
     0
 74
     1
 95
       29
 96
       25
 40
0.0
 40
0.0
 40
0.0
 40
0.0
 40
1.0
 40
1.0
 40
1.0
 40
2.0
 40
2.0
 40
2.0
 40
3.0
 40
3.0
 40
3.0
 40
4.0
 40
4.0
 40
4.0
 40
5.0
 40
5.0
 40
5.0
 40
6.0
 40
6.0
 40
6.0
 40
7.0
 40
7.0
 40
7.0
 40
8.0
 40
8.0
 40
8.0
 40
8.0
 10
60.81334226995292
 20
-99.10747339102174
 10
60.69810382597131
 20
-99.31693519652494
 10
60.51275768886487
 20
-99.3358832216938
 10
60.38838974184735
 20
-99.3358832216938
 10
60.21647947713338
 20
-99.3358832216938
 10
60.06506753055665
 20
-99.28937443264294
 10
59.96326495896752
 20
-99.10747339102174
 10
59.85250513911674
 20
-98.91282549610513
 10
59.83217907575376
 20
-98.67614743626847
 10
59.83217907575376
 20
-98.51319441981614
 10
59.83217907575376
 20
-98.3691894285327
 10
59.85026582705132
 20
-98.11735294856095
 10
59.96326495896752
 20
-97.91857093906202
 10
60.07867565772339
 20
-97.71565481498081
 10
60.2504136676631
 20
-97.69222816568112
 10
60.38838974184735
 20
-97.69222816568112
 10
60.55788843972164
 20
-97.69222816568112
 10
60.71171195313805
 20
-97.73666989744083
 10
60.81334226995292
 20
-97.91857093906202
 10
60.91962346567288
 20
-98.11115177668749
 10
60.94442815316668
 20
-98.33956160735956
 10
60.94442815316668
 20
-98.51319441981614
 10
60.94442815316668
 20
-98.68441566543306
 10
60.92186277773829
 20
-98.91489255339629
 10
60.81334226995292
 20
-99.10747339102174
 97
        0
 97
        0
 92
        1
 93
        1
 72
     4
 94
        3
 73
     0
 74
     1
 95
       17
 96
       13
 40
0.0
 40
0.0
 40
0.0
 40
0.0
 40
1.0
 40
1.0
 40
1.0
 40
2.0
 40
2.0
 40
2.0
 40
3.0
 40
3.0
 40
3.0
 40
4.0
 40
4.0
 40
4.0
 40
4.0
 10
60.38838974184735
 20
-97.88480900330659
 10
60.12156709651475
 20
-97.88480900330659
 10
60.07178546675289
 20
-98.16834036174264
 10
60.07178546675289
 20
-98.51319441981614
 10
60.07178546675289
 20
-98.83255477129882
 10
60.11019828141342
 20
-99.14123532677719
 10
60.38838974184735
 20
-99.14123532677719
 10
60.65280082034027
 20
-99.14123532677719
 10
60.70482176216755
 20
-98.86011553518081
 10
60.70482176216755
 20
-98.51319441981614
 10
60.70482176216755
 20
-98.19348955878496
 10
60.6641696354416
 20
-97.88480900330659
 10
60.38838974184735
 20
-97.88480900330659
 97
        0
 97
        0
 75
     2
 76
     1
 98
        0
  0
ENDBLK
  5
D5
330
D2
100
AcDbEntity
  8
0
100
AcDbBlockEnd
  0
BLOCK
  5
DD
330
DB
100
AcDbEntity
  8
0
100
AcDbBlockBegin
  2
block 8
 70
     0
 10
0.0
 20
0.0
 30
0.0
  3
block 8
  1

  0
POLYLINE
  5
DF
330
DB
100
AcDbEntity
  8
_U+30EC_U+30A4_U+30E4_U+30FC 1
 62
   179
420
  2234388
370
     9
100
AcDb2dPolyline
 66
     1
 10
0.0
 20
0.0
 30
0.0
  0
VERTEX
  5
E0
330
DF
100
AcDbEntity
  8
_U+30EC_U+30A4_U+30E4_U+30FC 1
 62
   179
420
  2234388
370
     9
100
AcDbVertex
100
AcDb2dVertex
 10
42.76001696465664
 20
-100.6367402526187
 30
0.0
  0
VERTEX
  5
E1
330
DF
100
AcDbEntity
  8
_U+30EC_U+30A4_U+30E4_U+30FC 1
 62
   179
420
  2234388
370
     9
100
AcDbVertex
100
AcDb2dVertex
 10
54.75996443629025
 20
-100.6367402526187
 30
0.0
  0
SEQEND
  5
E2
330
DF
100
AcDbEntity
  8
_U+30EC_U+30A4_U+30E4_U+30FC 1
 62
   179
420
  2234388
370
     9
  0
POLYLINE
  5
E3
330
DB
100
AcDbEntity
  8
_U+30EC_U+30A4_U+30E4_U+30FC 1
 62
   179
420
  2234388
370
     9
100
AcDb2dPolyline
 66
     1
 10
0.0
 20
0.0
 30
0.0
  0
VERTEX
  5
E4
330
E3
100
AcDbEntity
  8
_U+30EC_U+30A4_U+30E4_U+30FC 1
 62
   179
420
  2234388
370
     9
100
AcDbVertex
100
AcDb2dVertex
 10
42.76001696465664
 20
-88.47659608899188
 30
0.0
  0
VERTEX
  5
E5
330
E3
100
AcDbEntity
  8
_U+30EC_U+30A4_U+30E4_U+30FC 1
 62
   179
420
  2234388
370
     9
100
AcDbVertex
100
AcDb2dVertex
 10
42.76001696465664
 20
-101.6368652523684
 30
0.0
  0
SEQEND
  5
E6
330
E3
100
AcDbEntity
  8
_U+30EC_U+30A4_U+30E4_U+30FC 1
 62
   179
420
  2234388
370
     9
  0
INSERT
  5
E8
330
DB
100
AcDbEntity
  8
_U+30EC_U+30A4_U+30E4_U+30FC 1
100
AcDbBlockReference
  2
block 9
 10
0.0
 20
0.0
 30
0.0
  0
ENDBLK
  5
DE
330
DB
100
AcDbEntity
  8
0
100
AcDbBlockEnd
  0
BLOCK
  5
E9
330
E7
100
AcDbEntity
  8
0
100
AcDbBlockBegin
  2
block 9
 70
     0
 10
0.0
 20
0.0
 30
0.0
  3
block 9
  1

  0
SPLINE
  5
EB
330
E7
100
AcDbEntity
  8
_U+30EC_U+30A4_U+30E4_U+30FC 1
370
     0
100
AcDbSpline
210
0.0
220
0.0
230
1.0
 70
    11
 71
     3
 72
    26
 73
    22
 74
     0
 42
0.0000000001
 43
0.0000000001
 12
1.0
 22
0.0
 32
0.0
 13
1.0
 23
0.0
 33
0.0
 40
0.0
 40
0.0
 40
0.0
 40
0.0
 40
1.0
 40
1.0
 40
1.0
 40
2.0
 40
2.0
 40
2.0
 40
3.0
 40
3.0
 40
3.0
 40
4.0
 40
4.0
 40
4.0
 40
5.0
 40
5.0
 40
5.0
 40
6.0
 40
6.0
 40
6.0
 40
7.0
 40
7.0
 40
7.0
 40
7.0
 10
48.07871906350115
 20
-99.28524031806064
 30
0.0
 10
48.07871906350115
 20
-99.28524031806064
 30
0.0
 10
48.07871906350115
 20
-98.18108721503806
 30
0.0
 10
48.07871906350115
 20
-98.18108721503806
 30
0.0
 10
48.07871906350115
 20
-98.18108721503806
 30
0.0
 10
47.72594128581157
 20
-98.18108721503806
 30
0.0
 10
47.72594128581157
 20
-98.18108721503806
 30
0.0
 10
47.72594128581157
 20
-98.18108721503806
 30
0.0
 10
47.72594128581157
 20
-98.03294810917232
 30
0.0
 10
47.72594128581157
 20
-98.03294810917232
 30
0.0
 10
48.08095837556657
 20
-98.01813419858576
 30
0.0
 10
48.13074000532843
 20
-97.85518118213344
 30
0.0
 10
48.16243488379273
 20
-97.74080401202313
 30
0.0
 10
48.16243488379273
 20
-97.74080401202313
 30
0.0
 10
48.31832545450028
 20
-97.74080401202313
 30
0.0
 10
48.31832545450028
 20
-97.74080401202313
 30
0.0
 10
48.31832545450028
 20
-97.74080401202313
 30
0.0
 10
48.31832545450028
 20
-99.28524031806064
 30
0.0
 10
48.31832545450028
 20
-99.28524031806064
 30
0.0
 10
48.31832545450028
 20
-99.28524031806064
 30
0.0
 10
48.07871906350115
 20
-99.28524031806064
 30
0.0
 10
48.07871906350115
 20
-99.28524031806064
 30
0.0
  0
HATCH
  5
EC
330
E7
100
AcDbEntity
  8
_U+30EC_U+30A4_U+30E4_U+30FC 1
 62
   179
420
  2234388
100
AcDbHatch
 10
0.0
 20
0.0
 30
0.0
210
0.0
220
0.0
230
1.0
  2
SOLID
 70
     1
 71
     0
 91
        1
 92
        1
 93
        1
 72
     4
 94
        3
 73
     0
 74
     1
 95
       26
 96
       22
 40
0.0
 40
0.0
 40
0.0
 40
0.0
 40
1.0
 40
1.0
 40
1.0
 40
2.0
 40
2.0
 40
2.0
 40
3.0
 40
3.0
 40
3.0
 40
4.0
 40
4.0
 40
4.0
 40
5.0
 40
5.0
 40
5.0
 40
6.0
 40
6.0
 40
6.0
 40
7.0
 40
7.0
 40
7.0
 40
7.0
 10
48.07871906350115
 20
-99.28524031806064
 10
48.07871906350115
 20
-99.28524031806064
 10
48.07871906350115
 20
-98.18108721503806
 10
48.07871906350115
 20
-98.18108721503806
 10
48.07871906350115
 20
-98.18108721503806
 10
47.72594128581157
 20
-98.18108721503806
 10
47.72594128581157
 20
-98.18108721503806
 10
47.72594128581157
 20
-98.18108721503806
 10
47.72594128581157
 20
-98.03294810917232
 10
47.72594128581157
 20
-98.03294810917232
 10
48.08095837556657
 20
-98.01813419858576
 10
48.13074000532843
 20
-97.85518118213344
 10
48.16243488379273
 20
-97.74080401202313
 10
48.16243488379273
 20
-97.74080401202313
 10
48.31832545450028
 20
-97.74080401202313
 10
48.31832545450028
 20
-97.74080401202313
 10
48.31832545450028
 20
-97.74080401202313
 10
48.31832545450028
 20
-99.28524031806064
 10
48.31832545450028
 20
-99.28524031806064
 10
48.31832545450028
 20
-99.28524031806064
 10
48.07871906350115
 20
-99.28524031806064
 10
48.07871906350115
 20
-99.28524031806064
 97
        0
 97
        0
 75
     2
 76
     1
 98
        0
  0
SPLINE
  5
ED
330
E7
100
AcDbEntity
  8
_U+30EC_U+30A4_U+30E4_U+30FC 1
370
     0
100
AcDbSpline
210
0.0
220
0.0
230
1.0
 70
    11
 71
     3
 72
    44
 73
    40
 74
     0
 42
0.0000000001
 43
0.0000000001
 12
1.0
 22
0.0
 32
0.0
 13
1.0
 23
0.0
 33
0.0
 40
0.0
 40
0.0
 40
0.0
 40
0.0
 40
1.0
 40
1.0
 40
1.0
 40
2.0
 40
2.0
 40
2.0
 40
3.0
 40
3.0
 40
3.0
 40
4.0
 40
4.0
 40
4.0
 40
5.0
 40
5.0
 40
5.0
 40
6.0
 40
6.0
 40
6.0
 40
7.0
 40
7.0
 40
7.0
 40
8.0
 40
8.0
 40
8.0
 40
9.0
 40
9.0
 40
9.0
 40
10.0
 40
10.0
 40
10.0
 40
11.0
 40
11.0
 40
11.0
 40
12.0
 40
12.0
 40
12.0
 40
13.0
 40
13.0
 40
13.0
 40
13.0
 10
49.4879353717426
 20
-98.70336369060195
 30
0.0
 10
49.25504691693971
 20
-98.86218259247195
 30
0.0
 10
49.15565591219026
 20
-98.93625214540484
 30
0.0
 10
49.10363497036298
 20
-99.07991262713975
 30
0.0
 10
49.10363497036298
 20
-99.07991262713975
 30
0.0
 10
49.93562553005082
 20
-99.07991262713975
 30
0.0
 10
49.93562553005082
 20
-99.07991262713975
 30
0.0
 10
49.93562553005082
 20
-99.07991262713975
 30
0.0
 10
49.93562553005082
 20
-99.28524031806064
 30
0.0
 10
49.93562553005082
 20
-99.28524031806064
 30
0.0
 10
49.93562553005082
 20
-99.28524031806064
 30
0.0
 10
48.83681232503038
 20
-99.28524031806064
 30
0.0
 10
48.83681232503038
 20
-99.28524031806064
 30
0.0
 10
48.87074651556009
 20
-98.92763940669171
 30
0.0
 10
48.94085420868493
 20
-98.84943573917653
 30
0.0
 10
49.35237086439802
 20
-98.5510904701539
 30
0.0
 10
49.62591144592686
 20
-98.35230846065498
 30
0.0
 10
49.69601913905169
 20
-98.28444007959556
 30
0.0
 10
49.69601913905169
 20
-98.1469807697341
 30
0.0
 10
49.69601913905169
 20
-98.0284694850415
 30
0.0
 10
49.61902125495636
 20
-97.89755585660201
 30
0.0
 10
49.40887043035612
 20
-97.89755585660201
 30
0.0
 10
49.13085122469646
 20
-97.89755585660201
 30
0.0
 10
49.12172172166054
 20
-98.12803274456522
 30
0.0
 10
49.11724309752972
 20
-98.24447697196666
 30
0.0
 10
49.11724309752972
 20
-98.24447697196666
 30
0.0
 10
48.87763670653059
 20
-98.24447697196666
 30
0.0
 10
48.87763670653059
 20
-98.24447697196666
 30
0.0
 10
48.88659395479224
 20
-98.11735294856095
 30
0.0
 10
48.89796276989357
 20
-98.00538734529033
 30
0.0
 10
48.98374564747629
 20
-97.88687606059773
 30
0.0
 10
49.10139565829757
 20
-97.72599010143657
 30
0.0
 10
49.30034992257075
 20
-97.69222816568112
 30
0.0
 10
49.42471786958826
 20
-97.69222816568112
 30
0.0
 10
49.72082382654549
 20
-97.69222816568112
 30
0.0
 10
49.94234346624705
 20
-97.87619626459346
 30
0.0
 10
49.94234346624705
 20
-98.14904782702524
 30
0.0
 10
49.94234346624705
 20
-98.37780216724583
 30
0.0
 10
49.8181477740038
 20
-98.47702091722103
 30
0.0
 10
49.4879353717426
 20
-98.70336369060195
 30
0.0
  0
HATCH
  5
EE
330
E7
100
AcDbEntity
  8
_U+30EC_U+30A4_U+30E4_U+30FC 1
 62
   179
420
  2234388
100
AcDbHatch
 10
0.0
 20
0.0
 30
0.0
210
0.0
220
0.0
230
1.0
  2
SOLID
 70
     1
 71
     0
 91
        1
 92
        1
 93
        1
 72
     4
 94
        3
 73
     0
 74
     1
 95
       44
 96
       40
 40
0.0
 40
0.0
 40
0.0
 40
0.0
 40
1.0
 40
1.0
 40
1.0
 40
2.0
 40
2.0
 40
2.0
 40
3.0
 40
3.0
 40
3.0
 40
4.0
 40
4.0
 40
4.0
 40
5.0
 40
5.0
 40
5.0
 40
6.0
 40
6.0
 40
6.0
 40
7.0
 40
7.0
 40
7.0
 40
8.0
 40
8.0
 40
8.0
 40
9.0
 40
9.0
 40
9.0
 40
10.0
 40
10.0
 40
10.0
 40
11.0
 40
11.0
 40
11.0
 40
12.0
 40
12.0
 40
12.0
 40
13.0
 40
13.0
 40
13.0
 40
13.0
 10
49.4879353717426
 20
-98.70336369060195
 10
49.25504691693971
 20
-98.86218259247195
 10
49.15565591219026
 20
-98.93625214540484
 10
49.10363497036298
 20
-99.07991262713975
 10
49.10363497036298
 20
-99.07991262713975
 10
49.93562553005082
 20
-99.07991262713975
 10
49.93562553005082
 20
-99.07991262713975
 10
49.93562553005082
 20
-99.07991262713975
 10
49.93562553005082
 20
-99.28524031806064
 10
49.93562553005082
 20
-99.28524031806064
 10
49.93562553005082
 20
-99.28524031806064
 10
48.83681232503038
 20
-99.28524031806064
 10
48.83681232503038
 20
-99.28524031806064
 10
48.87074651556009
 20
-98.92763940669171
 10
48.94085420868493
 20
-98.84943573917653
 10
49.35237086439802
 20
-98.5510904701539
 10
49.62591144592686
 20
-98.35230846065498
 10
49.69601913905169
 20
-98.28444007959556
 10
49.69601913905169
 20
-98.1469807697341
 10
49.69601913905169
 20
-98.0284694850415
 10
49.61902125495636
 20
-97.89755585660201
 10
49.40887043035612
 20
-97.89755585660201
 10
49.13085122469646
 20
-97.89755585660201
 10
49.12172172166054
 20
-98.12803274456522
 10
49.11724309752972
 20
-98.24447697196666
 10
49.11724309752972
 20
-98.24447697196666
 10
48.87763670653059
 20
-98.24447697196666
 10
48.87763670653059
 20
-98.24447697196666
 10
48.88659395479224
 20
-98.11735294856095
 10
48.89796276989357
 20
-98.00538734529033
 10
48.98374564747629
 20
-97.88687606059773
 10
49.10139565829757
 20
-97.72599010143657
 10
49.30034992257075
 20
-97.69222816568112
 10
49.42471786958826
 20
-97.69222816568112
 10
49.72082382654549
 20
-97.69222816568112
 10
49.94234346624705
 20
-97.87619626459346
 10
49.94234346624705
 20
-98.14904782702524
 10
49.94234346624705
 20
-98.37780216724583
 10
49.8181477740038
 20
-98.47702091722103
 10
49.4879353717426
 20
-98.70336369060195
 97
        0
 97
        0
 75
     2
 76
     1
 98
        0
  0
ENDBLK
  5
EA
330
E7
100
AcDbEntity
  8
0
100
AcDbBlockEnd
  0
BLOCK
  5
F1
330
EF
100
AcDbEntity
  8
0
100
AcDbBlockBegin
  2
block 10
 70
     0
 10
0.0
 20
0.0
 30
0.0
  3
block 10
  1

  0
POLYLINE
  5
F3
330
EF
100
AcDbEntity
  8
_U+30EC_U+30A4_U+30E4_U+30FC 1
 62
   179
420
  2234388
370
     9
100
AcDb2dPolyline
 66
     1
 10
0.0
 20
0.0
 30
0.0
  0
VERTEX
  5
F4
330
F3
100
AcDbEntity
  8
_U+30EC_U+30A4_U+30E4_U+30FC 1
 62
   179
420
  2234388
370
     9
100
AcDbVertex
100
AcDb2dVertex
 10
42.76001696465664
 20
-80.93667664643256
 30
0.0
  0
VERTEX
  5
F5
330
F3
100
AcDbEntity
  8
_U+30EC_U+30A4_U+30E4_U+30FC 1
 62
   179
420
  2234388
370
     9
100
AcDbVertex
100
AcDb2dVertex
 10
78.75971826844997
 20
-80.93667664643256
 30
0.0
  0
SEQEND
  5
F6
330
F3
100
AcDbEntity
  8
_U+30EC_U+30A4_U+30E4_U+30FC 1
 62
   179
420
  2234388
370
     9
  0
POLYLINE
  5
F7
330
EF
100
AcDbEntity
  8
_U+30EC_U+30A4_U+30E4_U+30FC 1
 62
   179
420
  2234388
370
     9
100
AcDb2dPolyline
 66
     1
 10
0.0
 20
0.0
 30
0.0
  0
VERTEX
  5
F8
330
F7
100
AcDbEntity
  8
_U+30EC_U+30A4_U+30E4_U+30FC 1
 62
   179
420
  2234388
370
     9
100
AcDbVertex
100
AcDb2dVertex
 10
42.76001696465664
 20
-82.39636525717883
 30
0.0
  0
VERTEX
  5
F9
330
F7
100
AcDbEntity
  8
_U+30EC_U+30A4_U+30E4_U+30FC 1
 62
   179
420
  2234388
370
     9
100
AcDbVertex
100
AcDb2dVertex
 10
42.76001696465664
 20
-79.93655164668259
 30
0.0
  0
SEQEND
  5
FA
330
F7
100
AcDbEntity
  8
_U+30EC_U+30A4_U+30E4_U+30FC 1
 62
   179
420
  2234388
370
     9
  0
POLYLINE
  5
FB
330
EF
100
AcDbEntity
  8
_U+30EC_U+30A4_U+30E4_U+30FC 1
 62
   179
420
  2234388
370
     9
100
AcDb2dPolyline
 66
     1
 10
0.0
 20
0.0
 30
0.0
  0
VERTEX
  5
FC
330
FB
100
AcDbEntity
  8
_U+30EC_U+30A4_U+30E4_U+30FC 1
 62
   179
420
  2234388
370
     9
100
AcDbVertex
100
AcDb2dVertex
 10
78.75971826844997
 20
-82.39636525717883
 30
0.0
  0
VERTEX
  5
FD
330
FB
100
AcDbEntity
  8
_U+30EC_U+30A4_U+30E4_U+30FC 1
 62
   179
420
  2234388
370
     9
100
AcDbVertex
100
AcDb2dVertex
 10
78.75971826844997
 20
-79.93655164668259
 30
0.0
  0
SEQEND
  5
FE
330
FB
100
AcDbEntity
  8
_U+30EC_U+30A4_U+30E4_U+30FC 1
 62
   179
420
  2234388
370
     9
  0
INSERT
  5
100
330
EF
100
AcDbEntity
  8
_U+30EC_U+30A4_U+30E4_U+30FC 1
100
AcDbBlockReference
  2
block 11
 10
0.0
 20
0.0
 30
0.0
  0
ENDBLK
  5
F2
330
EF
100
AcDbEntity
  8
0
100
AcDbBlockEnd
  0
BLOCK
  5
101
330
FF
100
AcDbEntity
  8
0
100
AcDbBlockBegin
  2
block 11
 70
     0
 10
0.0
 20
0.0
 30
0.0
  3
block 11
  1

  0
SPLINE
  5
103
330
FF
100
AcDbEntity
  8
_U+30EC_U+30A4_U+30E4_U+30FC 1
370
     0
100
AcDbSpline
210
0.0
220
0.0
230
1.0
 70
    11
 71
     3
 72
    62
 73
    58
 74
     0
 42
0.0000000001
 43
0.0000000001
 12
1.0
 22
0.0
 32
0.0
 13
1.0
 23
0.0
 33
0.0
 40
0.0
 40
0.0
 40
0.0
 40
0.0
 40
1.0
 40
1.0
 40
1.0
 40
2.0
 40
2.0
 40
2.0
 40
3.0
 40
3.0
 40
3.0
 40
4.0
 40
4.0
 40
4.0
 40
5.0
 40
5.0
 40
5.0
 40
6.0
 40
6.0
 40
6.0
 40
7.0
 40
7.0
 40
7.0
 40
8.0
 40
8.0
 40
8.0
 40
9.0
 40
9.0
 40
9.0
 40
10.0
 40
10.0
 40
10.0
 40
11.0
 40
11.0
 40
11.0
 40
12.0
 40
12.0
 40
12.0
 40
13.0
 40
13.0
 40
13.0
 40
14.0
 40
14.0
 40
14.0
 40
15.0
 40
15.0
 40
15.0
 40
16.0
 40
16.0
 40
16.0
 40
17.0
 40
17.0
 40
17.0
 40
18.0
 40
18.0
 40
18.0
 40
19.0
 40
19.0
 40
19.0
 40
19.0
 10
60.12156709651475
 20
-79.6356214536154
 30
0.0
 10
60.01993677969988
 20
-79.6356214536154
 30
0.0
 10
59.78704832489699
 20
-79.61443411638112
 30
0.0
 10
59.65355087484356
 20
-79.42822670540336
 30
0.0
 10
59.57448593345708
 20
-79.31608884735849
 30
0.0
 10
59.57000730932625
 20
-79.21669784260902
 30
0.0
 10
59.56535643042116
 20
-79.13212074844614
 30
0.0
 10
59.56535643042116
 20
-79.13212074844614
 30
0.0
 10
59.80065645206373
 20
-79.13212074844614
 30
0.0
 10
59.80065645206373
 20
-79.13212074844614
 30
0.0
 10
59.80289576412914
 20
-79.20619030137901
 30
0.0
 10
59.8140923244562
 20
-79.44097355869879
 30
0.0
 10
60.11708847238393
 20
-79.44097355869879
 30
0.0
 10
60.26402179482983
 20
-79.44097355869879
 30
0.0
 10
60.42680255650789
 20
-79.37121037512247
 30
0.0
 10
60.42680255650789
 20
-79.14262828967615
 30
0.0
 10
60.42680255650789
 20
-79.02635631704896
 30
0.0
 10
60.38615042978194
 20
-78.97760821593269
 30
0.0
 10
60.35221623925223
 20
-78.94591333746838
 30
0.0
 10
60.27315129786574
 20
-78.87184378453551
 30
0.0
 10
60.14878335084823
 20
-78.85926918601436
 30
0.0
 10
60.09004447282472
 20
-78.85926918601436
 30
0.0
 10
60.06954615468748
 20
-78.85926918601436
 30
0.0
 10
60.03113334002694
 20
-78.8613362433055
 30
0.0
 10
60.00185002840232
 20
-78.8654703578878
 30
0.0
 10
60.00185002840232
 20
-78.8654703578878
 30
0.0
 10
60.00185002840232
 20
-78.67082246297119
 30
0.0
 10
60.00185002840232
 20
-78.67082246297119
 30
0.0
 10
60.04250215512827
 20
-78.6771958896189
 30
0.0
 10
60.08763290598504
 20
-78.67943520168431
 30
0.0
 10
60.09452309695554
 20
-78.67943520168431
 30
0.0
 10
60.16463079008037
 20
-78.67943520168431
 30
0.0
 10
60.37702092674603
 20
-78.65824786445002
 30
0.0
 10
60.37702092674603
 20
-78.42122529506483
 30
0.0
 10
60.37702092674603
 20
-78.24363062280021
 30
0.0
 10
60.23697779527062
 20
-78.18850909503621
 30
0.0
 10
60.11932778444934
 20
-78.18850909503621
 30
0.0
 10
59.83682995465885
 20
-78.18850909503621
 30
0.0
 10
59.82770045162294
 20
-78.42122529506483
 30
0.0
 10
59.82322182749211
 20
-78.49322779070656
 30
0.0
 10
59.82322182749211
 20
-78.49322779070656
 30
0.0
 10
59.60618081192138
 20
-78.49322779070656
 30
0.0
 10
59.60618081192138
 20
-78.49322779070656
 30
0.0
 10
59.61513806018302
 20
-78.36834307936626
 30
0.0
 10
59.64459362658191
 20
-77.99179414282844
 30
0.0
 10
60.13293591161607
 20
-77.99179414282844
 30
0.0
 10
60.3725423026152
 20
-77.99179414282844
 30
0.0
 10
60.63023544491189
 20
-78.1187459114599
 30
0.0
 10
60.63023544491189
 20
-78.41485186841713
 30
0.0
 10
60.63023544491189
 20
-78.60105927939487
 30
0.0
 10
60.52860512809702
 20
-78.68356931626661
 30
0.0
 10
60.42232393237706
 20
-78.74489201590406
 30
0.0
 10
60.48795300137107
 20
-78.77245277978605
 30
0.0
 10
60.68225638673916
 20
-78.85289575936665
 30
0.0
 10
60.68225638673916
 20
-79.13005369115498
 30
0.0
 10
60.68225638673916
 20
-79.46853432258078
 30
0.0
 10
60.41784530824624
 20
-79.6356214536154
 30
0.0
 10
60.12156709651475
 20
-79.6356214536154
 30
0.0
  0
HATCH
  5
104
330
FF
100
AcDbEntity
  8
_U+30EC_U+30A4_U+30E4_U+30FC 1
 62
   179
420
  2234388
100
AcDbHatch
 10
0.0
 20
0.0
 30
0.0
210
0.0
220
0.0
230
1.0
  2
SOLID
 70
     1
 71
     0
 91
        1
 92
        1
 93
        1
 72
     4
 94
        3
 73
     0
 74
     1
 95
       62
 96
       58
 40
0.0
 40
0.0
 40
0.0
 40
0.0
 40
1.0
 40
1.0
 40
1.0
 40
2.0
 40
2.0
 40
2.0
 40
3.0
 40
3.0
 40
3.0
 40
4.0
 40
4.0
 40
4.0
 40
5.0
 40
5.0
 40
5.0
 40
6.0
 40
6.0
 40
6.0
 40
7.0
 40
7.0
 40
7.0
 40
8.0
 40
8.0
 40
8.0
 40
9.0
 40
9.0
 40
9.0
 40
10.0
 40
10.0
 40
10.0
 40
11.0
 40
11.0
 40
11.0
 40
12.0
 40
12.0
 40
12.0
 40
13.0
 40
13.0
 40
13.0
 40
14.0
 40
14.0
 40
14.0
 40
15.0
 40
15.0
 40
15.0
 40
16.0
 40
16.0
 40
16.0
 40
17.0
 40
17.0
 40
17.0
 40
18.0
 40
18.0
 40
18.0
 40
19.0
 40
19.0
 40
19.0
 40
19.0
 10
60.12156709651475
 20
-79.6356214536154
 10
60.01993677969988
 20
-79.6356214536154
 10
59.78704832489699
 20
-79.61443411638112
 10
59.65355087484356
 20
-79.42822670540336
 10
59.57448593345708
 20
-79.31608884735849
 10
59.57000730932625
 20
-79.21669784260902
 10
59.56535643042116
 20
-79.13212074844614
 10
59.56535643042116
 20
-79.13212074844614
 10
59.80065645206373
 20
-79.13212074844614
 10
59.80065645206373
 20
-79.13212074844614
 10
59.80289576412914
 20
-79.20619030137901
 10
59.8140923244562
 20
-79.44097355869879
 10
60.11708847238393
 20
-79.44097355869879
 10
60.26402179482983
 20
-79.44097355869879
 10
60.42680255650789
 20
-79.37121037512247
 10
60.42680255650789
 20
-79.14262828967615
 10
60.42680255650789
 20
-79.02635631704896
 10
60.38615042978194
 20
-78.97760821593269
 10
60.35221623925223
 20
-78.94591333746838
 10
60.27315129786574
 20
-78.87184378453551
 10
60.14878335084823
 20
-78.85926918601436
 10
60.09004447282472
 20
-78.85926918601436
 10
60.06954615468748
 20
-78.85926918601436
 10
60.03113334002694
 20
-78.8613362433055
 10
60.00185002840232
 20
-78.8654703578878
 10
60.00185002840232
 20
-78.8654703578878
 10
60.00185002840232
 20
-78.67082246297119
 10
60.00185002840232
 20
-78.67082246297119
 10
60.04250215512827
 20
-78.6771958896189
 10
60.08763290598504
 20
-78.67943520168431
 10
60.09452309695554
 20
-78.67943520168431
 10
60.16463079008037
 20
-78.67943520168431
 10
60.37702092674603
 20
-78.65824786445002
 10
60.37702092674603
 20
-78.42122529506483
 10
60.37702092674603
 20
-78.24363062280021
 10
60.23697779527062
 20
-78.18850909503621
 10
60.11932778444934
 20
-78.18850909503621
 10
59.83682995465885
 20
-78.18850909503621
 10
59.82770045162294
 20
-78.42122529506483
 10
59.82322182749211
 20
-78.49322779070656
 10
59.82322182749211
 20
-78.49322779070656
 10
59.60618081192138
 20
-78.49322779070656
 10
59.60618081192138
 20
-78.49322779070656
 10
59.61513806018302
 20
-78.36834307936626
 10
59.64459362658191
 20
-77.99179414282844
 10
60.13293591161607
 20
-77.99179414282844
 10
60.3725423026152
 20
-77.99179414282844
 10
60.63023544491189
 20
-78.1187459114599
 10
60.63023544491189
 20
-78.41485186841713
 10
60.63023544491189
 20
-78.60105927939487
 10
60.52860512809702
 20
-78.68356931626661
 10
60.42232393237706
 20
-78.74489201590406
 10
60.48795300137107
 20
-78.77245277978605
 10
60.68225638673916
 20
-78.85289575936665
 10
60.68225638673916
 20
-79.13005369115498
 10
60.68225638673916
 20
-79.46853432258078
 10
60.41784530824624
 20
-79.6356214536154
 10
60.12156709651475
 20
-79.6356214536154
 97
        0
 97
        0
 75
     2
 76
     1
 98
        0
  0
SPLINE
  5
105
330
FF
100
AcDbEntity
  8
_U+30EC_U+30A4_U+30E4_U+30FC 1
370
     0
100
AcDbSpline
210
0.0
220
0.0
230
1.0
 70
    11
 71
     3
 72
    26
 73
    22
 74
     0
 42
0.0000000001
 43
0.0000000001
 12
1.0
 22
0.0
 32
0.0
 13
1.0
 23
0.0
 33
0.0
 40
0.0
 40
0.0
 40
0.0
 40
0.0
 40
1.0
 40
1.0
 40
1.0
 40
2.0
 40
2.0
 40
2.0
 40
3.0
 40
3.0
 40
3.0
 40
4.0
 40
4.0
 40
4.0
 40
5.0
 40
5.0
 40
5.0
 40
6.0
 40
6.0
 40
6.0
 40
7.0
 40
7.0
 40
7.0
 40
7.0
 10
61.29341632582248
 20
-79.58480629520797
 30
0.0
 10
61.29341632582248
 20
-79.58480629520797
 30
0.0
 10
61.04020180765662
 20
-79.58480629520797
 30
0.0
 10
61.04020180765662
 20
-79.58480629520797
 30
0.0
 10
61.06741806199009
 20
-79.27595348495532
 30
0.0
 10
61.2730902624595
 20
-78.75763886919948
 30
0.0
 10
61.70717229360099
 20
-78.25207110673907
 30
0.0
 10
61.70717229360099
 20
-78.25207110673907
 30
0.0
 10
60.81196423175881
 20
-78.25207110673907
 30
0.0
 10
60.81196423175881
 20
-78.25207110673907
 30
0.0
 10
60.81196423175881
 20
-78.25207110673907
 30
0.0
 10
60.81196423175881
 20
-78.04054224394473
 30
0.0
 10
60.81196423175881
 20
-78.04054224394473
 30
0.0
 10
60.81196423175881
 20
-78.04054224394473
 30
0.0
 10
61.96038681176685
 20
-78.04054224394473
 30
0.0
 10
61.96038681176685
 20
-78.04054224394473
 30
0.0
 10
61.96038681176685
 20
-78.04054224394473
 30
0.0
 10
61.96038681176685
 20
-78.25207110673907
 30
0.0
 10
61.96038681176685
 20
-78.25207110673907
 30
0.0
 10
61.61449922504777
 20
-78.54180363704857
 30
0.0
 10
61.3295898284176
 20
-79.13418780573728
 30
0.0
 10
61.29341632582248
 20
-79.58480629520797
 30
0.0
  0
HATCH
  5
106
330
FF
100
AcDbEntity
  8
_U+30EC_U+30A4_U+30E4_U+30FC 1
 62
   179
420
  2234388
100
AcDbHatch
 10
0.0
 20
0.0
 30
0.0
210
0.0
220
0.0
230
1.0
  2
SOLID
 70
     1
 71
     0
 91
        1
 92
        1
 93
        1
 72
     4
 94
        3
 73
     0
 74
     1
 95
       26
 96
       22
 40
0.0
 40
0.0
 40
0.0
 40
0.0
 40
1.0
 40
1.0
 40
1.0
 40
2.0
 40
2.0
 40
2.0
 40
3.0
 40
3.0
 40
3.0
 40
4.0
 40
4.0
 40
4.0
 40
5.0
 40
5.0
 40
5.0
 40
6.0
 40
6.0
 40
6.0
 40
7.0
 40
7.0
 40
7.0
 40
7.0
 10
61.29341632582248
 20
-79.58480629520797
 10
61.29341632582248
 20
-79.58480629520797
 10
61.04020180765662
 20
-79.58480629520797
 10
61.04020180765662
 20
-79.58480629520797
 10
61.06741806199009
 20
-79.27595348495532
 10
61.2730902624595
 20
-78.75763886919948
 10
61.70717229360099
 20
-78.25207110673907
 10
61.70717229360099
 20
-78.25207110673907
 10
60.81196423175881
 20
-78.25207110673907
 10
60.81196423175881
 20
-78.25207110673907
 10
60.81196423175881
 20
-78.25207110673907
 10
60.81196423175881
 20
-78.04054224394473
 10
60.81196423175881
 20
-78.04054224394473
 10
60.81196423175881
 20
-78.04054224394473
 10
61.96038681176685
 20
-78.04054224394473
 10
61.96038681176685
 20
-78.04054224394473
 10
61.96038681176685
 20
-78.04054224394473
 10
61.96038681176685
 20
-78.25207110673907
 10
61.96038681176685
 20
-78.25207110673907
 10
61.61449922504777
 20
-78.54180363704857
 10
61.3295898284176
 20
-79.13418780573728
 10
61.29341632582248
 20
-79.58480629520797
 97
        0
 97
        0
 75
     2
 76
     1
 98
        0
  0
ENDBLK
  5
102
330
FF
100
AcDbEntity
  8
0
100
AcDbBlockEnd
  0
BLOCK
  5
109
330
107
100
AcDbEntity
  8
0
100
AcDbBlockBegin
  2
block 12
 70
     0
 10
0.0
 20
0.0
 30
0.0
  3
block 12
  1

  0
POLYLINE
  5
10B
330
107
100
AcDbEntity
  8
_U+30EC_U+30A4_U+30E4_U+30FC 1
 62
   179
420
  2234388
370
     9
100
AcDb2dPolyline
 66
     1
 10
0.0
 20
0.0
 30
0.0
  0
VERTEX
  5
10C
330
10B
100
AcDbEntity
  8
_U+30EC_U+30A4_U+30E4_U+30FC 1
 62
   179
420
  2234388
370
     9
100
AcDbVertex
100
AcDb2dVertex
 10
82.75947733307427
 20
-85.43663942308532
 30
0.0
  0
VERTEX
  5
10D
330
10B
100
AcDbEntity
  8
_U+30EC_U+30A4_U+30E4_U+30FC 1
 62
   179
420
  2234388
370
     9
100
AcDbVertex
100
AcDb2dVertex
 10
82.75947733307427
 20
-95.43672525391865
 30
0.0
  0
SEQEND
  5
10E
330
10B
100
AcDbEntity
  8
_U+30EC_U+30A4_U+30E4_U+30FC 1
 62
   179
420
  2234388
370
     9
  0
POLYLINE
  5
10F
330
107
100
AcDbEntity
  8
_U+30EC_U+30A4_U+30E4_U+30FC 1
 62
   179
420
  2234388
370
     9
100
AcDb2dPolyline
 66
     1
 10
0.0
 20
0.0
 30
0.0
  0
VERTEX
  5
110
330
10F
100
AcDbEntity
  8
_U+30EC_U+30A4_U+30E4_U+30FC 1
 62
   179
420
  2234388
370
     9
100
AcDbVertex
100
AcDb2dVertex
 10
81.29943598143414
 20
-85.43663942308532
 30
0.0
  0
VERTEX
  5
111
330
10F
100
AcDbEntity
  8
_U+30EC_U+30A4_U+30E4_U+30FC 1
 62
   179
420
  2234388
370
     9
100
AcDbVertex
100
AcDb2dVertex
 10
83.75991980755086
 20
-85.43663942308532
 30
0.0
  0
SEQEND
  5
112
330
10F
100
AcDbEntity
  8
_U+30EC_U+30A4_U+30E4_U+30FC 1
 62
   179
420
  2234388
370
     9
  0
POLYLINE
  5
113
330
107
100
AcDbEntity
  8
_U+30EC_U+30A4_U+30E4_U+30FC 1
 62
   179
420
  2234388
370
     9
100
AcDb2dPolyline
 66
     1
 10
0.0
 20
0.0
 30
0.0
  0
VERTEX
  5
114
330
113
100
AcDbEntity
  8
_U+30EC_U+30A4_U+30E4_U+30FC 1
 62
   179
420
  2234388
370
     9
100
AcDbVertex
100
AcDb2dVertex
 10
67.29994411636872
 20
-95.43672525391865
 30
0.0
  0
VERTEX
  5
115
330
113
100
AcDbEntity
  8
_U+30EC_U+30A4_U+30E4_U+30FC 1
 62
   179
420
  2234388
370
     9
100
AcDbVertex
100
AcDb2dVertex
 10
83.75991980755086
 20
-95.43672525391865
 30
0.0
  0
SEQEND
  5
116
330
113
100
AcDbEntity
  8
_U+30EC_U+30A4_U+30E4_U+30FC 1
 62
   179
420
  2234388
370
     9
  0
INSERT
  5
118
330
107
100
AcDbEntity
  8
_U+30EC_U+30A4_U+30E4_U+30FC 1
100
AcDbBlockReference
  2
block 13
 10
0.0
 20
0.0
 30
0.0
  0
ENDBLK
  5
10A
330
107
100
AcDbEntity
  8
0
100
AcDbBlockEnd
  0
BLOCK
  5
119
330
117
100
AcDbEntity
  8
0
100
AcDbBlockBegin
  2
block 13
 70
     0
 10
0.0
 20
0.0
 30
0.0
  3
block 13
  1

  0
SPLINE
  5
11B
330
117
100
AcDbEntity
  8
_U+30EC_U+30A4_U+30E4_U+30FC 1
370
     0
100
AcDbSpline
210
0.0
220
0.0
230
1.0
 70
    11
 71
     3
 72
    26
 73
    22
 74
     0
 42
0.0000000001
 43
0.0000000001
 12
1.0
 22
0.0
 32
0.0
 13
1.0
 23
0.0
 33
0.0
 40
0.0
 40
0.0
 40
0.0
 40
0.0
 40
1.0
 40
1.0
 40
1.0
 40
2.0
 40
2.0
 40
2.0
 40
3.0
 40
3.0
 40
3.0
 40
4.0
 40
4.0
 40
4.0
 40
5.0
 40
5.0
 40
5.0
 40
6.0
 40
6.0
 40
6.0
 40
7.0
 40
7.0
 40
7.0
 40
7.0
 10
82.11385089092987
 20
-91.2509331369095
 30
0.0
 10
82.11385089092987
 20
-91.2509331369095
 30
0.0
 10
81.0096977879073
 20
-91.2509331369095
 30
0.0
 10
81.0096977879073
 20
-91.2509331369095
 30
0.0
 10
81.0096977879073
 20
-91.2509331369095
 30
0.0
 10
81.0096977879073
 20
-91.60371091459908
 30
0.0
 10
81.0096977879073
 20
-91.60371091459908
 30
0.0
 10
81.0096977879073
 20
-91.60371091459908
 30
0.0
 10
80.86155868204156
 20
-91.60371091459908
 30
0.0
 10
80.86155868204156
 20
-91.60371091459908
 30
0.0
 10
80.84674477145498
 20
-91.24852157006981
 30
0.0
 10
80.68379175500267
 20
-91.19856768553369
 30
0.0
 10
80.56941458489237
 20
-91.16721731661792
 30
0.0
 10
80.56941458489237
 20
-91.16721731661792
 30
0.0
 10
80.56941458489237
 20
-91.01115449113611
 30
0.0
 10
80.56941458489237
 20
-91.01115449113611
 30
0.0
 10
80.56941458489237
 20
-91.01115449113611
 30
0.0
 10
82.11385089092987
 20
-91.01115449113611
 30
0.0
 10
82.11385089092987
 20
-91.01115449113611
 30
0.0
 10
82.11385089092987
 20
-91.01115449113611
 30
0.0
 10
82.11385089092987
 20
-91.2509331369095
 30
0.0
 10
82.11385089092987
 20
-91.2509331369095
 30
0.0
  0
HATCH
  5
11C
330
117
100
AcDbEntity
  8
_U+30EC_U+30A4_U+30E4_U+30FC 1
 62
   179
420
  2234388
100
AcDbHatch
 10
0.0
 20
0.0
 30
0.0
210
0.0
220
0.0
230
1.0
  2
SOLID
 70
     1
 71
     0
 91
        1
 92
        1
 93
        1
 72
     4
 94
        3
 73
     0
 74
     1
 95
       26
 96
       22
 40
0.0
 40
0.0
 40
0.0
 40
0.0
 40
1.0
 40
1.0
 40
1.0
 40
2.0
 40
2.0
 40
2.0
 40
3.0
 40
3.0
 40
3.0
 40
4.0
 40
4.0
 40
4.0
 40
5.0
 40
5.0
 40
5.0
 40
6.0
 40
6.0
 40
6.0
 40
7.0
 40
7.0
 40
7.0
 40
7.0
 10
82.11385089092987
 20
-91.2509331369095
 10
82.11385089092987
 20
-91.2509331369095
 10
81.0096977879073
 20
-91.2509331369095
 10
81.0096977879073
 20
-91.2509331369095
 10
81.0096977879073
 20
-91.2509331369095
 10
81.0096977879073
 20
-91.60371091459908
 10
81.0096977879073
 20
-91.60371091459908
 10
81.0096977879073
 20
-91.60371091459908
 10
80.86155868204156
 20
-91.60371091459908
 10
80.86155868204156
 20
-91.60371091459908
 10
80.84674477145498
 20
-91.24852157006981
 10
80.68379175500267
 20
-91.19856768553369
 10
80.56941458489237
 20
-91.16721731661792
 10
80.56941458489237
 20
-91.16721731661792
 10
80.56941458489237
 20
-91.01115449113611
 10
80.56941458489237
 20
-91.01115449113611
 10
80.56941458489237
 20
-91.01115449113611
 10
82.11385089092987
 20
-91.01115449113611
 10
82.11385089092987
 20
-91.01115449113611
 10
82.11385089092987
 20
-91.01115449113611
 10
82.11385089092987
 20
-91.2509331369095
 10
82.11385089092987
 20
-91.2509331369095
 97
        0
 97
        0
 75
     2
 76
     1
 98
        0
  0
SPLINE
  5
11D
330
117
100
AcDbEntity
  8
_U+30EC_U+30A4_U+30E4_U+30FC 1
370
     0
100
AcDbSpline
210
0.0
220
0.0
230
1.0
 70
    11
 71
     3
 72
    29
 73
    25
 74
     0
 42
0.0000000001
 43
0.0000000001
 12
1.0
 22
0.0
 32
0.0
 13
1.0
 23
0.0
 33
0.0
 40
0.0
 40
0.0
 40
0.0
 40
0.0
 40
1.0
 40
1.0
 40
1.0
 40
2.0
 40
2.0
 40
2.0
 40
3.0
 40
3.0
 40
3.0
 40
4.0
 40
4.0
 40
4.0
 40
5.0
 40
5.0
 40
5.0
 40
6.0
 40
6.0
 40
6.0
 40
7.0
 40
7.0
 40
7.0
 40
8.0
 40
8.0
 40
8.0
 40
8.0
 10
81.93608396389098
 20
-89.51598305053767
 30
0.0
 10
82.14554576939418
 20
-89.63104923974502
 30
0.0
 10
82.16449379456304
 20
-89.81639537685146
 30
0.0
 10
82.16449379456304
 20
-89.9411078334175
 30
0.0
 10
82.16449379456304
 20
-90.11267358858295
 30
0.0
 10
82.11798500551217
 20
-90.26425778993394
 30
0.0
 10
81.93608396389098
 20
-90.36623261629734
 30
0.0
 10
81.74143606897437
 20
-90.47682018137385
 30
0.0
 10
81.5047580091377
 20
-90.49714624473683
 30
0.0
 10
81.34180499268538
 20
-90.49714624473683
 30
0.0
 10
81.19780000140194
 20
-90.49714624473683
 30
0.0
 10
80.94596352143017
 20
-90.47923174821354
 30
0.0
 10
80.74718151193126
 20
-90.36623261629734
 30
0.0
 10
80.54426538785005
 20
-90.25047740799295
 30
0.0
 10
80.52083873855035
 20
-90.0789116528275
 30
0.0
 10
80.52083873855035
 20
-89.9411078334175
 30
0.0
 10
80.52083873855035
 20
-89.77160913554322
 30
0.0
 10
80.56528047031007
 20
-89.61761336735255
 30
0.0
 10
80.74718151193126
 20
-89.51598305053767
 30
0.0
 10
80.93976234955673
 20
-89.40987410959198
 30
0.0
 10
81.1681721802288
 20
-89.38472491254966
 30
0.0
 10
81.34180499268538
 20
-89.38472491254966
 30
0.0
 10
81.5130262383023
 20
-89.38472491254966
 30
0.0
 10
81.74350312626552
 20
-89.4074625427523
 30
0.0
 10
81.93608396389098
 20
-89.51598305053767
 30
0.0
  0
SPLINE
  5
11E
330
117
100
AcDbEntity
  8
_U+30EC_U+30A4_U+30E4_U+30FC 1
370
     0
100
AcDbSpline
210
0.0
220
0.0
230
1.0
 70
    11
 71
     3
 72
    17
 73
    13
 74
     0
 42
0.0000000001
 43
0.0000000001
 12
1.0
 22
0.0
 32
0.0
 13
1.0
 23
0.0
 33
0.0
 40
0.0
 40
0.0
 40
0.0
 40
0.0
 40
1.0
 40
1.0
 40
1.0
 40
2.0
 40
2.0
 40
2.0
 40
3.0
 40
3.0
 40
3.0
 40
4.0
 40
4.0
 40
4.0
 40
4.0
 10
80.71341957617581
 20
-89.9411078334175
 30
0.0
 10
80.71341957617581
 20
-90.20775822397584
 30
0.0
 10
80.99695093461187
 20
-90.25736759896344
 30
0.0
 10
81.34180499268538
 20
-90.25736759896344
 30
0.0
 10
81.66116534416804
 20
-90.25736759896344
 30
0.0
 10
81.96984589964643
 20
-90.21912703907716
 30
0.0
 10
81.96984589964643
 20
-89.9411078334175
 30
0.0
 10
81.96984589964643
 20
-89.67652450015032
 30
0.0
 10
81.68872610805005
 20
-89.62450355832304
 30
0.0
 10
81.34180499268538
 20
-89.62450355832304
 30
0.0
 10
81.0221001316542
 20
-89.62450355832304
 30
0.0
 10
80.71341957617581
 20
-89.66515568504899
 30
0.0
 10
80.71341957617581
 20
-89.9411078334175
 30
0.0
  0
HATCH
  5
11F
330
117
100
AcDbEntity
  8
_U+30EC_U+30A4_U+30E4_U+30FC 1
 62
   179
420
  2234388
100
AcDbHatch
 10
0.0
 20
0.0
 30
0.0
210
0.0
220
0.0
230
1.0
  2
SOLID
 70
     1
 71
     0
 91
        2
 92
        1
 93
        1
 72
     4
 94
        3
 73
     0
 74
     1
 95
       29
 96
       25
 40
0.0
 40
0.0
 40
0.0
 40
0.0
 40
1.0
 40
1.0
 40
1.0
 40
2.0
 40
2.0
 40
2.0
 40
3.0
 40
3.0
 40
3.0
 40
4.0
 40
4.0
 40
4.0
 40
5.0
 40
5.0
 40
5.0
 40
6.0
 40
6.0
 40
6.0
 40
7.0
 40
7.0
 40
7.0
 40
8.0
 40
8.0
 40
8.0
 40
8.0
 10
81.93608396389098
 20
-89.51598305053767
 10
82.14554576939418
 20
-89.63104923974502
 10
82.16449379456304
 20
-89.81639537685146
 10
82.16449379456304
 20
-89.9411078334175
 10
82.16449379456304
 20
-90.11267358858295
 10
82.11798500551217
 20
-90.26425778993394
 10
81.93608396389098
 20
-90.36623261629734
 10
81.74143606897437
 20
-90.47682018137385
 10
81.5047580091377
 20
-90.49714624473683
 10
81.34180499268538
 20
-90.49714624473683
 10
81.19780000140194
 20
-90.49714624473683
 10
80.94596352143017
 20
-90.47923174821354
 10
80.74718151193126
 20
-90.36623261629734
 10
80.54426538785005
 20
-90.25047740799295
 10
80.52083873855035
 20
-90.0789116528275
 10
80.52083873855035
 20
-89.9411078334175
 10
80.52083873855035
 20
-89.77160913554322
 10
80.56528047031007
 20
-89.61761336735255
 10
80.74718151193126
 20
-89.51598305053767
 10
80.93976234955673
 20
-89.40987410959198
 10
81.1681721802288
 20
-89.38472491254966
 10
81.34180499268538
 20
-89.38472491254966
 10
81.5130262383023
 20
-89.38472491254966
 10
81.74350312626552
 20
-89.4074625427523
 10
81.93608396389098
 20
-89.51598305053767
 97
        0
 97
        0
 92
        1
 93
        1
 72
     4
 94
        3
 73
     0
 74
     1
 95
       17
 96
       13
 40
0.0
 40
0.0
 40
0.0
 40
0.0
 40
1.0
 40
1.0
 40
1.0
 40
2.0
 40
2.0
 40
2.0
 40
3.0
 40
3.0
 40
3.0
 40
4.0
 40
4.0
 40
4.0
 40
4.0
 10
80.71341957617581
 20
-89.9411078334175
 10
80.71341957617581
 20
-90.20775822397584
 10
80.99695093461187
 20
-90.25736759896344
 10
81.34180499268538
 20
-90.25736759896344
 10
81.66116534416804
 20
-90.25736759896344
 10
81.96984589964643
 20
-90.21912703907716
 10
81.96984589964643
 20
-89.9411078334175
 10
81.96984589964643
 20
-89.67652450015032
 10
81.68872610805005
 20
-89.62450355832304
 10
81.34180499268538
 20
-89.62450355832304
 10
81.0221001316542
 20
-89.62450355832304
 10
80.71341957617581
 20
-89.66515568504899
 10
80.71341957617581
 20
-89.9411078334175
 97
        0
 97
        0
 75
     2
 76
     1
 98
        0
  0
ENDBLK
  5
11A
330
117
100
AcDbEntity
  8
0
100
AcDbBlockEnd
  0
ENDSEC
  0
SECTION
  2
ENTITIES
  0
POLYLINE
  5
41
330
1F
100
AcDbEntity
  8
_U+30EC_U+30A4_U+30E4_U+30FC 1
 62
   179
420
  2234388
370
    25
100
AcDb2dPolyline
 66
     1
 10
0.0
 20
0.0
 30
0.0
  0
VERTEX
  5
42
330
41
100
AcDbEntity
  8
_U+30EC_U+30A4_U+30E4_U+30FC 1
 62
   179
420
  2234388
370
    25
100
AcDbVertex
100
AcDb2dVertex
 10
42.76001696465664
 20
-84.23119775671988
 30
0.0
  0
VERTEX
  5
43
330
41
100
AcDbEntity
  8
_U+30EC_U+30A4_U+30E4_U+30FC 1
 62
   179
420
  2234388
370
    25
100
AcDbVertex
100
AcDb2dVertex
 10
55.75973663300616
 20
-84.23119775671988
 30
0.0
  0
SEQEND
  5
44
330
41
100
AcDbEntity
  8
_U+30EC_U+30A4_U+30E4_U+30FC 1
 62
   179
420
  2234388
370
    25
  0
POLYLINE
  5
45
330
1F
100
AcDbEntity
  8
_U+30EC_U+30A4_U+30E4_U+30FC 1
 62
   179
420
  2234388
370
    25
100
AcDb2dPolyline
 66
     1
 10
0.0
 20
0.0
 30
0.0
  0
VERTEX
  5
46
330
45
100
AcDbEntity
  8
_U+30EC_U+30A4_U+30E4_U+30FC 1
 62
   179
420
  2234388
370
    25
100
AcDbVertex
100
AcDb2dVertex
 10
57.75995276333789
 20
-85.34844497866293
 30
0.0
  0
VERTEX
  5
47
330
45
100
AcDbEntity
  8
_U+30EC_U+30A4_U+30E4_U+30FC 1
 62
   179
420
  2234388
370
    25
100
AcDbVertex
100
AcDb2dVertex
 10
78.75971826844997
 20
-85.34844497866293
 30
0.0
  0
SEQEND
  5
48
330
45
100
AcDbEntity
  8
_U+30EC_U+30A4_U+30E4_U+30FC 1
 62
   179
420
  2234388
370
    25
  0
POLYLINE
  5
49
330
1F
100
AcDbEntity
  8
_U+30EC_U+30A4_U+30E4_U+30FC 1
 62
   179
420
  2234388
370
    25
100
AcDb2dPolyline
 66
     1
 10
0.0
 20
0.0
 30
0.0
  0
VERTEX
  5
4A
330
49
100
AcDbEntity
  8
_U+30EC_U+30A4_U+30E4_U+30FC 1
 62
   179
420
  2234388
370
    25
100
AcDbVertex
100
AcDb2dVertex
 10
42.76001696465664
 20
-84.23119775671988
 30
0.0
  0
VERTEX
  5
4B
330
49
100
AcDbEntity
  8
_U+30EC_U+30A4_U+30E4_U+30FC 1
 62
   179
420
  2234388
370
    25
100
AcDbVertex
100
AcDb2dVertex
 10
42.76001696465664
 20
-85.2309699786921
 30
0.0
  0
SEQEND
  5
4C
330
49
100
AcDbEntity
  8
_U+30EC_U+30A4_U+30E4_U+30FC 1
 62
   179
420
  2234388
370
    25
  0
POLYLINE
  5
4D
330
1F
100
AcDbEntity
  8
_U+30EC_U+30A4_U+30E4_U+30FC 1
 62
   179
420
  2234388
370
    25
100
AcDb2dPolyline
 66
     1
 10
0.0
 20
0.0
 30
0.0
  0
VERTEX
  5
4E
330
4D
100
AcDbEntity
  8
_U+30EC_U+30A4_U+30E4_U+30FC 1
 62
   179
420
  2234388
370
    25
100
AcDbVertex
100
AcDb2dVertex
 10
54.75996443629025
 20
-85.33637997866592
 30
0.0
  0
VERTEX
  5
4F
330
4D
100
AcDbEntity
  8
_U+30EC_U+30A4_U+30E4_U+30FC 1
 62
   179
420
  2234388
370
    25
100
AcDbVertex
100
AcDb2dVertex
 10
54.75996443629025
 20
-96.63666358695222
 30
0.0
  0
SEQEND
  5
50
330
4D
100
AcDbEntity
  8
_U+30EC_U+30A4_U+30E4_U+30FC 1
 62
   179
420
  2234388
370
    25
  0
POLYLINE
  5
51
330
1F
100
AcDbEntity
  8
_U+30EC_U+30A4_U+30E4_U+30FC 1
 62
   179
420
  2234388
370
    25
100
AcDb2dPolyline
 66
     1
 10
0.0
 20
0.0
 30
0.0
  0
VERTEX
  5
52
330
51
100
AcDbEntity
  8
_U+30EC_U+30A4_U+30E4_U+30FC 1
 62
   179
420
  2234388
370
    25
100
AcDbVertex
100
AcDb2dVertex
 10
64.75952084784699
 20
-95.43672525391865
 30
0.0
  0
VERTEX
  5
53
330
51
100
AcDbEntity
  8
_U+30EC_U+30A4_U+30E4_U+30FC 1
 62
   179
420
  2234388
370
    25
100
AcDbVertex
100
AcDb2dVertex
 10
64.75952084784699
 20
-95.9366113649046
 30
0.0
  0
SEQEND
  5
54
330
51
100
AcDbEntity
  8
_U+30EC_U+30A4_U+30E4_U+30FC 1
 62
   179
420
  2234388
370
    25
  0
POLYLINE
  5
55
330
1F
100
AcDbEntity
  8
_U+30EC_U+30A4_U+30E4_U+30FC 1
 62
   179
420
  2234388
370
    25
100
AcDb2dPolyline
 66
     1
 10
0.0
 20
0.0
 30
0.0
  0
VERTEX
  5
56
330
55
100
AcDbEntity
  8
_U+30EC_U+30A4_U+30E4_U+30FC 1
 62
   179
420
  2234388
370
    25
100
AcDbVertex
100
AcDb2dVertex
 10
57.75995276333789
 20
-95.43672525391865
 30
0.0
  0
VERTEX
  5
57
330
55
100
AcDbEntity
  8
_U+30EC_U+30A4_U+30E4_U+30FC 1
 62
   179
420
  2234388
370
    25
100
AcDbVertex
100
AcDb2dVertex
 10
64.75952084784699
 20
-95.43672525391865
 30
0.0
  0
SEQEND
  5
58
330
55
100
AcDbEntity
  8
_U+30EC_U+30A4_U+30E4_U+30FC 1
 62
   179
420
  2234388
370
    25
  0
POLYLINE
  5
59
330
1F
100
AcDbEntity
  8
_U+30EC_U+30A4_U+30E4_U+30FC 1
 62
   179
420
  2234388
370
    25
100
AcDb2dPolyline
 66
     1
 10
0.0
 20
0.0
 30
0.0
  0
VERTEX
  5
5A
330
59
100
AcDbEntity
  8
_U+30EC_U+30A4_U+30E4_U+30FC 1
 62
   179
420
  2234388
370
    25
100
AcDbVertex
100
AcDb2dVertex
 10
56.76018054136566
 20
-84.3486727566907
 30
0.0
  0
VERTEX
  5
5B
330
59
100
AcDbEntity
  8
_U+30EC_U+30A4_U+30E4_U+30FC 1
 62
   179
420
  2234388
370
    25
100
AcDbVertex
100
AcDb2dVertex
 10
78.75971826844997
 20
-84.3486727566907
 30
0.0
  0
SEQEND
  5
5C
330
59
100
AcDbEntity
  8
_U+30EC_U+30A4_U+30E4_U+30FC 1
 62
   179
420
  2234388
370
    25
  0
POLYLINE
  5
5D
330
1F
100
AcDbEntity
  8
_U+30EC_U+30A4_U+30E4_U+30FC 1
 62
   179
420
  2234388
370
    25
100
AcDb2dPolyline
 66
     1
 10
0.0
 20
0.0
 30
0.0
  0
VERTEX
  5
5E
330
5D
100
AcDbEntity
  8
_U+30EC_U+30A4_U+30E4_U+30FC 1
 62
   179
420
  2234388
370
    25
100
AcDbVertex
100
AcDb2dVertex
 10
55.75973663300616
 20
-84.33664303447154
 30
0.0
  0
VERTEX
  5
5F
330
5D
100
AcDbEntity
  8
_U+30EC_U+30A4_U+30E4_U+30FC 1
 62
   179
420
  2234388
370
    25
100
AcDbVertex
100
AcDb2dVertex
 10
55.75973663300616
 20
-95.43672525391865
 30
0.0
  0
SEQEND
  5
60
330
5D
100
AcDbEntity
  8
_U+30EC_U+30A4_U+30E4_U+30FC 1
 62
   179
420
  2234388
370
    25
  0
POLYLINE
  5
61
330
1F
100
AcDbEntity
  8
_U+30EC_U+30A4_U+30E4_U+30FC 1
 62
   179
420
  2234388
370
    25
100
AcDb2dPolyline
 66
     1
 10
0.0
 20
0.0
 30
0.0
  0
VERTEX
  5
62
330
61
100
AcDbEntity
  8
_U+30EC_U+30A4_U+30E4_U+30FC 1
 62
   179
420
  2234388
370
    25
100
AcDbVertex
100
AcDb2dVertex
 10
56.76018054136566
 20
-84.4368672011131
 30
0.0
  0
VERTEX
  5
63
330
61
100
AcDbEntity
  8
_U+30EC_U+30A4_U+30E4_U+30FC 1
 62
   179
420
  2234388
370
    25
100
AcDbVertex
100
AcDb2dVertex
 10
56.76018054136566
 20
-95.43672525391865
 30
0.0
  0
SEQEND
  5
64
330
61
100
AcDbEntity
  8
_U+30EC_U+30A4_U+30E4_U+30FC 1
 62
   179
420
  2234388
370
    25
  0
POLYLINE
  5
65
330
1F
100
AcDbEntity
  8
_U+30EC_U+30A4_U+30E4_U+30FC 1
 62
   179
420
  2234388
370
    25
100
AcDb2dPolyline
 66
     1
 10
0.0
 20
0.0
 30
0.0
  0
VERTEX
  5
66
330
65
100
AcDbEntity
  8
_U+30EC_U+30A4_U+30E4_U+30FC 1
 62
   179
420
  2234388
370
    25
100
AcDbVertex
100
AcDb2dVertex
 10
57.75995276333789
 20
-85.43663942308532
 30
0.0
  0
VERTEX
  5
67
330
65
100
AcDbEntity
  8
_U+30EC_U+30A4_U+30E4_U+30FC 1
 62
   179
420
  2234388
370
    25
100
AcDbVertex
100
AcDb2dVertex
 10
57.75995276333789
 20
-95.43672525391865
 30
0.0
  0
SEQEND
  5
68
330
65
100
AcDbEntity
  8
_U+30EC_U+30A4_U+30E4_U+30FC 1
 62
   179
420
  2234388
370
    25
  0
POLYLINE
  5
69
330
1F
100
AcDbEntity
  8
_U+30EC_U+30A4_U+30E4_U+30FC 1
 62
   179
420
  2234388
370
    25
100
AcDb2dPolyline
 66
     1
 10
0.0
 20
0.0
 30
0.0
  0
VERTEX
  5
6A
330
69
100
AcDbEntity
  8
_U+30EC_U+30A4_U+30E4_U+30FC 1
 62
   179
420
  2234388
370
    25
100
AcDbVertex
100
AcDb2dVertex
 10
55.75973663300616
 20
-95.43672525391865
 30
0.0
  0
VERTEX
  5
6B
330
69
100
AcDbEntity
  8
_U+30EC_U+30A4_U+30E4_U+30FC 1
 62
   179
420
  2234388
370
    25
100
AcDbVertex
100
AcDb2dVertex
 10
56.76018054136566
 20
-95.43672525391865
 30
0.0
  0
SEQEND
  5
6C
330
69
100
AcDbEntity
  8
_U+30EC_U+30A4_U+30E4_U+30FC 1
 62
   179
420
  2234388
370
    25
  0
POLYLINE
  5
6D
330
1F
100
AcDbEntity
  8
_U+30EC_U+30A4_U+30E4_U+30FC 1
 62
   179
420
  2234388
370
    25
100
AcDb2dPolyline
 66
     1
 10
0.0
 20
0.0
 30
0.0
  0
VERTEX
  5
6E
330
6D
100
AcDbEntity
  8
_U+30EC_U+30A4_U+30E4_U+30FC 1
 62
   179
420
  2234388
370
    25
100
AcDbVertex
100
AcDb2dVertex
 10
54.75996443629025
 20
-96.63666358695222
 30
0.0
  0
VERTEX
  5
6F
330
6D
100
AcDbEntity
  8
_U+30EC_U+30A4_U+30E4_U+30FC 1
 62
   179
420
  2234388
370
    25
100
AcDbVertex
100
AcDb2dVertex
 10
64.75952084784699
 20
-95.9366113649046
 30
0.0
  0
SEQEND
  5
70
330
6D
100
AcDbEntity
  8
_U+30EC_U+30A4_U+30E4_U+30FC 1
 62
   179
420
  2234388
370
    25
  0
POLYLINE
  5
71
330
1F
100
AcDbEntity
  8
_U+30EC_U+30A4_U+30E4_U+30FC 1
 62
   179
420
  2234388
370
    25
100
AcDb2dPolyline
 66
     1
 10
0.0
 20
0.0
 30
0.0
  0
VERTEX
  5
72
330
71
100
AcDbEntity
  8
_U+30EC_U+30A4_U+30E4_U+30FC 1
 62
   179
420
  2234388
370
    25
100
AcDbVertex
100
AcDb2dVertex
 10
78.75971826844997
 20
-84.3486727566907
 30
0.0
  0
VERTEX
  5
73
330
71
100
AcDbEntity
  8
_U+30EC_U+30A4_U+30E4_U+30FC 1
 62
   179
420
  2234388
370
    25
100
AcDbVertex
100
AcDb2dVertex
 10
78.75971826844997
 20
-85.34844497866293
 30
0.0
  0
SEQEND
  5
74
330
71
100
AcDbEntity
  8
_U+30EC_U+30A4_U+30E4_U+30FC 1
 62
   179
420
  2234388
370
    25
  0
POLYLINE
  5
75
330
1F
100
AcDbEntity
  8
_U+30EC_U+30A4_U+30E4_U+30FC 1
 62
   179
420
  2234388
370
    25
100
AcDb2dPolyline
 66
     1
 10
0.0
 20
0.0
 30
0.0
  0
VERTEX
  5
76
330
75
100
AcDbEntity
  8
_U+30EC_U+30A4_U+30E4_U+30FC 1
 62
   179
420
  2234388
370
    25
100
AcDbVertex
100
AcDb2dVertex
 10
42.76001696465664
 20
-85.2309699786921
 30
0.0
  0
VERTEX
  5
77
330
75
100
AcDbEntity
  8
_U+30EC_U+30A4_U+30E4_U+30FC 1
 62
   179
420
  2234388
370
    25
100
AcDbVertex
100
AcDb2dVertex
 10
54.75996443629025
 20
-85.2309699786921
 30
0.0
  0
SEQEND
  5
78
330
75
100
AcDbEntity
  8
_U+30EC_U+30A4_U+30E4_U+30FC 1
 62
   179
420
  2234388
370
    25
  0
SPLINE
  5
79
330
1F
100
AcDbEntity
  8
_U+30EC_U+30A4_U+30E4_U+30FC 1
 62
   179
420
  2234388
370
     9
100
AcDbSpline
210
0.0
220
0.0
230
1.0
 70
    11
 71
     3
 72
    17
 73
    13
 74
     0
 42
0.0000000001
 43
0.0000000001
 12
1.0
 22
0.0
 32
0.0
 13
1.0
 23
0.0
 33
0.0
 40
0.0
 40
0.0
 40
0.0
 40
0.0
 40
1.0
 40
1.0
 40
1.0
 40
2.0
 40
2.0
 40
2.0
 40
3.0
 40
3.0
 40
3.0
 40
4.0
 40
4.0
 40
4.0
 40
4.0
 10
82.86005427495279
 20
-84.4368672011131
 30
0.0
 10
82.86005427495279
 20
-84.3814105344601
 30
0.0
 10
82.81528886818522
 20
-84.33664303447154
 30
0.0
 10
82.75947733307427
 20
-84.33664303447154
 30
0.0
 10
82.70433816781433
 20
-84.33664303447154
 30
0.0
 10
82.65953539117956
 20
-84.3814105344601
 30
0.0
 10
82.65953539117956
 20
-84.4368672011131
 30
0.0
 10
82.65953539117956
 20
-84.49200636776585
 30
0.0
 10
82.70433816781433
 20
-84.53677386775473
 30
0.0
 10
82.75947733307427
 20
-84.53677386775473
 30
0.0
 10
82.81528886818522
 20
-84.53677386775473
 30
0.0
 10
82.86005427495279
 20
-84.49200636776585
 30
0.0
 10
82.86005427495279
 20
-84.4368672011131
 30
0.0
  0
SPLINE
  5
7A
330
1F
100
AcDbEntity
  8
_U+30EC_U+30A4_U+30E4_U+30FC 1
 62
   179
420
  2234388
370
     9
100
AcDbSpline
210
0.0
220
0.0
230
1.0
 70
    11
 71
     3
 72
    17
 73
    13
 74
     0
 42
0.0000000001
 43
0.0000000001
 12
1.0
 22
0.0
 32
0.0
 13
1.0
 23
0.0
 33
0.0
 40
0.0
 40
0.0
 40
0.0
 40
0.0
 40
1.0
 40
1.0
 40
1.0
 40
2.0
 40
2.0
 40
2.0
 40
3.0
 40
3.0
 40
3.0
 40
4.0
 40
4.0
 40
4.0
 40
4.0
 10
82.86005427495279
 20
-85.43663942308532
 30
0.0
 10
82.86005427495279
 20
-85.38153553421009
 30
0.0
 10
82.81528886818522
 20
-85.33673275644368
 30
0.0
 10
82.75947733307427
 20
-85.33673275644368
 30
0.0
 10
82.70433816781433
 20
-85.33673275644368
 30
0.0
 10
82.65953539117956
 20
-85.38153553421009
 30
0.0
 10
82.65953539117956
 20
-85.43663942308532
 30
0.0
 10
82.65953539117956
 20
-85.49177858973808
 30
0.0
 10
82.70433816781433
 20
-85.53654608972695
 30
0.0
 10
82.75947733307427
 20
-85.53654608972695
 30
0.0
 10
82.81528886818522
 20
-85.53654608972695
 30
0.0
 10
82.86005427495279
 20
-85.49177858973808
 30
0.0
 10
82.86005427495279
 20
-85.43663942308532
 30
0.0
  0
SPLINE
  5
7B
330
1F
100
AcDbEntity
  8
_U+30EC_U+30A4_U+30E4_U+30FC 1
 62
   179
420
  2234388
370
    25
100
AcDbSpline
210
0.0
220
0.0
230
1.0
 70
    11
 71
     3
 72
    17
 73
    13
 74
     0
 42
0.0000000001
 43
0.0000000001
 12
1.0
 22
0.0
 32
0.0
 13
1.0
 23
0.0
 33
0.0
 40
0.0
 40
0.0
 40
0.0
 40
0.0
 40
1.0
 40
1.0
 40
1.0
 40
2.0
 40
2.0
 40
2.0
 40
3.0
 40
3.0
 40
3.0
 40
4.0
 40
4.0
 40
4.0
 40
4.0
 10
42.85992362877447
 20
-80.93667664643256
 30
0.0
 10
42.85992362877447
 20
-80.88118470200205
 30
0.0
 10
42.81512085213971
 20
-80.83641720201317
 30
0.0
 10
42.76001696465664
 20
-80.83641720201317
 30
0.0
 10
42.70487779939669
 20
-80.83641720201317
 30
0.0
 10
42.6601103005388
 20
-80.88118470200205
 30
0.0
 10
42.6601103005388
 20
-80.93667664643256
 30
0.0
 10
42.6601103005388
 20
-80.99178053530748
 30
0.0
 10
42.70487779939669
 20
-81.0365833130742
 30
0.0
 10
42.76001696465664
 20
-81.0365833130742
 30
0.0
 10
42.81512085213971
 20
-81.0365833130742
 30
0.0
 10
42.85992362877447
 20
-80.99178053530748
 30
0.0
 10
42.85992362877447
 20
-80.93667664643256
 30
0.0
  0
SPLINE
  5
7C
330
1F
100
AcDbEntity
  8
_U+30EC_U+30A4_U+30E4_U+30FC 1
 62
   179
420
  2234388
370
     9
100
AcDbSpline
210
0.0
220
0.0
230
1.0
 70
    11
 71
     3
 72
    17
 73
    13
 74
     0
 42
0.0000000001
 43
0.0000000001
 12
1.0
 22
0.0
 32
0.0
 13
1.0
 23
0.0
 33
0.0
 40
0.0
 40
0.0
 40
0.0
 40
0.0
 40
1.0
 40
1.0
 40
1.0
 40
2.0
 40
2.0
 40
2.0
 40
3.0
 40
3.0
 40
3.0
 40
4.0
 40
4.0
 40
4.0
 40
4.0
 10
64.85942751196481
 20
-100.6367402526187
 30
0.0
 10
64.85942751196481
 20
-100.5816363637438
 30
0.0
 10
64.81466001310693
 20
-100.5368335859771
 30
0.0
 10
64.75952084784699
 20
-100.5368335859771
 30
0.0
 10
64.70441696036391
 20
-100.5368335859771
 30
0.0
 10
64.65961418372915
 20
-100.5816363637438
 30
0.0
 10
64.65961418372915
 20
-100.6367402526187
 30
0.0
 10
64.65961418372915
 20
-100.6918794192718
 30
0.0
 10
64.70441696036391
 20
-100.7366469192604
 30
0.0
 10
64.75952084784699
 20
-100.7366469192604
 30
0.0
 10
64.81466001310693
 20
-100.7366469192604
 30
0.0
 10
64.85942751196481
 20
-100.6918794192718
 30
0.0
 10
64.85942751196481
 20
-100.6367402526187
 30
0.0
  0
SPLINE
  5
7D
330
1F
100
AcDbEntity
  8
_U+30EC_U+30A4_U+30E4_U+30FC 1
 62
   179
420
  2234388
370
     9
100
AcDbSpline
210
0.0
220
0.0
230
1.0
 70
    11
 71
     3
 72
    17
 73
    13
 74
     0
 42
0.0000000001
 43
0.0000000001
 12
1.0
 22
0.0
 32
0.0
 13
1.0
 23
0.0
 33
0.0
 40
0.0
 40
0.0
 40
0.0
 40
0.0
 40
1.0
 40
1.0
 40
1.0
 40
2.0
 40
2.0
 40
2.0
 40
3.0
 40
3.0
 40
3.0
 40
4.0
 40
4.0
 40
4.0
 40
4.0
 10
54.85987110040809
 20
-100.6367402526187
 30
0.0
 10
54.85987110040809
 20
-100.5816363637438
 30
0.0
 10
54.81506832377332
 20
-100.5368335859771
 30
0.0
 10
54.75996443629025
 20
-100.5368335859771
 30
0.0
 10
54.7048252710303
 20
-100.5368335859771
 30
0.0
 10
54.66005777217242
 20
-100.5816363637438
 30
0.0
 10
54.66005777217242
 20
-100.6367402526187
 30
0.0
 10
54.66005777217242
 20
-100.6918794192718
 30
0.0
 10
54.7048252710303
 20
-100.7366469192604
 30
0.0
 10
54.75996443629025
 20
-100.7366469192604
 30
0.0
 10
54.81506832377332
 20
-100.7366469192604
 30
0.0
 10
54.85987110040809
 20
-100.6918794192718
 30
0.0
 10
54.85987110040809
 20
-100.6367402526187
 30
0.0
  0
SPLINE
  5
7E
330
1F
100
AcDbEntity
  8
_U+30EC_U+30A4_U+30E4_U+30FC 1
 62
   179
420
  2234388
370
     9
100
AcDbSpline
210
0.0
220
0.0
230
1.0
 70
    11
 71
     3
 72
    17
 73
    13
 74
     0
 42
0.0000000001
 43
0.0000000001
 12
1.0
 22
0.0
 32
0.0
 13
1.0
 23
0.0
 33
0.0
 40
0.0
 40
0.0
 40
0.0
 40
0.0
 40
1.0
 40
1.0
 40
1.0
 40
2.0
 40
2.0
 40
2.0
 40
3.0
 40
3.0
 40
3.0
 40
4.0
 40
4.0
 40
4.0
 40
4.0
 10
42.85992362877447
 20
-100.6367402526187
 30
0.0
 10
42.85992362877447
 20
-100.5816363637438
 30
0.0
 10
42.81512085213971
 20
-100.5368335859771
 30
0.0
 10
42.76001696465664
 20
-100.5368335859771
 30
0.0
 10
42.70487779939669
 20
-100.5368335859771
 30
0.0
 10
42.6601103005388
 20
-100.5816363637438
 30
0.0
 10
42.6601103005388
 20
-100.6367402526187
 30
0.0
 10
42.6601103005388
 20
-100.6918794192718
 30
0.0
 10
42.70487779939669
 20
-100.7366469192604
 30
0.0
 10
42.76001696465664
 20
-100.7366469192604
 30
0.0
 10
42.81512085213971
 20
-100.7366469192604
 30
0.0
 10
42.85992362877447
 20
-100.6918794192718
 30
0.0
 10
42.85992362877447
 20
-100.6367402526187
 30
0.0
  0
SPLINE
  5
7F
330
1F
100
AcDbEntity
  8
_U+30EC_U+30A4_U+30E4_U+30FC 1
 62
   179
420
  2234388
370
     9
100
AcDbSpline
210
0.0
220
0.0
230
1.0
 70
    11
 71
     3
 72
    17
 73
    13
 74
     0
 42
0.0000000001
 43
0.0000000001
 12
1.0
 22
0.0
 32
0.0
 13
1.0
 23
0.0
 33
0.0
 40
0.0
 40
0.0
 40
0.0
 40
0.0
 40
1.0
 40
1.0
 40
1.0
 40
2.0
 40
2.0
 40
2.0
 40
3.0
 40
3.0
 40
3.0
 40
4.0
 40
4.0
 40
4.0
 40
4.0
 10
68.85989213212669
 20
-95.43672525391865
 30
0.0
 10
68.85989213212669
 20
-95.38126858726598
 30
0.0
 10
68.81508935549192
 20
-95.33646580949926
 30
0.0
 10
68.75998546800885
 20
-95.33646580949926
 30
0.0
 10
68.70417776060188
 20
-95.33646580949926
 30
0.0
 10
68.65937498283516
 20
-95.38126858726598
 30
0.0
 10
68.65937498283516
 20
-95.43672525391865
 30
0.0
 10
68.65937498283516
 20
-95.49182914279358
 30
0.0
 10
68.70417776060188
 20
-95.5366319205603
 30
0.0
 10
68.75998546800885
 20
-95.5366319205603
 30
0.0
 10
68.81508935549192
 20
-95.5366319205603
 30
0.0
 10
68.85989213212669
 20
-95.49182914279358
 30
0.0
 10
68.85989213212669
 20
-95.43672525391865
 30
0.0
  0
SPLINE
  5
80
330
1F
100
AcDbEntity
  8
_U+30EC_U+30A4_U+30E4_U+30FC 1
 62
   179
420
  2234388
370
     9
100
AcDbSpline
210
0.0
220
0.0
230
1.0
 70
    11
 71
     3
 72
    17
 73
    13
 74
     0
 42
0.0000000001
 43
0.0000000001
 12
1.0
 22
0.0
 32
0.0
 13
1.0
 23
0.0
 33
0.0
 40
0.0
 40
0.0
 40
0.0
 40
0.0
 40
1.0
 40
1.0
 40
1.0
 40
2.0
 40
2.0
 40
2.0
 40
3.0
 40
3.0
 40
3.0
 40
4.0
 40
4.0
 40
4.0
 40
4.0
 10
68.85989213212669
 20
-95.9366113649046
 30
0.0
 10
68.85989213212669
 20
-95.88147219825217
 30
0.0
 10
68.81508935549192
 20
-95.83670469826296
 30
0.0
 10
68.75998546800885
 20
-95.83670469826296
 30
0.0
 10
68.70417776060188
 20
-95.83670469826296
 30
0.0
 10
68.65937498283516
 20
-95.88147219825217
 30
0.0
 10
68.65937498283516
 20
-95.9366113649046
 30
0.0
 10
68.65937498283516
 20
-95.99206803155728
 30
0.0
 10
68.70417776060188
 20
-96.036870809324
 30
0.0
 10
68.75998546800885
 20
-96.036870809324
 30
0.0
 10
68.81508935549192
 20
-96.036870809324
 30
0.0
 10
68.85989213212669
 20
-95.99206803155728
 30
0.0
 10
68.85989213212669
 20
-95.9366113649046
 30
0.0
  0
SPLINE
  5
81
330
1F
100
AcDbEntity
  8
_U+30EC_U+30A4_U+30E4_U+30FC 1
 62
   179
420
  2234388
370
    25
100
AcDbSpline
210
0.0
220
0.0
230
1.0
 70
    11
 71
     3
 72
    17
 73
    13
 74
     0
 42
0.0000000001
 43
0.0000000001
 12
1.0
 22
0.0
 32
0.0
 13
1.0
 23
0.0
 33
0.0
 40
0.0
 40
0.0
 40
0.0
 40
0.0
 40
1.0
 40
1.0
 40
1.0
 40
2.0
 40
2.0
 40
2.0
 40
3.0
 40
3.0
 40
3.0
 40
4.0
 40
4.0
 40
4.0
 40
4.0
 10
82.86005427495279
 20
-95.43672525391865
 30
0.0
 10
82.86005427495279
 20
-95.38126858726598
 30
0.0
 10
82.81528886818522
 20
-95.33646580949926
 30
0.0
 10
82.75947733307427
 20
-95.33646580949926
 30
0.0
 10
82.70433816781433
 20
-95.33646580949926
 30
0.0
 10
82.65953539117956
 20
-95.38126858726598
 30
0.0
 10
82.65953539117956
 20
-95.43672525391865
 30
0.0
 10
82.65953539117956
 20
-95.49182914279358
 30
0.0
 10
82.70433816781433
 20
-95.5366319205603
 30
0.0
 10
82.75947733307427
 20
-95.5366319205603
 30
0.0
 10
82.81528886818522
 20
-95.5366319205603
 30
0.0
 10
82.86005427495279
 20
-95.49182914279358
 30
0.0
 10
82.86005427495279
 20
-95.43672525391865
 30
0.0
  0
SPLINE
  5
82
330
1F
100
AcDbEntity
  8
_U+30EC_U+30A4_U+30E4_U+30FC 1
 62
   179
420
  2234388
370
    25
100
AcDbSpline
210
0.0
220
0.0
230
1.0
 70
    11
 71
     3
 72
    17
 73
    13
 74
     0
 42
0.0000000001
 43
0.0000000001
 12
1.0
 22
0.0
 32
0.0
 13
1.0
 23
0.0
 33
0.0
 40
0.0
 40
0.0
 40
0.0
 40
0.0
 40
1.0
 40
1.0
 40
1.0
 40
2.0
 40
2.0
 40
2.0
 40
3.0
 40
3.0
 40
3.0
 40
4.0
 40
4.0
 40
4.0
 40
4.0
 10
78.8596249325678
 20
-80.93667664643256
 30
0.0
 10
78.8596249325678
 20
-80.88118470200205
 30
0.0
 10
78.81482215593304
 20
-80.83641720201317
 30
0.0
 10
78.75971826844997
 20
-80.83641720201317
 30
0.0
 10
78.70457910319001
 20
-80.83641720201317
 30
0.0
 10
78.65981160433213
 20
-80.88118470200205
 30
0.0
 10
78.65981160433213
 20
-80.93667664643256
 30
0.0
 10
78.65981160433213
 20
-80.99178053530748
 30
0.0
 10
78.70457910319001
 20
-81.0365833130742
 30
0.0
 10
78.75971826844997
 20
-81.0365833130742
 30
0.0
 10
78.81482215593304
 20
-81.0365833130742
 30
0.0
 10
78.8596249325678
 20
-80.99178053530748
 30
0.0
 10
78.8596249325678
 20
-80.93667664643256
 30
0.0
  0
INSERT
  5
84
330
1F
100
AcDbEntity
  8
_U+30EC_U+30A4_U+30E4_U+30FC 1
100
AcDbBlockReference
  2
block 2
 10
0.0
 20
0.0
 30
0.0
  0
INSERT
  5
9E
330
1F
100
AcDbEntity
  8
_U+30EC_U+30A4_U+30E4_U+30FC 1
100
AcDbBlockReference
  2
block 4
 10
0.0
 20
0.0
 30
0.0
  0
INSERT
  5
C3
330
1F
100
AcDbEntity
  8
_U+30EC_U+30A4_U+30E4_U+30FC 1
100
AcDbBlockReference
  2
block 6
 10
0.0
 20
0.0
 30
0.0
  0
INSERT
  5
DC
330
1F
100
AcDbEntity
  8
_U+30EC_U+30A4_U+30E4_U+30FC 1
100
AcDbBlockReference
  2
block 8
 10
0.0
 20
0.0
 30
0.0
  0
INSERT
  5
F0
330
1F
100
AcDbEntity
  8
_U+30EC_U+30A4_U+30E4_U+30FC 1
100
AcDbBlockReference
  2
block 10
 10
0.0
 20
0.0
 30
0.0
  0
INSERT
  5
108
330
1F
100
AcDbEntity
  8
_U+30EC_U+30A4_U+30E4_U+30FC 1
100
AcDbBlockReference
  2
block 12
 10
0.0
 20
0.0
 30
0.0
  0
ENDSEC
  0
SECTION
  2
OBJECTS
  0
DICTIONARY
  5
C
330
0
100
AcDbDictionary
281
     1
  3
ACAD_GROUP
350
D
  3
ACAD_LAYOUT
350
1A
  3
ACAD_MATERIAL
350
3B
  3
ACAD_MLEADERSTYLE
350
121
  3
ACAD_MLINESTYLE
350
17
  3
ACAD_PLOTSETTINGS
350
19
  3
ACAD_PLOTSTYLENAME
350
E
  3
ACAD_TABLESTYLE
350
120
  3
ACAD_VISUALSTYLE
350
2A
  0
SUN
  5
3F
330
29
100
AcDbSun
 90
        1
290
     0
 63
     7
421
 16777215
 40
1.0
291
     1
 91
  2455826
 92
 54000000
292
     0
 70
     2
 71
   256
280
     1
  0
DICTIONARY
  5
D
102
{ACAD_REACTORS
330
C
102
}
330
C
100
AcDbDictionary
281
     1
  0
DICTIONARY
  5
1A
102
{ACAD_REACTORS
330
C
102
}
330
C
100
AcDbDictionary
281
     1
  3
Layout1
350
1E
  3
Layout2
350
26
  3
Model
350
22
  0
DICTIONARY
  5
3B
102
{ACAD_REACTORS
330
C
102
}
330
C
100
AcDbDictionary
281
     1
  3
ByBlock
350
3D
  3
ByLayer
350
3C
  3
Global
350
3E
  0
DICTIONARY
  5
121
102
{ACAD_REACTORS
330
C
102
}
330
C
100
AcDbDictionary
281
     1
  0
DICTIONARY
  5
17
102
{ACAD_REACTORS
330
C
102
}
330
C
100
AcDbDictionary
281
     1
  3
Standard
350
18
  0
DICTIONARY
  5
19
102
{ACAD_REACTORS
330
C
102
}
330
C
100
AcDbDictionary
281
     1
  0
ACDBDICTIONARYWDFLT
  5
E
102
{ACAD_REACTORS
330
C
102
}
330
C
100
AcDbDictionary
281
     1
  3
Normal
350
F
100
AcDbDictionaryWithDefault
340
F
  0
DICTIONARY
  5
120
102
{ACAD_REACTORS
330
C
102
}
330
C
100
AcDbDictionary
281
     1
  0
DICTIONARY
  5
2A
102
{ACAD_REACTORS
330
C
102
}
330
C
100
AcDbDictionary
281
     1
  3
2dWireframe
350
2F
  3
3D Hidden
350
31
  3
3dWireframe
350
30
  3
Basic
350
32
  3
Brighten
350
36
  3
ColorChange
350
3A
  3
Conceptual
350
34
  3
Dim
350
35
  3
Facepattern
350
39
  3
Flat
350
2B
  3
FlatWithEdges
350
2C
  3
Gouraud
350
2D
  3
GouraudWithEdges
350
2E
  3
Linepattern
350
38
  3
Realistic
350
33
  3
Thicken
350
37
  0
LAYOUT
  5
1E
102
{ACAD_REACTORS
330
1A
102
}
330
1A
100
AcDbPlotSettings
  1

  2
none_device
  4

  6

 40
0.0
 41
0.0
 42
0.0
 43
0.0
 44
0.0
 45
0.0
 46
0.0
 47
0.0
 48
0.0
 49
0.0
140
0.0
141
0.0
142
1.0
143
1.0
 70
   688
 72
     0
 73
     0
 74
     5
  7

 75
    16
 76
     0
 77
     2
 78
   300
147
1.0
148
0.0
149
0.0
100
AcDbLayout
  1
Layout1
 70
     1
 71
     1
 10
0.0
 20
0.0
 11
12.0
 21
9.0
 12
0.0
 22
0.0
 32
0.0
 14
1.000000000000000E+20
 24
1.000000000000000E+20
 34
1.000000000000000E+20
 15
-1.000000000000000E+20
 25
-1.000000000000000E+20
 35
-1.000000000000000E+20
146
0.0
 13
0.0
 23
0.0
 33
0.0
 16
1.0
 26
0.0
 36
0.0
 17
0.0
 27
1.0
 37
0.0
 76
     0
330
1B
  0
LAYOUT
  5
26
102
{ACAD_REACTORS
330
1A
102
}
330
1A
100
AcDbPlotSettings
  1

  2
none_device
  4

  6

 40
0.0
 41
0.0
 42
0.0
 43
0.0
 44
0.0
 45
0.0
 46
0.0
 47
0.0
 48
0.0
 49
0.0
140
0.0
141
0.0
142
1.0
143
1.0
 70
   688
 72
     0
 73
     0
 74
     5
  7

 75
    16
 76
     0
 77
     2
 78
   300
147
1.0
148
0.0
149
0.0
100
AcDbLayout
  1
Layout2
 70
     1
 71
     2
 10
0.0
 20
0.0
 11
0.0
 21
0.0
 12
0.0
 22
0.0
 32
0.0
 14
0.0
 24
0.0
 34
0.0
 15
0.0
 25
0.0
 35
0.0
146
0.0
 13
0.0
 23
0.0
 33
0.0
 16
1.0
 26
0.0
 36
0.0
 17
0.0
 27
1.0
 37
0.0
 76
     0
330
23
  0
LAYOUT
  5
22
102
{ACAD_REACTORS
330
1A
102
}
330
1A
100
AcDbPlotSettings
  1

  2
none_device
  4

  6

 40
0.0
 41
0.0
 42
0.0
 43
0.0
 44
0.0
 45
0.0
 46
0.0
 47
0.0
 48
0.0
 49
0.0
140
0.0
141
0.0
142
1.0
143
1.0
 70
  1712
 72
     0
 73
     0
 74
     0
  7

 75
     0
 76
     0
 77
     2
 78
   300
147
1.0
148
0.0
149
0.0
100
AcDbLayout
  1
Model
 70
     1
 71
     0
 10
0.0
 20
0.0
 11
12.0
 21
9.0
 12
0.0
 22
0.0
 32
0.0
 14
1.000000000000000E+20
 24
1.000000000000000E+20
 34
1.000000000000000E+20
 15
-1.000000000000000E+20
 25
-1.000000000000000E+20
 35
-1.000000000000000E+20
146
0.0
 13
0.0
 23
0.0
 33
0.0
 16
1.0
 26
0.0
 36
0.0
 17
0.0
 27
1.0
 37
0.0
 76
     0
330
1F
331
29
  0
MATERIAL
  5
3D
102
{ACAD_REACTORS
330
3B
102
}
330
3B
100
AcDbMaterial
  1
ByBlock
 72
     1
 94
      127
  0
MATERIAL
  5
3C
102
{ACAD_REACTORS
330
3B
102
}
330
3B
100
AcDbMaterial
  1
ByLayer
 72
     1
 94
      127
  0
MATERIAL
  5
3E
102
{ACAD_REACTORS
330
3B
102
}
330
3B
100
AcDbMaterial
  1
Global
 72
     1
 94
      127
  0
MLINESTYLE
  5
18
102
{ACAD_REACTORS
330
17
102
}
330
17
100
AcDbMlineStyle
  2
Standard
 70
     0
  3

 62
   256
 51
90.0
 52
90.0
 71
     2
 49
0.5
 62
   256
  6
BYLAYER
 49
-0.5
 62
   256
  6
BYLAYER
  0
ACDBPLACEHOLDER
  5
F
102
{ACAD_REACTORS
330
E
102
}
330
E
  0
VISUALSTYLE
  5
2F
102
{ACAD_REACTORS
330
2A
102
}
330
2A
100
AcDbVisualStyle
  2
2dWireframe
 70
     4
177
     2
291
     0
 71
     0
176
     1
 72
     2
176
     1
 73
     0
176
     1
 90
        0
176
     1
 40
-0.6
176
     1
 41
-30.0
176
     1
 62
     5
 63
     7
421
 16777215
176
     1
 74
     1
176
     1
 91
        4
176
     1
 64
     7
176
     1
 65
   257
176
     1
 75
     1
176
     1
175
     1
176
     1
 42
1.0
176
     1
 92
        0
176
     1
 66
   257
176
     1
 43
1.0
176
     1
 76
     1
176
     1
 77
     6
176
     1
 78
     2
176
     1
 67
     7
176
     1
 79
     5
176
     1
170
     0
176
     1
171
     0
176
     1
290
     0
176
     1
 93
        1
176
     1
 44
0.0
176
     1
173
     0
176
     1
  0
VISUALSTYLE
  5
31
102
{ACAD_REACTORS
330
2A
102
}
330
2A
100
AcDbVisualStyle
  2
3D Hidden
 70
     6
177
     2
291
     0
 71
     1
176
     1
 72
     2
176
     1
 73
     2
176
     1
 90
        0
176
     1
 40
-0.6
176
     1
 41
-30.0
176
     1
 62
     5
 63
     7
421
 16777215
176
     1
 74
     2
176
     1
 91
        2
176
     1
 64
     7
176
     1
 65
   257
176
     1
 75
     2
176
     1
175
     1
176
     1
 42
40.0
176
     1
 92
        0
176
     1
 66
   257
176
     1
 43
1.0
176
     1
 76
     1
176
     1
 77
     6
176
     1
 78
     2
176
     1
 67
     7
176
     1
 79
     3
176
     1
170
     0
176
     1
171
     0
176
     1
290
     0
176
     1
 93
        1
176
     1
 44
0.0
176
     1
173
     0
176
     1
  0
VISUALSTYLE
  5
30
102
{ACAD_REACTORS
330
2A
102
}
330
2A
100
AcDbVisualStyle
  2
3dWireframe
 70
     5
177
     2
291
     0
 71
     0
176
     1
 72
     2
176
     1
 73
     0
176
     1
 90
        0
176
     1
 40
-0.6
176
     1
 41
-30.0
176
     1
 62
     5
 63
     7
421
 16777215
176
     1
 74
     1
176
     1
 91
        4
176
     1
 64
     7
176
     1
 65
   257
176
     1
 75
     1
176
     1
175
     1
176
     1
 42
1.0
176
     1
 92
        0
176
     1
 66
   257
176
     1
 43
1.0
176
     1
 76
     1
176
     1
 77
     6
176
     1
 78
     2
176
     1
 67
     7
176
     1
 79
     5
176
     1
170
     0
176
     1
171
     0
176
     1
290
     0
176
     1
 93
        1
176
     1
 44
0.0
176
     1
173
     0
176
     1
  0
VISUALSTYLE
  5
32
102
{ACAD_REACTORS
330
2A
102
}
330
2A
100
AcDbVisualStyle
  2
Basic
 70
     7
177
     2
291
     1
 71
     1
176
     1
 72
     0
176
     1
 73
     1
176
     1
 90
        0
176
     1
 40
-0.6
176
     1
 41
-30.0
176
     1
 62
     5
 63
     7
421
 16777215
176
     1
 74
     0
176
     1
 91
        4
176
     1
 64
     7
176
     1
 65
   257
176
     1
 75
     1
176
     1
175
     1
176
     1
 42
1.0
176
     1
 92
        8
176
     1
 66
     7
176
     1
 43
1.0
176
     1
 76
     1
176
     1
 77
     6
176
     1
 78
     2
176
     1
 67
     7
176
     1
 79
     5
176
     1
170
     0
176
     1
171
     0
176
     1
290
     0
176
     1
 93
        1
176
     1
 44
0.0
176
     1
173
     0
176
     1
  0
VISUALSTYLE
  5
36
102
{ACAD_REACTORS
330
2A
102
}
330
2A
100
AcDbVisualStyle
  2
Brighten
 70
    12
177
     2
291
     1
 71
     2
176
     1
 72
     2
176
     1
 73
     0
176
     1
 90
        0
176
     1
 40
-0.6
176
     1
 41
-30.0
176
     1
 62
     5
 63
     7
421
 16777215
176
     1
 74
     1
176
     1
 91
        4
176
     1
 64
     7
176
     1
 65
   257
176
     1
 75
     1
176
     1
175
     1
176
     1
 42
1.0
176
     1
 92
        8
176
     1
 66
     7
176
     1
 43
1.0
176
     1
 76
     1
176
     1
 77
     6
176
     1
 78
     2
176
     1
 67
     7
176
     1
 79
     5
176
     1
170
     0
176
     1
171
     0
176
     1
290
     0
176
     1
 93
        1
176
     1
 44
50.0
176
     1
173
     0
176
     1
  0
VISUALSTYLE
  5
3A
102
{ACAD_REACTORS
330
2A
102
}
330
2A
100
AcDbVisualStyle
  2
ColorChange
 70
    16
177
     2
291
     1
 71
     2
176
     1
 72
     2
176
     1
 73
     3
176
     1
 90
        0
176
     1
 40
-0.6
176
     1
 41
-30.0
176
     1
 62
     5
 63
     8
421
  8421504
176
     1
 74
     1
176
     1
 91
        4
176
     1
 64
     7
176
     1
 65
   257
176
     1
 75
     1
176
     1
175
     1
176
     1
 42
1.0
176
     1
 92
        8
176
     1
 66
     8
424
  8421504
176
     1
 43
1.0
176
     1
 76
     1
176
     1
 77
     6
176
     1
 78
     2
176
     1
 67
     7
176
     1
 79
     5
176
     1
170
     0
176
     1
171
     0
176
     1
290
     0
176
     1
 93
        1
176
     1
 44
0.0
176
     1
173
     0
176
     1
  0
VISUALSTYLE
  5
34
102
{ACAD_REACTORS
330
2A
102
}
330
2A
100
AcDbVisualStyle
  2
Conceptual
 70
     9
177
     2
291
     0
 71
     3
176
     1
 72
     2
176
     1
 73
     0
176
     1
 90
        0
176
     1
 40
-0.6
176
     1
 41
-30.0
176
     1
 62
     5
 63
     7
421
 16777215
176
     1
 74
     2
176
     1
 91
        2
176
     1
 64
     7
176
     1
 65
   257
176
     1
 75
     1
176
     1
175
     1
176
     1
 42
40.0
176
     1
 92
        8
176
     1
 66
     7
176
     1
 43
1.0
176
     1
 76
     1
176
     1
 77
     6
176
     1
 78
     2
176
     1
 67
     7
176
     1
 79
     3
176
     1
170
     0
176
     1
171
     0
176
     1
290
     0
176
     1
 93
        1
176
     1
 44
0.0
176
     1
173
     0
176
     1
  0
VISUALSTYLE
  5
35
102
{ACAD_REACTORS
330
2A
102
}
330
2A
100
AcDbVisualStyle
  2
Dim
 70
    11
177
     2
291
     1
 71
     2
176
     1
 72
     2
176
     1
 73
     0
176
     1
 90
        0
176
     1
 40
-0.6
176
     1
 41
-30.0
176
     1
 62
     5
 63
     7
421
 16777215
176
     1
 74
     1
176
     1
 91
        4
176
     1
 64
     7
176
     1
 65
   257
176
     1
 75
     1
176
     1
175
     1
176
     1
 42
1.0
176
     1
 92
        8
176
     1
 66
     7
176
     1
 43
1.0
176
     1
 76
     1
176
     1
 77
     6
176
     1
 78
     2
176
     1
 67
     7
176
     1
 79
     5
176
     1
170
     0
176
     1
171
     0
176
     1
290
     0
176
     1
 93
        1
176
     1
 44
-50.0
176
     1
173
     0
176
     1
  0
VISUALSTYLE
  5
39
102
{ACAD_REACTORS
330
2A
102
}
330
2A
100
AcDbVisualStyle
  2
Facepattern
 70
    15
177
     2
291
     1
 71
     2
176
     1
 72
     2
176
     1
 73
     0
176
     1
 90
        0
176
     1
 40
-0.6
176
     1
 41
-30.0
176
     1
 62
     5
 63
     7
421
 16777215
176
     1
 74
     1
176
     1
 91
        4
176
     1
 64
     7
176
     1
 65
   257
176
     1
 75
     1
176
     1
175
     1
176
     1
 42
1.0
176
     1
 92
        8
176
     1
 66
     7
176
     1
 43
1.0
176
     1
 76
     1
176
     1
 77
     6
176
     1
 78
     2
176
     1
 67
     7
176
     1
 79
     5
176
     1
170
     0
176
     1
171
     0
176
     1
290
     0
176
     1
 93
        1
176
     1
 44
0.0
176
     1
173
     0
176
     1
  0
VISUALSTYLE
  5
2B
102
{ACAD_REACTORS
330
2A
102
}
330
2A
100
AcDbVisualStyle
  2
Flat
 70
     0
177
     2
291
     1
 71
     2
176
     1
 72
     1
176
     1
 73
     1
176
     1
 90
        2
176
     1
 40
-0.6
176
     1
 41
30.0
176
     1
 62
     5
 63
     7
421
 16777215
176
     1
 74
     0
176
     1
 91
        4
176
     1
 64
     7
176
     1
 65
   257
176
     1
 75
     1
176
     1
175
     1
176
     1
 42
1.0
176
     1
 92
        8
176
     1
 66
     7
176
     1
 43
1.0
176
     1
 76
     1
176
     1
 77
     6
176
     1
 78
     2
176
     1
 67
     7
176
     1
 79
     5
176
     1
170
     0
176
     1
171
     0
176
     1
290
     0
176
     1
 93
       13
176
     1
 44
0.0
176
     1
173
     0
176
     1
  0
VISUALSTYLE
  5
2C
102
{ACAD_REACTORS
330
2A
102
}
330
2A
100
AcDbVisualStyle
  2
FlatWithEdges
 70
     1
177
     2
291
     1
 71
     2
176
     1
 72
     1
176
     1
 73
     1
176
     1
 90
        2
176
     1
 40
-0.6
176
     1
 41
30.0
176
     1
 62
     5
 63
     7
421
 16777215
176
     1
 74
     1
176
     1
 91
        4
176
     1
 64
     7
176
     1
 65
   257
176
     1
 75
     1
176
     1
175
     1
176
     1
 42
1.0
176
     1
 92
        0
176
     1
 66
   257
176
     1
 43
1.0
176
     1
 76
     1
176
     1
 77
     6
176
     1
 78
     2
176
     1
 67
     7
176
     1
 79
     5
176
     1
170
     0
176
     1
171
     0
176
     1
290
     0
176
     1
 93
       13
176
     1
 44
0.0
176
     1
173
     0
176
     1
  0
VISUALSTYLE
  5
2D
102
{ACAD_REACTORS
330
2A
102
}
330
2A
100
AcDbVisualStyle
  2
Gouraud
 70
     2
177
     2
291
     1
 71
     2
176
     1
 72
     2
176
     1
 73
     1
176
     1
 90
        2
176
     1
 40
-0.6
176
     1
 41
30.0
176
     1
 62
     5
 63
     7
421
 16777215
176
     1
 74
     0
176
     1
 91
        4
176
     1
 64
     7
176
     1
 65
   257
176
     1
 75
     1
176
     1
175
     1
176
     1
 42
1.0
176
     1
 92
        0
176
     1
 66
     7
176
     1
 43
1.0
176
     1
 76
     1
176
     1
 77
     6
176
     1
 78
     2
176
     1
 67
     7
176
     1
 79
     5
176
     1
170
     0
176
     1
171
     0
176
     1
290
     0
176
     1
 93
       13
176
     1
 44
0.0
176
     1
173
     0
176
     1
  0
VISUALSTYLE
  5
2E
102
{ACAD_REACTORS
330
2A
102
}
330
2A
100
AcDbVisualStyle
  2
GouraudWithEdges
 70
     3
177
     2
291
     1
 71
     2
176
     1
 72
     2
176
     1
 73
     1
176
     1
 90
        2
176
     1
 40
-0.6
176
     1
 41
30.0
176
     1
 62
     5
 63
     7
421
 16777215
176
     1
 74
     1
176
     1
 91
        4
176
     1
 64
     7
176
     1
 65
   257
176
     1
 75
     1
176
     1
175
     1
176
     1
 42
1.0
176
     1
 92
        0
176
     1
 66
   257
176
     1
 43
1.0
176
     1
 76
     1
176
     1
 77
     6
176
     1
 78
     2
176
     1
 67
     7
176
     1
 79
     5
176
     1
170
     0
176
     1
171
     0
176
     1
290
     0
176
     1
 93
       13
176
     1
 44
0.0
176
     1
173
     0
176
     1
  0
VISUALSTYLE
  5
38
102
{ACAD_REACTORS
330
2A
102
}
330
2A
100
AcDbVisualStyle
  2
Linepattern
 70
    14
177
     2
291
     1
 71
     2
176
     1
 72
     2
176
     1
 73
     0
176
     1
 90
        0
176
     1
 40
-0.6
176
     1
 41
-30.0
176
     1
 62
     5
 63
     7
421
 16777215
176
     1
 74
     1
176
     1
 91
        4
176
     1
 64
     7
176
     1
 65
   257
176
     1
 75
     7
176
     1
175
     7
176
     1
 42
1.0
176
     1
 92
        8
176
     1
 66
     7
176
     1
 43
1.0
176
     1
 76
     1
176
     1
 77
     6
176
     1
 78
     2
176
     1
 67
     7
176
     1
 79
     5
176
     1
170
     0
176
     1
171
     0
176
     1
290
     0
176
     1
 93
        1
176
     1
 44
0.0
176
     1
173
     0
176
     1
  0
VISUALSTYLE
  5
33
102
{ACAD_REACTORS
330
2A
102
}
330
2A
100
AcDbVisualStyle
  2
Realistic
 70
     8
177
     2
291
     0
 71
     2
176
     1
 72
     2
176
     1
 73
     0
176
     1
 90
        0
176
     1
 40
-0.6
176
     1
 41
-30.0
176
     1
 62
     5
 63
     7
421
 16777215
176
     1
 74
     1
176
     1
 91
        0
176
     1
 64
     7
176
     1
 65
   257
176
     1
 75
     1
176
     1
175
     1
176
     1
 42
1.0
176
     1
 92
        8
176
     1
 66
     8
424
  7895160
176
     1
 43
1.0
176
     1
 76
     1
176
     1
 77
     6
176
     1
 78
     2
176
     1
 67
     7
176
     1
 79
     5
176
     1
170
     0
176
     1
171
     0
176
     1
290
     0
176
     1
 93
       13
176
     1
 44
0.0
176
     1
173
     0
176
     1
  0
VISUALSTYLE
  5
37
102
{ACAD_REACTORS
330
2A
102
}
330
2A
100
AcDbVisualStyle
  2
Thicken
 70
    13
177
     2
291
     1
 71
     2
176
     1
 72
     2
176
     1
 73
     0
176
     1
 90
        0
176
     1
 40
-0.6
176
     1
 41
-30.0
176
     1
 62
     5
 63
     7
421
 16777215
176
     1
 74
     1
176
     1
 91
        4
176
     1
 64
     7
176
     1
 65
   257
176
     1
 75
     1
176
     1
175
     1
176
     1
 42
1.0
176
     1
 92
       12
176
     1
 66
     7
176
     1
 43
1.0
176
     1
 76
     1
176
     1
 77
     6
176
     1
 78
     2
176
     1
 67
     7
176
     1
 79
     5
176
     1
170
     0
176
     1
171
     0
176
     1
290
     0
176
     1
 93
        1
176
     1
 44
0.0
176
     1
173
     0
176
     1
  0
ENDSEC
  0
EOF
