  0
SECTION
  2
HEADER
  9
$ACADVER
  1
AC1024
  9
$ACADMAINTVER
 70
   226
  9
$DWGCODEPAGE
  3
ANSI_932
  9
$INSBASE
 10
0.0
 20
0.0
 30
0.0
  9
$EXTMIN
 10
1.000000000000000E+20
 20
1.000000000000000E+20
 30
1.000000000000000E+20
  9
$EXTMAX
 10
-1.000000000000000E+20
 20
-1.000000000000000E+20
 30
-1.000000000000000E+20
  9
$LIMMIN
 10
0.0
 20
0.0
  9
$LIMMAX
 10
12.0
 20
9.0
  9
$ORTHOMODE
 70
     0
  9
$REGENMODE
 70
     1
  9
$FILLMODE
 70
     1
  9
$QTEXTMODE
 70
     0
  9
$MIRRTEXT
 70
     0
  9
$LTSCALE
 40
1.0
  9
$ATTMODE
 70
     1
  9
$TEXTSIZE
 40
0.2
  9
$TRACEWID
 40
0.05
  9
$TEXTSTYLE
  7
Standard
  9
$CLAYER
  8
0
  9
$CELTYPE
  6
ByLayer
  9
$CECOLOR
 62
   256
  9
$CELTSCALE
 40
1.0
  9
$DISPSILH
 70
     0
  9
$DIMSCALE
 40
1.0
  9
$DIMASZ
 40
0.18
  9
$DIMEXO
 40
0.0625
  9
$DIMDLI
 40
0.38
  9
$DIMRND
 40
0.0
  9
$DIMDLE
 40
0.0
  9
$DIMEXE
 40
0.18
  9
$DIMTP
 40
0.0
  9
$DIMTM
 40
0.0
  9
$DIMTXT
 40
0.18
  9
$DIMCEN
 40
0.09
  9
$DIMTSZ
 40
0.0
  9
$DIMTOL
 70
     0
  9
$DIMLIM
 70
     0
  9
$DIMTIH
 70
     1
  9
$DIMTOH
 70
     1
  9
$DIMSE1
 70
     0
  9
$DIMSE2
 70
     0
  9
$DIMTAD
 70
     0
  9
$DIMZIN
 70
     0
  9
$DIMBLK
  1

  9
$DIMASO
 70
     1
  9
$DIMSHO
 70
     1
  9
$DIMPOST
  1

  9
$DIMAPOST
  1

  9
$DIMALT
 70
     0
  9
$DIMALTD
 70
     2
  9
$DIMALTF
 40
25.4
  9
$DIMLFAC
 40
1.0
  9
$DIMTOFL
 70
     0
  9
$DIMTVP
 40
0.0
  9
$DIMTIX
 70
     0
  9
$DIMSOXD
 70
     0
  9
$DIMSAH
 70
     0
  9
$DIMBLK1
  1

  9
$DIMBLK2
  1

  9
$DIMSTYLE
  2
Standard
  9
$DIMCLRD
 70
     0
  9
$DIMCLRE
 70
     0
  9
$DIMCLRT
 70
     0
  9
$DIMTFAC
 40
1.0
  9
$DIMGAP
 40
0.09
  9
$DIMJUST
 70
     0
  9
$DIMSD1
 70
     0
  9
$DIMSD2
 70
     0
  9
$DIMTOLJ
 70
     1
  9
$DIMTZIN
 70
     0
  9
$DIMALTZ
 70
     0
  9
$DIMALTTZ
 70
     0
  9
$DIMUPT
 70
     0
  9
$DIMDEC
 70
     4
  9
$DIMTDEC
 70
     4
  9
$DIMALTU
 70
     2
  9
$DIMALTTD
 70
     2
  9
$DIMTXSTY
  7
Standard
  9
$DIMAUNIT
 70
     0
  9
$DIMADEC
 70
     0
  9
$DIMALTRND
 40
0.0
  9
$DIMAZIN
 70
     0
  9
$DIMDSEP
 70
    46
  9
$DIMATFIT
 70
     3
  9
$DIMFRAC
 70
     0
  9
$DIMLDRBLK
  1

  9
$DIMLUNIT
 70
     2
  9
$DIMLWD
 70
    -2
  9
$DIMLWE
 70
    -2
  9
$DIMTMOVE
 70
     0
  9
$DIMFXL
 40
1.0
  9
$DIMFXLON
 70
     0
  9
$DIMJOGANG
 40
0.7853981633974483
  9
$DIMTFILL
 70
     0
  9
$DIMTFILLCLR
 70
     0
  9
$DIMARCSYM
 70
     0
  9
$DIMLTYPE
  6

  9
$DIMLTEX1
  6

  9
$DIMLTEX2
  6

  9
$DIMTXTDIRECTION
 70
     0
  9
$LUNITS
 70
     2
  9
$LUPREC
 70
     4
  9
$SKETCHINC
 40
0.1
  9
$FILLETRAD
 40
0.0
  9
$AUNITS
 70
     0
  9
$AUPREC
 70
     0
  9
$MENU
  1
.
  9
$ELEVATION
 40
0.0
  9
$PELEVATION
 40
0.0
  9
$THICKNESS
 40
0.0
  9
$LIMCHECK
 70
     0
  9
$CHAMFERA
 40
0.0
  9
$CHAMFERB
 40
0.0
  9
$CHAMFERC
 40
0.0
  9
$CHAMFERD
 40
0.0
  9
$SKPOLY
 70
     0
  9
$TDCREATE
 40
2459676.423518518
  9
$TDUCREATE
 40
2459676.048518518
  9
$TDUPDATE
 40
2459676.423518518
  9
$TDUUPDATE
 40
2459676.048518518
  9
$TDINDWG
 40
0.0000000000
  9
$TDUSRTIMER
 40
0.0000000000
  9
$USRTIMER
 70
     1
  9
$ANGBASE
 50
0.0
  9
$ANGDIR
 70
     0
  9
$PDMODE
 70
     0
  9
$PDSIZE
 40
0.0
  9
$PLINEWID
 40
0.0
  9
$SPLFRAME
 70
     0
  9
$SPLINETYPE
 70
     6
  9
$SPLINESEGS
 70
     8
  9
$HANDSEED
  5
144
  9
$SURFTAB1
 70
     6
  9
$SURFTAB2
 70
     6
  9
$SURFTYPE
 70
     6
  9
$SURFU
 70
     6
  9
$SURFV
 70
     6
  9
$UCSBASE
  2

  9
$UCSNAME
  2

  9
$UCSORG
 10
0.0
 20
0.0
 30
0.0
  9
$UCSXDIR
 10
1.0
 20
0.0
 30
0.0
  9
$UCSYDIR
 10
0.0
 20
1.0
 30
0.0
  9
$UCSORTHOREF
  2

  9
$UCSORTHOVIEW
 70
     0
  9
$UCSORGTOP
 10
0.0
 20
0.0
 30
0.0
  9
$UCSORGBOTTOM
 10
0.0
 20
0.0
 30
0.0
  9
$UCSORGLEFT
 10
0.0
 20
0.0
 30
0.0
  9
$UCSORGRIGHT
 10
0.0
 20
0.0
 30
0.0
  9
$UCSORGFRONT
 10
0.0
 20
0.0
 30
0.0
  9
$UCSORGBACK
 10
0.0
 20
0.0
 30
0.0
  9
$PUCSBASE
  2

  9
$PUCSNAME
  2

  9
$PUCSORG
 10
0.0
 20
0.0
 30
0.0
  9
$PUCSXDIR
 10
1.0
 20
0.0
 30
0.0
  9
$PUCSYDIR
 10
0.0
 20
1.0
 30
0.0
  9
$PUCSORTHOREF
  2

  9
$PUCSORTHOVIEW
 70
     0
  9
$PUCSORGTOP
 10
0.0
 20
0.0
 30
0.0
  9
$PUCSORGBOTTOM
 10
0.0
 20
0.0
 30
0.0
  9
$PUCSORGLEFT
 10
0.0
 20
0.0
 30
0.0
  9
$PUCSORGRIGHT
 10
0.0
 20
0.0
 30
0.0
  9
$PUCSORGFRONT
 10
0.0
 20
0.0
 30
0.0
  9
$PUCSORGBACK
 10
0.0
 20
0.0
 30
0.0
  9
$USERI1
 70
     0
  9
$USERI2
 70
     0
  9
$USERI3
 70
     0
  9
$USERI4
 70
     0
  9
$USERI5
 70
     0
  9
$USERR1
 40
0.0
  9
$USERR2
 40
0.0
  9
$USERR3
 40
0.0
  9
$USERR4
 40
0.0
  9
$USERR5
 40
0.0
  9
$WORLDVIEW
 70
     1
  9
$SHADEDGE
 70
     3
  9
$SHADEDIF
 70
    70
  9
$TILEMODE
 70
     1
  9
$MAXACTVP
 70
    64
  9
$PINSBASE
 10
0.0
 20
0.0
 30
0.0
  9
$PLIMCHECK
 70
     0
  9
$PEXTMIN
 10
1.000000000000000E+20
 20
1.000000000000000E+20
 30
1.000000000000000E+20
  9
$PEXTMAX
 10
-1.000000000000000E+20
 20
-1.000000000000000E+20
 30
-1.000000000000000E+20
  9
$PLIMMIN
 10
0.0
 20
0.0
  9
$PLIMMAX
 10
12.0
 20
9.0
  9
$UNITMODE
 70
     0
  9
$VISRETAIN
 70
     1
  9
$PLINEGEN
 70
     0
  9
$PSLTSCALE
 70
     1
  9
$TREEDEPTH
 70
  3020
  9
$CMLSTYLE
  2
Standard
  9
$CMLJUST
 70
     0
  9
$CMLSCALE
 40
1.0
  9
$PROXYGRAPHICS
 70
     1
  9
$MEASUREMENT
 70
     0
  9
$CELWEIGHT
370
    -1
  9
$ENDCAPS
280
     0
  9
$JOINSTYLE
280
     0
  9
$LWDISPLAY
290
     1
  9
$INSUNITS
 70
     4
  9
$HYPERLINKBASE
  1

  9
$STYLESHEET
  1

  9
$XEDIT
290
     1
  9
$CEPSNTYPE
380
     0
  9
$PSTYLEMODE
290
     1
  9
$FINGERPRINTGUID
  2
{767CC2C8-B595-0846-B583-EECCD0DB9837}
  9
$VERSIONGUID
  2
{101C1493-4062-E747-B5C8-D00E4A04F3D5}
  9
$EXTNAMES
290
     1
  9
$PSVPSCALE
 40
0.0
  9
$OLESTARTUP
290
     0
  9
$SORTENTS
280
   127
  9
$INDEXCTL
280
     0
  9
$HIDETEXT
280
     1
  9
$XCLIPFRAME
280
     2
  9
$HALOGAP
280
     0
  9
$OBSCOLOR
 70
   257
  9
$OBSLTYPE
280
     0
  9
$INTERSECTIONDISPLAY
280
     0
  9
$INTERSECTIONCOLOR
 70
   257
  9
$DIMASSOC
280
     2
  9
$PROJECTNAME
  1

  9
$CAMERADISPLAY
290
     0
  9
$LENSLENGTH
 40
50.0
  9
$CAMERAHEIGHT
 40
0.0
  9
$STEPSPERSEC
 40
2.0
  9
$STEPSIZE
 40
6.0
  9
$3DDWFPREC
 40
2.0
  9
$PSOLWIDTH
 40
0.25
  9
$PSOLHEIGHT
 40
4.0
  9
$LOFTANG1
 40
1.570796326794896
  9
$LOFTANG2
 40
1.570796326794896
  9
$LOFTMAG1
 40
0.0
  9
$LOFTMAG2
 40
0.0
  9
$LOFTPARAM
 70
     7
  9
$LOFTNORMALS
280
     1
  9
$LATITUDE
 40
37.795
  9
$LONGITUDE
 40
-122.394
  9
$NORTHDIRECTION
 40
0.0
  9
$TIMEZONE
 70
 -8000
  9
$LIGHTGLYPHDISPLAY
280
     1
  9
$TILEMODELIGHTSYNCH
280
     1
  9
$CMATERIAL
347
11
  9
$SOLIDHIST
280
     0
  9
$SHOWHIST
280
     1
  9
$DWFFRAME
280
     2
  9
$DGNFRAME
280
     0
  9
$REALWORLDSCALE
290
     1
  9
$INTERFERECOLOR
 62
     1
  9
$INTERFEREOBJVS
345
33
  9
$INTERFEREVPVS
346
30
  9
$CSHADOW
280
     0
  9
$SHADOWPLANELOCATION
 40
0.0
  0
ENDSEC
  0
SECTION
  2
CLASSES
  0
CLASS
  1
ACDBDICTIONARYWDFLT
  2
AcDbDictionaryWithDefault
  3
ObjectDBX Classes
 90
        0
 91
        1
280
     0
281
     0
  0
CLASS
  1
MATERIAL
  2
AcDbMaterial
  3
ObjectDBX Classes
 90
     1153
 91
        3
280
     0
281
     0
  0
CLASS
  1
VISUALSTYLE
  2
AcDbVisualStyle
  3
ObjectDBX Classes
 90
     4095
 91
       24
280
     0
281
     0
  0
CLASS
  1
SCALE
  2
AcDbScale
  3
ObjectDBX Classes
 90
     1153
 91
       17
280
     0
281
     0
  0
CLASS
  1
TABLESTYLE
  2
AcDbTableStyle
  3
ObjectDBX Classes
 90
     4095
 91
        1
280
     0
281
     0
  0
CLASS
  1
MLEADERSTYLE
  2
AcDbMLeaderStyle
  3
ACDB_MLEADERSTYLE_CLASS
 90
     4095
 91
        1
280
     0
281
     0
  0
CLASS
  1
ACDBSECTIONVIEWSTYLE
  2
AcDbSectionViewStyle
  3
ObjectDBX Classes
 90
     1025
 91
        1
280
     0
281
     0
  0
CLASS
  1
ACDBDETAILVIEWSTYLE
  2
AcDbDetailViewStyle
  3
ObjectDBX Classes
 90
     1025
 91
        1
280
     0
281
     0
  0
CLASS
  1
DICTIONARYVAR
  2
AcDbDictionaryVar
  3
ObjectDBX Classes
 90
        0
 91
        5
280
     0
281
     0
  0
CLASS
  1
CELLSTYLEMAP
  2
AcDbCellStyleMap
  3
ObjectDBX Classes
 90
     1152
 91
        1
280
     0
281
     0
  0
ENDSEC
  0
SECTION
  2
TABLES
  0
TABLE
  2
VPORT
  5
8
330
0
100
AcDbSymbolTable
 70
     1
  0
VPORT
  5
57
330
8
100
AcDbSymbolTableRecord
100
AcDbViewportTableRecord
  2
*Active
 70
     0
 10
0.0
 20
0.0
 11
1.0
 21
1.0
 12
0.0
 22
0.0
 13
0.0
 23
0.0
 14
1.0
 24
1.0
 15
0.0
 25
0.0
 16
0.0
 26
0.0
 36
1.0
 17
104.9999999737534
 27
-148.4999999628701
 37
0.0
 40
302.939999924255
 41
0.7070707070707534
 42
50.0
 43
0.0
 44
0.0
 50
0.0
 51
0.0
 71
     0
 72
   100
 73
     1
 74
     0
 75
     1
 76
     0
 77
     0
 78
     0
281
     0
 65
     1
110
0.0
120
0.0
130
0.0
111
1.0
121
0.0
131
0.0
112
0.0
122
1.0
132
0.0
 79
     0
146
0.0
 60
     3
 61
     5
292
     1
282
     1
141
0.0
142
0.0
 63
   250
421
  3355443
  0
ENDTAB
  0
TABLE
  2
LTYPE
  5
5
330
0
100
AcDbSymbolTable
 70
     2
  0
LTYPE
  5
5B
330
5
100
AcDbSymbolTableRecord
100
AcDbLinetypeTableRecord
  2
ByBlock
 70
     0
  3

 72
    65
 73
     0
 40
0.0
  0
LTYPE
  5
5C
330
5
100
AcDbSymbolTableRecord
100
AcDbLinetypeTableRecord
  2
ByLayer
 70
     0
  3

 72
    65
 73
     0
 40
0.0
  0
LTYPE
  5
5D
330
5
100
AcDbSymbolTableRecord
100
AcDbLinetypeTableRecord
  2
Continuous
 70
     0
  3
Solid line
 72
    65
 73
     0
 40
0.0
  0
LTYPE
  5
E2
330
5
100
AcDbSymbolTableRecord
100
AcDbLinetypeTableRecord
  2
AI-Linetype-0
 70
     0
  3
Adobe Illustrator Linetype No. 0
 72
    65
 73
     2
 40
1.411111110758333
 49
0.7055555553791667
 74
     0
 49
-0.7055555553791667
 74
     0
  0
ENDTAB
  0
TABLE
  2
LAYER
  5
2
330
0
100
AcDbSymbolTable
 70
     2
  0
LAYER
  5
54
330
2
100
AcDbSymbolTableRecord
100
AcDbLayerTableRecord
  2
0
 70
     0
 62
     7
  6
Continuous
370
    -3
390
F
347
21
  0
LAYER
  5
78
330
2
100
AcDbSymbolTableRecord
100
AcDbLayerTableRecord
  2
レイヤー 1
 70
     0
 62
     7
  6
Continuous
370
     0
390
F
347
21
  0
ENDTAB
  0
TABLE
  2
STYLE
  5
3
330
0
100
AcDbSymbolTable
 70
     2
  0
STYLE
  5
55
330
3
100
AcDbSymbolTableRecord
100
AcDbTextStyleTableRecord
  2
Standard
 70
     0
 40
0.0
 41
1.0
 50
0.0
 71
     0
 42
0.2
  3
txt
  4

  0
STYLE
  5
5A
330
3
100
AcDbSymbolTableRecord
100
AcDbTextStyleTableRecord
  2
Annotative
 70
     0
 40
0.0
 41
1.0
 50
0.0
 71
     0
 42
0.2
  3
txt
  4

1001
AcadAnnotative
1000
AnnotativeData
1002
{
1070
     1
1070
     1
1002
}
  0
ENDTAB
  0
TABLE
  2
VIEW
  5
6
330
0
100
AcDbSymbolTable
 70
     0
  0
ENDTAB
  0
TABLE
  2
UCS
  5
7
330
0
100
AcDbSymbolTable
 70
     0
  0
ENDTAB
  0
TABLE
  2
APPID
  5
9
330
0
100
AcDbSymbolTable
 70
     2
  0
APPID
  5
56
330
9
100
AcDbSymbolTableRecord
100
AcDbRegAppTableRecord
  2
ACAD
 70
     0
  0
APPID
  5
5E
330
9
100
AcDbSymbolTableRecord
100
AcDbRegAppTableRecord
  2
AcadAnnotative
 70
     0
  0
ENDTAB
  0
TABLE
  2
DIMSTYLE
  5
A
330
0
100
AcDbSymbolTable
 70
     2
100
AcDbDimStyleTable
 71
     0
  0
DIMSTYLE
105
58
330
A
100
AcDbSymbolTableRecord
100
AcDbDimStyleTableRecord
  2
Standard
 70
     0
340
55
  0
DIMSTYLE
105
59
330
A
100
AcDbSymbolTableRecord
100
AcDbDimStyleTableRecord
  2
Annotative
 70
     0
340
55
1001
AcadAnnotative
1000
AnnotativeData
1002
{
1070
     1
1070
     1
1002
}
  0
ENDTAB
  0
TABLE
  2
BLOCK_RECORD
  5
1
330
0
100
AcDbSymbolTable
 70
    15
  0
BLOCK_RECORD
  5
70
330
1
100
AcDbSymbolTableRecord
100
AcDbBlockTableRecord
  2
*Model_Space
340
73
 70
     0
280
     1
281
     0
  0
BLOCK_RECORD
  5
6C
330
1
100
AcDbSymbolTableRecord
100
AcDbBlockTableRecord
  2
*Paper_Space
340
6F
 70
     0
280
     1
281
     0
  0
BLOCK_RECORD
  5
74
330
1
100
AcDbSymbolTableRecord
100
AcDbBlockTableRecord
  2
*Paper_Space0
340
77
 70
     0
280
     1
281
     0
  0
BLOCK_RECORD
  5
79
330
1
100
AcDbSymbolTableRecord
100
AcDbBlockTableRecord
  2
Block_0
340
0
102
{BLKREFS
331
7A
102
}
 70
     0
280
     1
281
     0
  0
BLOCK_RECORD
  5
7D
330
1
100
AcDbSymbolTableRecord
100
AcDbBlockTableRecord
  2
Block_1
340
0
102
{BLKREFS
331
7E
102
}
 70
     0
280
     1
281
     0
  0
BLOCK_RECORD
  5
94
330
1
100
AcDbSymbolTableRecord
100
AcDbBlockTableRecord
  2
Block_2
340
0
102
{BLKREFS
331
95
102
}
 70
     0
280
     1
281
     0
  0
BLOCK_RECORD
  5
9D
330
1
100
AcDbSymbolTableRecord
100
AcDbBlockTableRecord
  2
Block_3
340
0
102
{BLKREFS
331
9E
102
}
 70
     0
280
     1
281
     0
  0
BLOCK_RECORD
  5
A1
330
1
100
AcDbSymbolTableRecord
100
AcDbBlockTableRecord
  2
Block_4
340
0
102
{BLKREFS
331
A2
102
}
 70
     0
280
     1
281
     0
  0
BLOCK_RECORD
  5
AB
330
1
100
AcDbSymbolTableRecord
100
AcDbBlockTableRecord
  2
Block_5
340
0
102
{BLKREFS
331
AC
102
}
 70
     0
280
     1
281
     0
  0
BLOCK_RECORD
  5
AF
330
1
100
AcDbSymbolTableRecord
100
AcDbBlockTableRecord
  2
Block_6
340
0
102
{BLKREFS
331
B0
102
}
 70
     0
280
     1
281
     0
  0
BLOCK_RECORD
  5
BE
330
1
100
AcDbSymbolTableRecord
100
AcDbBlockTableRecord
  2
Block_7
340
0
102
{BLKREFS
331
BF
102
}
 70
     0
280
     1
281
     0
  0
BLOCK_RECORD
  5
C2
330
1
100
AcDbSymbolTableRecord
100
AcDbBlockTableRecord
  2
Block_8
340
0
102
{BLKREFS
331
C3
102
}
 70
     0
280
     1
281
     0
  0
BLOCK_RECORD
  5
D2
330
1
100
AcDbSymbolTableRecord
100
AcDbBlockTableRecord
  2
Block_9
340
0
102
{BLKREFS
331
D3
102
}
 70
     0
280
     1
281
     0
  0
BLOCK_RECORD
  5
D6
330
1
100
AcDbSymbolTableRecord
100
AcDbBlockTableRecord
  2
Block_10
340
0
102
{BLKREFS
331
D7
102
}
 70
     0
280
     1
281
     0
  0
BLOCK_RECORD
  5
E3
330
1
100
AcDbSymbolTableRecord
100
AcDbBlockTableRecord
  2
Block_11
340
0
102
{BLKREFS
331
E4
102
}
 70
     0
280
     1
281
     0
  0
BLOCK_RECORD
  5
EA
330
1
100
AcDbSymbolTableRecord
100
AcDbBlockTableRecord
  2
Block_12
340
0
102
{BLKREFS
331
EB
102
}
 70
     0
280
     1
281
     0
  0
BLOCK_RECORD
  5
EE
330
1
100
AcDbSymbolTableRecord
100
AcDbBlockTableRecord
  2
Block_13
340
0
102
{BLKREFS
331
EF
102
}
 70
     0
280
     1
281
     0
  0
ENDTAB
  0
ENDSEC
  0
SECTION
  2
BLOCKS
  0
BLOCK
  5
71
330
70
100
AcDbEntity
  8
0
100
AcDbBlockBegin
  2
*Model_Space
 70
     0
 10
0.0
 20
0.0
 30
0.0
  3
*Model_Space
  1

  0
ENDBLK
  5
72
330
70
100
AcDbEntity
  8
0
100
AcDbBlockEnd
  0
BLOCK
  5
6D
330
6C
100
AcDbEntity
 67
     1
  8
0
100
AcDbBlockBegin
  2
*Paper_Space
 70
     0
 10
0.0
 20
0.0
 30
0.0
  3
*Paper_Space
  1

  0
ENDBLK
  5
6E
330
6C
100
AcDbEntity
 67
     1
  8
0
100
AcDbBlockEnd
  0
BLOCK
  5
75
330
74
100
AcDbEntity
 67
     1
  8
0
100
AcDbBlockBegin
  2
*Paper_Space0
 70
     0
 10
0.0
 20
0.0
 30
0.0
  3
*Paper_Space0
  1

  0
ENDBLK
  5
76
330
74
100
AcDbEntity
 67
     1
  8
0
100
AcDbBlockEnd
  0
BLOCK
  5
7B
330
79
100
AcDbEntity
  8
0
100
AcDbBlockBegin
  2
Block_0
 70
     0
 10
0.0
 20
0.0
 30
0.0
  3
Block_0
  1

  0
INSERT
  5
7E
330
79
100
AcDbEntity
  8
レイヤー 1
100
AcDbBlockReference
  2
Block_1
 10
0.0
 20
0.0
 30
0.0
  0
ENDBLK
  5
7C
330
79
100
AcDbEntity
  8
0
100
AcDbBlockEnd
  0
BLOCK
  5
7F
330
7D
100
AcDbEntity
  8
0
100
AcDbBlockBegin
  2
Block_1
 70
     0
 10
0.0
 20
0.0
 30
0.0
  3
Block_1
  1

  0
LINE
  5
81
330
7D
100
AcDbEntity
  8
レイヤー 1
 62
   250
420
  2299925
370
    25
100
AcDbLine
 10
91.7177402680503
 20
-143.0272588050954
 30
0.0
 11
98.71774776629901
 21
-143.0272588050954
 31
0.0
  0
LINE
  5
82
330
7D
100
AcDbEntity
  8
レイヤー 1
 62
   250
420
  2299925
370
    25
100
AcDbLine
 10
97.71775150283099
 20
-144.0270310150569
 30
0.0
 11
97.71775150283099
 21
-153.5270878030258
 31
0.0
  0
LINE
  5
83
330
7D
100
AcDbEntity
  8
レイヤー 1
 62
   250
420
  2299925
370
    25
100
AcDbLine
 10
91.7177402680503
 20
-144.0270310018113
 30
0.0
 11
97.71775137766054
 21
-144.0270310018113
 31
0.0
  0
LINE
  5
84
330
7D
100
AcDbEntity
  8
レイヤー 1
 62
   250
420
  2299925
370
    25
100
AcDbLine
 10
91.7177402680503
 20
-143.0272588050954
 30
0.0
 11
91.7177402680503
 21
-144.0270310018113
 31
0.0
  0
LINE
  5
85
330
7D
100
AcDbEntity
  8
レイヤー 1
 62
   250
420
  2299925
370
    25
100
AcDbLine
 10
98.7177478865855
 20
-143.027258818341
 30
0.0
 11
98.7177478865855
 21
-152.5274089421674
 31
0.0
  0
LINE
  5
86
330
7D
100
AcDbEntity
  8
レイヤー 1
 62
   250
420
  2299925
370
    25
100
AcDbLine
 10
114.7177235721243
 20
-152.5274089421674
 30
0.0
 11
114.7177235721243
 21
-152.9273883764075
 31
0.0
  0
LINE
  5
87
330
7D
100
AcDbEntity
  8
レイヤー 1
 62
   250
420
  2299925
370
    25
100
AcDbLine
 10
98.71774789146947
 20
-152.5274089421674
 30
0.0
 11
114.7177235721243
 21
-152.5274089421674
 31
0.0
  0
LINE
  5
88
330
7D
100
AcDbEntity
  8
レイヤー 1
 62
   250
420
  2299925
370
    25
100
AcDbLine
 10
114.7177235721243
 20
-152.9273883764075
 30
0.0
 11
97.71775150283099
 21
-153.5270878030258
 31
0.0
  0
SPLINE
  5
89
330
7D
100
AcDbEntity
  8
レイヤー 1
 62
   250
420
  2299925
370
     9
100
AcDbSpline
210
0.0
220
0.0
230
1.0
 70
    11
 71
     3
 72
    17
 73
    13
 74
     0
 42
0.0000000001
 43
0.0000000001
 40
0.0
 40
0.0
 40
0.0
 40
0.0
 40
1.0
 40
1.0
 40
1.0
 40
2.0
 40
2.0
 40
2.0
 40
3.0
 40
3.0
 40
3.0
 40
4.0
 40
4.0
 40
4.0
 40
4.0
 10
118.8180959420003
 20
-143.0272588050954
 30
0.0
 10
118.8180959420003
 20
-142.9719785287279
 30
0.0
 10
118.7732931642336
 20
-142.9271757520931
 30
0.0
 10
118.7174826367486
 20
-142.9271757520931
 30
0.0
 10
118.6623787492655
 20
-142.9271757520931
 30
0.0
 10
118.6175759726308
 20
-142.9719785287279
 30
0.0
 10
118.6175759726308
 20
-143.0272588050954
 30
0.0
 10
118.6175759726308
 20
-143.0825390814631
 30
0.0
 10
118.6623787492655
 20
-143.1273418580976
 30
0.0
 10
118.7174826367486
 20
-143.1273418580976
 30
0.0
 10
118.7732931642336
 20
-143.1273418580976
 30
0.0
 10
118.8180959420003
 20
-143.0825390814631
 30
0.0
 10
118.8180959420003
 20
-143.0272588050954
 30
0.0
  0
SPLINE
  5
8A
330
7D
100
AcDbEntity
  8
レイヤー 1
 62
   250
420
  2299925
370
     9
100
AcDbSpline
210
0.0
220
0.0
230
1.0
 70
     9
 71
     3
 72
    17
 73
    13
 74
     0
 42
0.0000000001
 43
0.0000000001
 40
0.0
 40
0.0
 40
0.0
 40
0.0
 40
1.0
 40
1.0
 40
1.0
 40
2.0
 40
2.0
 40
2.0
 40
3.0
 40
3.0
 40
3.0
 40
4.0
 40
4.0
 40
4.0
 40
4.0
 10
118.8180959420003
 20
-152.5274089421674
 30
0.0
 10
118.8180959420003
 20
-152.4719522769155
 30
0.0
 10
118.7732931642336
 20
-152.4271495002808
 30
0.0
 10
118.7174826367486
 20
-152.4271495002808
 30
0.0
 10
118.6623787492655
 20
-152.4271495002808
 30
0.0
 10
118.6175759726308
 20
-152.4719522769155
 30
0.0
 10
118.6175759726308
 20
-152.5274089421674
 30
0.0
 10
118.6175759726308
 20
-152.5825128296505
 30
0.0
 10
118.6623787492655
 20
-152.6273156062852
 30
0.0
 10
118.7174826367486
 20
-152.6273156062852
 30
0.0
 10
118.7732931642336
 20
-152.6273156062852
 30
0.0
 10
118.8180959420003
 20
-152.5825128296505
 30
0.0
 10
118.8180959420003
 20
-152.5274089421674
 30
0.0
  0
SPLINE
  5
8B
330
7D
100
AcDbEntity
  8
レイヤー 1
 62
   250
420
  2299925
370
     9
100
AcDbSpline
210
0.0
220
0.0
230
1.0
 70
     9
 71
     3
 72
    17
 73
    13
 74
     0
 42
0.0000000001
 43
0.0000000001
 40
0.0
 40
0.0
 40
0.0
 40
0.0
 40
1.0
 40
1.0
 40
1.0
 40
2.0
 40
2.0
 40
2.0
 40
3.0
 40
3.0
 40
3.0
 40
4.0
 40
4.0
 40
4.0
 40
4.0
 10
118.8180959420003
 20
-152.9273883764075
 30
0.0
 10
118.8180959420003
 20
-152.8719317111556
 30
0.0
 10
118.7732931642336
 20
-152.8271289345209
 30
0.0
 10
118.7174826367486
 20
-152.8271289345209
 30
0.0
 10
118.6623787492655
 20
-152.8271289345209
 30
0.0
 10
118.6175759726308
 20
-152.8719317111556
 30
0.0
 10
118.6175759726308
 20
-152.9273883764075
 30
0.0
 10
118.6175759726308
 20
-152.9824922638906
 30
0.0
 10
118.6623787492655
 20
-153.0272950405253
 30
0.0
 10
118.7174826367486
 20
-153.0272950405253
 30
0.0
 10
118.7732931642336
 20
-153.0272950405253
 30
0.0
 10
118.8180959420003
 20
-152.9824922638906
 30
0.0
 10
118.8180959420003
 20
-152.9273883764075
 30
0.0
  0
CIRCLE
  5
8C
330
7D
100
AcDbEntity
  8
レイヤー 1
 62
   250
420
  2299925
370
     9
100
AcDbCircle
 10
114.7177235721243
 20
-157.6270232565098
 30
0.0
 40
0.0999066641178353
  0
SPLINE
  5
8D
330
7D
100
AcDbEntity
  8
レイヤー 1
 62
   250
420
  2299925
370
     9
100
AcDbSpline
210
0.0
220
0.0
230
1.0
 70
     9
 71
     3
 72
    17
 73
    13
 74
     0
 42
0.0000000001
 43
0.0000000001
 40
0.0
 40
0.0
 40
0.0
 40
0.0
 40
1.0
 40
1.0
 40
1.0
 40
2.0
 40
2.0
 40
2.0
 40
3.0
 40
3.0
 40
3.0
 40
4.0
 40
4.0
 40
4.0
 40
4.0
 10
91.8178233235805
 20
-157.6270232565098
 30
0.0
 10
91.8178233235805
 20
-157.5718781005793
 30
0.0
 10
91.77302054581378
 20
-157.527116592392
 30
0.0
 10
91.7177402680503
 20
-157.527116592392
 30
0.0
 10
91.66245999028618
 20
-157.527116592392
 30
0.0
 10
91.61783360140836
 20
-157.5718781005793
 30
0.0
 10
91.61783360140836
 20
-157.6270232565098
 30
0.0
 10
91.61783360140836
 20
-157.6821271439929
 30
0.0
 10
91.66245999028618
 20
-157.7269299206277
 30
0.0
 10
91.7177402680503
 20
-157.7269299206277
 30
0.0
 10
91.77302054581378
 20
-157.7269299206277
 30
0.0
 10
91.8178233235805
 20
-157.6821271439929
 30
0.0
 10
91.8178233235805
 20
-157.6270232565098
 30
0.0
  0
SPLINE
  5
8E
330
7D
100
AcDbEntity
  8
レイヤー 1
 62
   250
420
  2299925
370
     9
100
AcDbSpline
210
0.0
220
0.0
230
1.0
 70
    11
 71
     3
 72
    17
 73
    13
 74
     0
 42
0.0000000001
 43
0.0000000001
 40
0.0
 40
0.0
 40
0.0
 40
0.0
 40
1.0
 40
1.0
 40
1.0
 40
2.0
 40
2.0
 40
2.0
 40
3.0
 40
3.0
 40
3.0
 40
4.0
 40
4.0
 40
4.0
 40
4.0
 10
89.76797276853716
 20
-143.0272588050954
 30
0.0
 10
89.76797276853716
 20
-142.9719785287279
 30
0.0
 10
89.7232052685486
 20
-142.9271757520931
 30
0.0
 10
89.66806610189616
 20
-142.9271757520931
 30
0.0
 10
89.61278582413171
 20
-142.9271757520931
 30
0.0
 10
89.56801832414253
 20
-142.9719785287279
 30
0.0
 10
89.56801832414253
 20
-143.0272588050954
 30
0.0
 10
89.56801832414253
 20
-143.0825390814631
 30
0.0
 10
89.61278582413171
 20
-143.1273418580976
 30
0.0
 10
89.66806610189616
 20
-143.1273418580976
 30
0.0
 10
89.7232052685486
 20
-143.1273418580976
 30
0.0
 10
89.76797276853716
 20
-143.0825390814631
 30
0.0
 10
89.76797276853716
 20
-143.0272588050954
 30
0.0
  0
SPLINE
  5
8F
330
7D
100
AcDbEntity
  8
レイヤー 1
 62
   250
420
  2299925
370
     9
100
AcDbSpline
210
0.0
220
0.0
230
1.0
 70
     9
 71
     3
 72
    17
 73
    13
 74
     0
 42
0.0000000001
 43
0.0000000001
 40
0.0
 40
0.0
 40
0.0
 40
0.0
 40
1.0
 40
1.0
 40
1.0
 40
2.0
 40
2.0
 40
2.0
 40
3.0
 40
3.0
 40
3.0
 40
4.0
 40
4.0
 40
4.0
 40
4.0
 10
89.76797276853716
 20
-144.0270310018113
 30
0.0
 10
89.76797276853716
 20
-143.9718918365514
 30
0.0
 10
89.7232052685486
 20
-143.9271243376931
 30
0.0
 10
89.66806610189616
 20
-143.9271243376931
 30
0.0
 10
89.61278582413171
 20
-143.9271243376931
 30
0.0
 10
89.56801832414253
 20
-143.9718918365514
 30
0.0
 10
89.56801832414253
 20
-144.0270310018113
 30
0.0
 10
89.56801832414253
 20
-144.0824876670632
 30
0.0
 10
89.61278582413171
 20
-144.1272904436979
 30
0.0
 10
89.66806610189616
 20
-144.1272904436979
 30
0.0
 10
89.7232052685486
 20
-144.1272904436979
 30
0.0
 10
89.76797276853716
 20
-144.0824876670632
 30
0.0
 10
89.76797276853716
 20
-144.0270310018113
 30
0.0
  0
SPLINE
  5
90
330
7D
100
AcDbEntity
  8
レイヤー 1
 62
   250
420
  2299925
370
     9
100
AcDbSpline
210
0.0
220
0.0
230
1.0
 70
     9
 71
     3
 72
    17
 73
    13
 74
     0
 42
0.0000000001
 43
0.0000000001
 40
0.0
 40
0.0
 40
0.0
 40
0.0
 40
1.0
 40
1.0
 40
1.0
 40
2.0
 40
2.0
 40
2.0
 40
3.0
 40
3.0
 40
3.0
 40
4.0
 40
4.0
 40
4.0
 40
4.0
 10
97.81779928058334
 20
-157.6270232565098
 30
0.0
 10
97.81779928058334
 20
-157.5718781005793
 30
0.0
 10
97.77303178059479
 20
-157.527116592392
 30
0.0
 10
97.71775150283099
 20
-157.527116592392
 30
0.0
 10
97.66261233617791
 20
-157.527116592392
 30
0.0
 10
97.61784483618871
 20
-157.5718781005793
 30
0.0
 10
97.61784483618871
 20
-157.6270232565098
 30
0.0
 10
97.61784483618871
 20
-157.6821271439929
 30
0.0
 10
97.66261233617791
 20
-157.7269299206277
 30
0.0
 10
97.71775150283099
 20
-157.7269299206277
 30
0.0
 10
97.77303178059479
 20
-157.7269299206277
 30
0.0
 10
97.81779928058334
 20
-157.6821271439929
 30
0.0
 10
97.81779928058334
 20
-157.6270232565098
 30
0.0
  0
LINE
  5
91
330
7D
100
AcDbEntity
  8
レイヤー 1
 62
   250
420
  2299925
370
     9
100
AcDbLine
 10
91.71791665693886
 20
-157.6270232565098
 30
0.0
 11
97.71775137766054
 21
-157.6270232565098
 31
0.0
  0
LINE
  5
92
330
7D
100
AcDbEntity
  8
レイヤー 1
 62
   250
420
  2299925
370
     9
100
AcDbLine
 10
91.7177402680503
 20
-146.6671845588128
 30
0.0
 11
91.7177402680503
 21
-158.6274657309864
 31
0.0
  0
LINE
  5
93
330
7D
100
AcDbEntity
  8
レイヤー 1
 62
   250
420
  2299925
370
     9
100
AcDbLine
 10
97.71775150283099
 20
-156.1669819048697
 30
0.0
 11
97.71775150283099
 21
-158.6274657309864
 31
0.0
  0
INSERT
  5
95
330
7D
100
AcDbEntity
  8
レイヤー 1
100
AcDbBlockReference
  2
Block_2
 10
0.0
 20
0.0
 30
0.0
  0
LINE
  5
9B
330
7D
100
AcDbEntity
  8
レイヤー 1
 62
   250
420
  2299925
370
     9
100
AcDbLine
 10
97.71775150283099
 20
-157.6270232565098
 30
0.0
 11
114.7177235721243
 21
-157.6270232565098
 31
0.0
  0
LINE
  5
9C
330
7D
100
AcDbEntity
  8
レイヤー 1
 62
   250
420
  2299925
370
     9
100
AcDbLine
 10
114.7177235721243
 20
-155.4669297005073
 30
0.0
 11
114.7177235721243
 21
-158.6274657309864
 31
0.0
  0
INSERT
  5
9E
330
7D
100
AcDbEntity
  8
レイヤー 1
100
AcDbBlockReference
  2
Block_3
 10
0.0
 20
0.0
 30
0.0
  0
LINE
  5
A9
330
7D
100
AcDbEntity
  8
レイヤー 1
 62
   250
420
  2299925
370
     9
100
AcDbLine
 10
118.7174826367486
 20
-152.5274089421674
 30
0.0
 11
118.7174826367486
 21
-143.027258818341
 31
0.0
  0
LINE
  5
AA
330
7D
100
AcDbEntity
  8
レイヤー 1
 62
   250
420
  2299925
370
     9
100
AcDbLine
 10
101.357818446365
 20
-143.0272588050954
 30
0.0
 11
119.7179251112252
 21
-143.0272588050954
 31
0.0
  0
INSERT
  5
AC
330
7D
100
AcDbEntity
  8
レイヤー 1
100
AcDbBlockReference
  2
Block_5
 10
0.0
 20
0.0
 30
0.0
  0
LINE
  5
BA
330
7D
100
AcDbEntity
  8
レイヤー 1
 62
   250
420
  2299925
370
     9
100
AcDbLine
 10
118.7174826367486
 20
-152.9273883764075
 30
0.0
 11
118.7174826367486
 21
-153.9271605731234
 31
0.0
  0
LINE
  5
BB
330
7D
100
AcDbEntity
  8
レイヤー 1
 62
   250
420
  2299925
370
     9
100
AcDbLine
 10
118.7174826367486
 20
-152.5274089421674
 30
0.0
 11
118.7174826367486
 21
-152.9273883764075
 31
0.0
  0
LINE
  5
BC
330
7D
100
AcDbEntity
  8
レイヤー 1
 62
   250
420
  2299925
370
     9
100
AcDbLine
 10
117.2574412851085
 20
-152.5274089421674
 30
0.0
 11
119.7179251112252
 21
-152.5274089421674
 31
0.0
  0
LINE
  5
BD
330
7D
100
AcDbEntity
  8
レイヤー 1
 62
   250
420
  2299925
370
     9
100
AcDbLine
 10
117.2574412851085
 20
-152.9273883764075
 30
0.0
 11
119.7179251112252
 21
-152.9273883764075
 31
0.0
  0
INSERT
  5
BF
330
7D
100
AcDbEntity
  8
レイヤー 1
100
AcDbBlockReference
  2
Block_7
 10
0.0
 20
0.0
 30
0.0
  0
LINE
  5
CE
330
7D
100
AcDbEntity
  8
レイヤー 1
 62
   250
420
  2299925
370
     9
100
AcDbLine
 10
89.66806610189616
 20
-143.0272588050954
 30
0.0
 11
89.66806610189616
 21
-142.0273102194954
 31
0.0
  0
LINE
  5
CF
330
7D
100
AcDbEntity
  8
レイヤー 1
 62
   250
420
  2299925
370
     9
100
AcDbLine
 10
89.66806610189616
 20
-143.0272588050954
 30
0.0
 11
89.66806610189616
 21
-145.0271206985188
 31
0.0
  0
LINE
  5
D0
330
7D
100
AcDbEntity
  8
レイヤー 1
 62
   250
420
  2299925
370
     9
100
AcDbLine
 10
91.12793110153035
 20
-143.0272588050954
 30
0.0
 11
88.66797637992338
 21
-143.0272588050954
 31
0.0
  0
LINE
  5
D1
330
7D
100
AcDbEntity
  8
レイヤー 1
 62
   250
420
  2299925
370
     9
100
AcDbLine
 10
91.12793110153035
 20
-144.0270310018113
 30
0.0
 11
88.66797637992338
 21
-144.0270310018113
 31
0.0
  0
INSERT
  5
D3
330
7D
100
AcDbEntity
  8
レイヤー 1
100
AcDbBlockReference
  2
Block_9
 10
0.0
 20
0.0
 30
0.0
  0
ENDBLK
  5
80
330
7D
100
AcDbEntity
  8
0
100
AcDbBlockEnd
  0
BLOCK
  5
96
330
94
100
AcDbEntity
  8
0
100
AcDbBlockBegin
  2
Block_2
 70
     0
 10
0.0
 20
0.0
 30
0.0
  3
Block_2
  1

  0
SPLINE
  5
98
330
94
100
AcDbEntity
  8
レイヤー 1
100
AcDbSpline
210
0.0
220
0.0
230
1.0
 70
     9
 71
     3
 72
    17
 73
    13
 74
     0
 42
0.0000000001
 43
0.0000000001
 40
0.0
 40
0.0
 40
0.0
 40
0.0
 40
1.0
 40
1.0
 40
1.0
 40
2.0
 40
2.0
 40
2.0
 40
3.0
 40
3.0
 40
3.0
 40
4.0
 40
4.0
 40
4.0
 40
4.0
 10
94.69447832919097
 20
-156.1727240277971
 30
0.0
 10
94.47054712264973
 20
-156.1727240277971
 30
0.0
 10
94.43816322508837
 20
-156.3842528905914
 30
0.0
 10
94.43816322508837
 20
-156.5006971179929
 30
0.0
 10
94.43816322508837
 20
-156.6763969877406
 30
0.0
 10
94.51946747854028
 20
-156.8393500041929
 30
0.0
 10
94.67621932311914
 20
-156.8393500041929
 30
0.0
 10
94.77922767812811
 20
-156.8393500041929
 30
0.0
 10
94.92874482218795
 20
-156.7800943618466
 30
0.0
 10
94.92874482218795
 20
-156.4944959461194
 30
0.0
 10
94.92874482218795
 20
-156.2702202300297
 30
0.0
 10
94.80954451839831
 20
-156.1727240277971
 30
0.0
 10
94.69447832919097
 20
-156.1727240277971
 30
0.0
  0
SPLINE
  5
99
330
94
100
AcDbEntity
  8
レイヤー 1
100
AcDbSpline
210
0.0
220
0.0
230
1.0
 70
     9
 71
     3
 72
    32
 73
    28
 74
     0
 42
0.0000000001
 43
0.0000000001
 40
0.0
 40
0.0
 40
0.0
 40
0.0
 40
1.0
 40
1.0
 40
1.0
 40
2.0
 40
2.0
 40
2.0
 40
3.0
 40
3.0
 40
3.0
 40
4.0
 40
4.0
 40
4.0
 40
5.0
 40
5.0
 40
5.0
 40
6.0
 40
6.0
 40
6.0
 40
7.0
 40
7.0
 40
7.0
 40
8.0
 40
8.0
 40
8.0
 40
9.0
 40
9.0
 40
9.0
 40
9.0
 10
94.68000892815291
 20
-157.0315863322699
 30
0.0
 10
94.23972572513799
 20
-157.0315863322699
 30
0.0
 10
94.2328355341675
 20
-156.4776149782417
 30
0.0
 10
94.2328355341675
 20
-156.2636745486077
 30
0.0
 10
94.2328355341675
 20
-156.0331976606445
 30
0.0
 10
94.24902748294817
 20
-155.385864218966
 30
0.0
 10
94.71239282571426
 20
-155.385864218966
 30
0.0
 10
94.86018742203148
 20
-155.385864218966
 30
0.0
 10
95.06930471798616
 20
-155.4557996573166
 30
0.0
 10
95.10168861554751
 20
-155.7879068620947
 30
0.0
 10
95.10168861554751
 20
-155.7879068620947
 30
0.0
 10
94.91978757392631
 20
-155.7879068620947
 30
0.0
 10
94.91978757392631
 20
-155.7879068620947
 30
0.0
 10
94.91083032566466
 20
-155.7307182770395
 30
0.0
 10
94.88361407133117
 20
-155.5825791711738
 30
0.0
 10
94.71067027797165
 20
-155.5825791711738
 30
0.0
 10
94.46158987438808
 20
-155.5825791711738
 30
0.0
 10
94.4274834290841
 20
-155.9105522613696
 30
0.0
 10
94.41645912353131
 20
-156.1155354427419
 30
0.0
 10
94.49604082924059
 20
-156.0373317752268
 30
0.0
 10
94.55357392384426
 20
-155.9780761328805
 30
0.0
 10
94.70860322068048
 20
-155.9780761328805
 30
0.0
 10
94.86190996977411
 20
-155.9780761328805
 30
0.0
 10
95.11994762161931
 20
-156.0862521311173
 30
0.0
 10
95.11994762161931
 20
-156.4924288888283
 30
0.0
 10
95.11994762161931
 20
-156.8117892403109
 30
0.0
 10
94.95044892374503
 20
-157.0315863322699
 30
0.0
 10
94.68000892815291
 20
-157.0315863322699
 30
0.0
  0
HATCH
  5
9A
330
94
100
AcDbEntity
  8
レイヤー 1
 62
   250
420
  2299925
440
 33554687
100
AcDbHatch
 10
0.0
 20
0.0
 30
0.0
210
0.0
220
0.0
230
1.0
  2
SOLID
 70
     1
 71
     1
 91
        2
 92
        1
 93
        1
 72
     4
 94
        3
 73
     0
 74
     0
 95
       17
 96
       13
 40
0.0
 40
0.0
 40
0.0
 40
0.0
 40
1.0
 40
1.0
 40
1.0
 40
2.0
 40
2.0
 40
2.0
 40
3.0
 40
3.0
 40
3.0
 40
4.0
 40
4.0
 40
4.0
 40
4.0
 10
94.69447832919097
 20
-156.1727240277971
 10
94.47054712264973
 20
-156.1727240277971
 10
94.43816322508837
 20
-156.3842528905914
 10
94.43816322508837
 20
-156.5006971179929
 10
94.43816322508837
 20
-156.6763969877406
 10
94.51946747854028
 20
-156.8393500041929
 10
94.67621932311914
 20
-156.8393500041929
 10
94.77922767812811
 20
-156.8393500041929
 10
94.92874482218795
 20
-156.7800943618466
 10
94.92874482218795
 20
-156.4944959461194
 10
94.92874482218795
 20
-156.2702202300297
 10
94.80954451839831
 20
-156.1727240277971
 10
94.69447832919097
 20
-156.1727240277971
 97
        0
 97
        1
330
98
 92
        1
 93
        1
 72
     4
 94
        3
 73
     0
 74
     0
 95
       32
 96
       28
 40
0.0
 40
0.0
 40
0.0
 40
0.0
 40
1.0
 40
1.0
 40
1.0
 40
2.0
 40
2.0
 40
2.0
 40
3.0
 40
3.0
 40
3.0
 40
4.0
 40
4.0
 40
4.0
 40
5.0
 40
5.0
 40
5.0
 40
6.0
 40
6.0
 40
6.0
 40
7.0
 40
7.0
 40
7.0
 40
8.0
 40
8.0
 40
8.0
 40
9.0
 40
9.0
 40
9.0
 40
9.0
 10
94.68000892815291
 20
-157.0315863322699
 10
94.23972572513799
 20
-157.0315863322699
 10
94.2328355341675
 20
-156.4776149782417
 10
94.2328355341675
 20
-156.2636745486077
 10
94.2328355341675
 20
-156.0331976606445
 10
94.24902748294817
 20
-155.385864218966
 10
94.71239282571426
 20
-155.385864218966
 10
94.86018742203148
 20
-155.385864218966
 10
95.06930471798616
 20
-155.4557996573166
 10
95.10168861554751
 20
-155.7879068620947
 10
95.10168861554751
 20
-155.7879068620947
 10
94.91978757392631
 20
-155.7879068620947
 10
94.91978757392631
 20
-155.7879068620947
 10
94.91083032566466
 20
-155.7307182770395
 10
94.88361407133117
 20
-155.5825791711738
 10
94.71067027797165
 20
-155.5825791711738
 10
94.46158987438808
 20
-155.5825791711738
 10
94.4274834290841
 20
-155.9105522613696
 10
94.41645912353131
 20
-156.1155354427419
 10
94.49604082924059
 20
-156.0373317752268
 10
94.55357392384426
 20
-155.9780761328805
 10
94.70860322068048
 20
-155.9780761328805
 10
94.86190996977411
 20
-155.9780761328805
 10
95.11994762161931
 20
-156.0862521311173
 10
95.11994762161931
 20
-156.4924288888283
 10
95.11994762161931
 20
-156.8117892403109
 10
94.95044892374503
 20
-157.0315863322699
 10
94.68000892815291
 20
-157.0315863322699
 97
        0
 97
        1
330
99
 75
     2
 76
     1
 98
        1
 10
0.0
 20
0.0
450
        0
451
        0
460
0.0
461
0.0
452
        0
462
0.0
453
        0
470

  0
ENDBLK
  5
97
330
94
100
AcDbEntity
  8
0
100
AcDbBlockEnd
  0
BLOCK
  5
9F
330
9D
100
AcDbEntity
  8
0
100
AcDbBlockBegin
  2
Block_3
 70
     0
 10
0.0
 20
0.0
 30
0.0
  3
Block_3
  1

  0
INSERT
  5
A2
330
9D
100
AcDbEntity
  8
レイヤー 1
100
AcDbBlockReference
  2
Block_4
 10
0.0
 20
0.0
 30
0.0
  0
ENDBLK
  5
A0
330
9D
100
AcDbEntity
  8
0
100
AcDbBlockEnd
  0
BLOCK
  5
A3
330
A1
100
AcDbEntity
  8
0
100
AcDbBlockBegin
  2
Block_4
 70
     0
 10
0.0
 20
0.0
 30
0.0
  3
Block_4
  1

  0
SPLINE
  5
A5
330
A1
100
AcDbEntity
  8
レイヤー 1
100
AcDbSpline
210
0.0
220
0.0
230
1.0
 70
    11
 71
     3
 72
    26
 73
    22
 74
     0
 42
0.0000000001
 43
0.0000000001
 40
0.0
 40
0.0
 40
0.0
 40
0.0
 40
1.0
 40
1.0
 40
1.0
 40
2.0
 40
2.0
 40
2.0
 40
3.0
 40
3.0
 40
3.0
 40
4.0
 40
4.0
 40
4.0
 40
5.0
 40
5.0
 40
5.0
 40
6.0
 40
6.0
 40
6.0
 40
7.0
 40
7.0
 40
7.0
 40
7.0
 10
105.6758924431991
 20
-156.9812879381852
 30
0.0
 10
105.6758924431991
 20
-156.9812879381852
 30
0.0
 10
105.6758924431991
 20
-155.8771348351626
 30
0.0
 10
105.6758924431991
 20
-155.8771348351626
 30
0.0
 10
105.6758924431991
 20
-155.8771348351626
 30
0.0
 10
105.3944281420541
 20
-155.8771348351626
 30
0.0
 10
105.3944281420541
 20
-155.8771348351626
 30
0.0
 10
105.3944281420541
 20
-155.8771348351626
 30
0.0
 10
105.3944281420541
 20
-155.7289957292969
 30
0.0
 10
105.3944281420541
 20
-155.7289957292969
 30
0.0
 10
105.6776149909417
 20
-155.7141818187103
 30
0.0
 10
105.7172335890221
 20
-155.551228802258
 30
0.0
 10
105.7423827860644
 20
-155.4368516321477
 30
0.0
 10
105.7423827860644
 20
-155.4368516321477
 30
0.0
 10
105.8670952426304
 20
-155.4368516321477
 30
0.0
 10
105.8670952426304
 20
-155.4368516321477
 30
0.0
 10
105.8670952426304
 20
-155.4368516321477
 30
0.0
 10
105.8670952426304
 20
-156.9812879381852
 30
0.0
 10
105.8670952426304
 20
-156.9812879381852
 30
0.0
 10
105.8670952426304
 20
-156.9812879381852
 30
0.0
 10
105.6758924431991
 20
-156.9812879381852
 30
0.0
 10
105.6758924431991
 20
-156.9812879381852
 30
0.0
  0
HATCH
  5
A6
330
A1
100
AcDbEntity
  8
レイヤー 1
 62
   250
420
  2299925
440
 33554687
100
AcDbHatch
 10
0.0
 20
0.0
 30
0.0
210
0.0
220
0.0
230
1.0
  2
SOLID
 70
     1
 71
     1
 91
        1
 92
        1
 93
        1
 72
     4
 94
        3
 73
     0
 74
     0
 95
       26
 96
       22
 40
0.0
 40
0.0
 40
0.0
 40
0.0
 40
1.0
 40
1.0
 40
1.0
 40
2.0
 40
2.0
 40
2.0
 40
3.0
 40
3.0
 40
3.0
 40
4.0
 40
4.0
 40
4.0
 40
5.0
 40
5.0
 40
5.0
 40
6.0
 40
6.0
 40
6.0
 40
7.0
 40
7.0
 40
7.0
 40
7.0
 10
105.6758924431991
 20
-156.9812879381852
 10
105.6758924431991
 20
-156.9812879381852
 10
105.6758924431991
 20
-155.8771348351626
 10
105.6758924431991
 20
-155.8771348351626
 10
105.6758924431991
 20
-155.8771348351626
 10
105.3944281420541
 20
-155.8771348351626
 10
105.3944281420541
 20
-155.8771348351626
 10
105.3944281420541
 20
-155.8771348351626
 10
105.3944281420541
 20
-155.7289957292969
 10
105.3944281420541
 20
-155.7289957292969
 10
105.6776149909417
 20
-155.7141818187103
 10
105.7172335890221
 20
-155.551228802258
 10
105.7423827860644
 20
-155.4368516321477
 10
105.7423827860644
 20
-155.4368516321477
 10
105.8670952426304
 20
-155.4368516321477
 10
105.8670952426304
 20
-155.4368516321477
 10
105.8670952426304
 20
-155.4368516321477
 10
105.8670952426304
 20
-156.9812879381852
 10
105.8670952426304
 20
-156.9812879381852
 10
105.8670952426304
 20
-156.9812879381852
 10
105.6758924431991
 20
-156.9812879381852
 10
105.6758924431991
 20
-156.9812879381852
 97
        0
 97
        1
330
A5
 75
     2
 76
     1
 98
        1
 10
0.0
 20
0.0
450
        0
451
        0
460
0.0
461
0.0
452
        0
462
0.0
453
        0
470

  0
SPLINE
  5
A7
330
A1
100
AcDbEntity
  8
レイヤー 1
100
AcDbSpline
210
0.0
220
0.0
230
1.0
 70
     9
 71
     3
 72
    26
 73
    22
 74
     0
 42
0.0000000001
 43
0.0000000001
 40
0.0
 40
0.0
 40
0.0
 40
0.0
 40
1.0
 40
1.0
 40
1.0
 40
2.0
 40
2.0
 40
2.0
 40
3.0
 40
3.0
 40
3.0
 40
4.0
 40
4.0
 40
4.0
 40
5.0
 40
5.0
 40
5.0
 40
6.0
 40
6.0
 40
6.0
 40
7.0
 40
7.0
 40
7.0
 40
7.0
 10
106.6432752554572
 20
-156.9812879381852
 30
0.0
 10
106.6432752554572
 20
-156.9812879381852
 30
0.0
 10
106.4413926600216
 20
-156.9812879381852
 30
0.0
 10
106.4413926600216
 20
-156.9812879381852
 30
0.0
 10
106.4630967615787
 20
-156.6722628731583
 30
0.0
 10
106.6270833066765
 20
-156.1541205121767
 30
0.0
 10
106.9733154029442
 20
-155.648380494942
 30
0.0
 10
106.9733154029442
 20
-155.648380494942
 30
0.0
 10
106.2591471088519
 20
-155.648380494942
 30
0.0
 10
106.2591471088519
 20
-155.648380494942
 30
0.0
 10
106.2591471088519
 20
-155.648380494942
 30
0.0
 10
106.2591471088519
 20
-155.4368516321477
 30
0.0
 10
106.2591471088519
 20
-155.4368516321477
 30
0.0
 10
106.2591471088519
 20
-155.4368516321477
 30
0.0
 10
107.1751979983798
 20
-155.4368516321477
 30
0.0
 10
107.1751979983798
 20
-155.4368516321477
 30
0.0
 10
107.1751979983798
 20
-155.4368516321477
 30
0.0
 10
107.1751979983798
 20
-155.648380494942
 30
0.0
 10
107.1751979983798
 20
-155.648380494942
 30
0.0
 10
106.8995903595598
 20
-155.9384575348001
 30
0.0
 10
106.6722140575333
 20
-156.5306694487146
 30
0.0
 10
106.6432752554572
 20
-156.9812879381852
 30
0.0
  0
HATCH
  5
A8
330
A1
100
AcDbEntity
  8
レイヤー 1
 62
   250
420
  2299925
440
 33554687
100
AcDbHatch
 10
0.0
 20
0.0
 30
0.0
210
0.0
220
0.0
230
1.0
  2
SOLID
 70
     1
 71
     1
 91
        1
 92
        1
 93
        1
 72
     4
 94
        3
 73
     0
 74
     0
 95
       26
 96
       22
 40
0.0
 40
0.0
 40
0.0
 40
0.0
 40
1.0
 40
1.0
 40
1.0
 40
2.0
 40
2.0
 40
2.0
 40
3.0
 40
3.0
 40
3.0
 40
4.0
 40
4.0
 40
4.0
 40
5.0
 40
5.0
 40
5.0
 40
6.0
 40
6.0
 40
6.0
 40
7.0
 40
7.0
 40
7.0
 40
7.0
 10
106.6432752554572
 20
-156.9812879381852
 10
106.6432752554572
 20
-156.9812879381852
 10
106.4413926600216
 20
-156.9812879381852
 10
106.4413926600216
 20
-156.9812879381852
 10
106.4630967615787
 20
-156.6722628731583
 10
106.6270833066765
 20
-156.1541205121767
 10
106.9733154029442
 20
-155.648380494942
 10
106.9733154029442
 20
-155.648380494942
 10
106.2591471088519
 20
-155.648380494942
 10
106.2591471088519
 20
-155.648380494942
 10
106.2591471088519
 20
-155.648380494942
 10
106.2591471088519
 20
-155.4368516321477
 10
106.2591471088519
 20
-155.4368516321477
 10
106.2591471088519
 20
-155.4368516321477
 10
107.1751979983798
 20
-155.4368516321477
 10
107.1751979983798
 20
-155.4368516321477
 10
107.1751979983798
 20
-155.4368516321477
 10
107.1751979983798
 20
-155.648380494942
 10
107.1751979983798
 20
-155.648380494942
 10
106.8995903595598
 20
-155.9384575348001
 10
106.6722140575333
 20
-156.5306694487146
 10
106.6432752554572
 20
-156.9812879381852
 97
        0
 97
        1
330
A7
 75
     2
 76
     1
 98
        1
 10
0.0
 20
0.0
450
        0
451
        0
460
0.0
461
0.0
452
        0
462
0.0
453
        0
470

  0
ENDBLK
  5
A4
330
A1
100
AcDbEntity
  8
0
100
AcDbBlockEnd
  0
BLOCK
  5
AD
330
AB
100
AcDbEntity
  8
0
100
AcDbBlockBegin
  2
Block_5
 70
     0
 10
0.0
 20
0.0
 30
0.0
  3
Block_5
  1

  0
INSERT
  5
B0
330
AB
100
AcDbEntity
  8
レイヤー 1
100
AcDbBlockReference
  2
Block_6
 10
0.0
 20
0.0
 30
0.0
  0
ENDBLK
  5
AE
330
AB
100
AcDbEntity
  8
0
100
AcDbBlockEnd
  0
BLOCK
  5
B1
330
AF
100
AcDbEntity
  8
0
100
AcDbBlockBegin
  2
Block_6
 70
     0
 10
0.0
 20
0.0
 30
0.0
  3
Block_6
  1

  0
SPLINE
  5
B3
330
AF
100
AcDbEntity
  8
レイヤー 1
100
AcDbSpline
210
0.0
220
0.0
230
1.0
 70
     9
 71
     3
 72
    17
 73
    13
 74
     0
 42
0.0000000001
 43
0.0000000001
 40
0.0
 40
0.0
 40
0.0
 40
0.0
 40
1.0
 40
1.0
 40
1.0
 40
2.0
 40
2.0
 40
2.0
 40
3.0
 40
3.0
 40
3.0
 40
4.0
 40
4.0
 40
4.0
 40
4.0
 10
116.6709146843739
 20
-148.5135877449897
 30
0.0
 10
116.6709146843739
 20
-148.6145290427075
 30
0.0
 10
116.7281032694291
 20
-148.7643906963158
 30
0.0
 10
117.0137016851563
 20
-148.7643906963158
 30
0.0
 10
117.2400444585372
 20
-148.7643906963158
 30
0.0
 10
117.3351290939301
 20
-148.6451903925262
 30
0.0
 10
117.3351290939301
 20
-148.5297796937703
 30
0.0
 10
117.3351290939301
 20
-148.3061929967776
 30
0.0
 10
117.1256672884269
 20
-148.2738090992162
 30
0.0
 10
117.0092230610255
 20
-148.2738090992162
 30
0.0
 10
116.8338677008262
 20
-148.2738090992162
 30
0.0
 10
116.6709146843739
 20
-148.3547688431196
 30
0.0
 10
116.6709146843739
 20
-148.5135877449897
 30
0.0
  0
SPLINE
  5
B4
330
AF
100
AcDbEntity
  8
レイヤー 1
100
AcDbSpline
210
0.0
220
0.0
230
1.0
 70
     9
 71
     3
 72
    32
 73
    28
 74
     0
 42
0.0000000001
 43
0.0000000001
 40
0.0
 40
0.0
 40
0.0
 40
0.0
 40
1.0
 40
1.0
 40
1.0
 40
2.0
 40
2.0
 40
2.0
 40
3.0
 40
3.0
 40
3.0
 40
4.0
 40
4.0
 40
4.0
 40
5.0
 40
5.0
 40
5.0
 40
6.0
 40
6.0
 40
6.0
 40
7.0
 40
7.0
 40
7.0
 40
8.0
 40
8.0
 40
8.0
 40
9.0
 40
9.0
 40
9.0
 40
9.0
 10
118.1219889027611
 20
-148.5480386998421
 30
0.0
 10
118.1219889027611
 20
-148.6958332961594
 30
0.0
 10
118.0523979739591
 20
-148.904950592114
 30
0.0
 10
117.720290769181
 20
-148.9373344896754
 30
0.0
 10
117.720290769181
 20
-148.9373344896754
 30
0.0
 10
117.720290769181
 20
-148.7550889385057
 30
0.0
 10
117.720290769181
 20
-148.7550889385057
 30
0.0
 10
117.7795464115273
 20
-148.746131690244
 30
0.0
 10
117.9273410078445
 20
-148.719259945459
 30
0.0
 10
117.9273410078445
 20
-148.545971642551
 30
0.0
 10
117.9273410078445
 20
-148.297235748516
 30
0.0
 10
117.5973008603576
 20
-148.2648518509546
 30
0.0
 10
117.3923176789852
 20
-148.2538275454018
 30
0.0
 10
117.4725884037916
 20
-148.3313421938199
 30
0.0
 10
117.5297769888467
 20
-148.3892197979721
 30
0.0
 10
117.5297769888467
 20
-148.5442490948084
 30
0.0
 10
117.5297769888467
 20
-148.697555843902
 30
0.0
 10
117.4240125574495
 20
-148.9555934957472
 30
0.0
 10
117.0178357997386
 20
-148.9555934957472
 30
0.0
 10
116.6984754482559
 20
-148.9555934957472
 30
0.0
 10
116.4783338467485
 20
-148.7857502883244
 30
0.0
 10
116.4783338467485
 20
-148.5153102927323
 30
0.0
 10
116.4783338467485
 20
-148.0770941470085
 30
0.0
 10
117.0326497103252
 20
-148.0681368987468
 30
0.0
 10
117.2462456304106
 20
-148.0681368987468
 30
0.0
 10
117.4767225183739
 20
-148.0681368987468
 30
0.0
 10
118.1219889027611
 20
-148.0843288475275
 30
0.0
 10
118.1219889027611
 20
-148.5480386998421
 30
0.0
  0
HATCH
  5
B5
330
AF
100
AcDbEntity
  8
レイヤー 1
 62
   250
420
  2299925
440
 33554687
100
AcDbHatch
 10
0.0
 20
0.0
 30
0.0
210
0.0
220
0.0
230
1.0
  2
SOLID
 70
     1
 71
     1
 91
        2
 92
        1
 93
        1
 72
     4
 94
        3
 73
     0
 74
     0
 95
       17
 96
       13
 40
0.0
 40
0.0
 40
0.0
 40
0.0
 40
1.0
 40
1.0
 40
1.0
 40
2.0
 40
2.0
 40
2.0
 40
3.0
 40
3.0
 40
3.0
 40
4.0
 40
4.0
 40
4.0
 40
4.0
 10
116.6709146843739
 20
-148.5135877449897
 10
116.6709146843739
 20
-148.6145290427075
 10
116.7281032694291
 20
-148.7643906963158
 10
117.0137016851563
 20
-148.7643906963158
 10
117.2400444585372
 20
-148.7643906963158
 10
117.3351290939301
 20
-148.6451903925262
 10
117.3351290939301
 20
-148.5297796937703
 10
117.3351290939301
 20
-148.3061929967776
 10
117.1256672884269
 20
-148.2738090992162
 10
117.0092230610255
 20
-148.2738090992162
 10
116.8338677008262
 20
-148.2738090992162
 10
116.6709146843739
 20
-148.3547688431196
 10
116.6709146843739
 20
-148.5135877449897
 97
        0
 97
        1
330
B3
 92
        1
 93
        1
 72
     4
 94
        3
 73
     0
 74
     0
 95
       32
 96
       28
 40
0.0
 40
0.0
 40
0.0
 40
0.0
 40
1.0
 40
1.0
 40
1.0
 40
2.0
 40
2.0
 40
2.0
 40
3.0
 40
3.0
 40
3.0
 40
4.0
 40
4.0
 40
4.0
 40
5.0
 40
5.0
 40
5.0
 40
6.0
 40
6.0
 40
6.0
 40
7.0
 40
7.0
 40
7.0
 40
8.0
 40
8.0
 40
8.0
 40
9.0
 40
9.0
 40
9.0
 40
9.0
 10
118.1219889027611
 20
-148.5480386998421
 10
118.1219889027611
 20
-148.6958332961594
 10
118.0523979739591
 20
-148.904950592114
 10
117.720290769181
 20
-148.9373344896754
 10
117.720290769181
 20
-148.9373344896754
 10
117.720290769181
 20
-148.7550889385057
 10
117.720290769181
 20
-148.7550889385057
 10
117.7795464115273
 20
-148.746131690244
 10
117.9273410078445
 20
-148.719259945459
 10
117.9273410078445
 20
-148.545971642551
 10
117.9273410078445
 20
-148.297235748516
 10
117.5973008603576
 20
-148.2648518509546
 10
117.3923176789852
 20
-148.2538275454018
 10
117.4725884037916
 20
-148.3313421938199
 10
117.5297769888467
 20
-148.3892197979721
 10
117.5297769888467
 20
-148.5442490948084
 10
117.5297769888467
 20
-148.697555843902
 10
117.4240125574495
 20
-148.9555934957472
 10
117.0178357997386
 20
-148.9555934957472
 10
116.6984754482559
 20
-148.9555934957472
 10
116.4783338467485
 20
-148.7857502883244
 10
116.4783338467485
 20
-148.5153102927323
 10
116.4783338467485
 20
-148.0770941470085
 10
117.0326497103252
 20
-148.0681368987468
 10
117.2462456304106
 20
-148.0681368987468
 10
117.4767225183739
 20
-148.0681368987468
 10
118.1219889027611
 20
-148.0843288475275
 10
118.1219889027611
 20
-148.5480386998421
 97
        0
 97
        1
330
B4
 75
     2
 76
     1
 98
        1
 10
0.0
 20
0.0
450
        0
451
        0
460
0.0
461
0.0
452
        0
462
0.0
453
        0
470

  0
SPLINE
  5
B6
330
AF
100
AcDbEntity
  8
レイヤー 1
100
AcDbSpline
210
0.0
220
0.0
230
1.0
 70
    11
 71
     3
 72
    17
 73
    13
 74
     0
 42
0.0000000001
 43
0.0000000001
 40
0.0
 40
0.0
 40
0.0
 40
0.0
 40
1.0
 40
1.0
 40
1.0
 40
2.0
 40
2.0
 40
2.0
 40
3.0
 40
3.0
 40
3.0
 40
4.0
 40
4.0
 40
4.0
 40
4.0
 10
118.071345999128
 20
-147.8852023284801
 30
0.0
 10
118.071345999128
 20
-147.8852023284801
 30
0.0
 10
117.8195095191562
 20
-147.8852023284801
 30
0.0
 10
117.8195095191562
 20
-147.8852023284801
 30
0.0
 10
117.8195095191562
 20
-147.8852023284801
 30
0.0
 10
117.8195095191562
 20
-147.670572879749
 30
0.0
 10
117.8195095191562
 20
-147.670572879749
 30
0.0
 10
117.8195095191562
 20
-147.670572879749
 30
0.0
 10
118.071345999128
 20
-147.670572879749
 30
0.0
 10
118.071345999128
 20
-147.670572879749
 30
0.0
 10
118.071345999128
 20
-147.670572879749
 30
0.0
 10
118.071345999128
 20
-147.8852023284801
 30
0.0
 10
118.071345999128
 20
-147.8852023284801
 30
0.0
  0
HATCH
  5
B7
330
AF
100
AcDbEntity
  8
レイヤー 1
 62
   250
420
  2299925
440
 33554687
100
AcDbHatch
 10
0.0
 20
0.0
 30
0.0
210
0.0
220
0.0
230
1.0
  2
SOLID
 70
     1
 71
     1
 91
        1
 92
        1
 93
        1
 72
     4
 94
        3
 73
     0
 74
     0
 95
       17
 96
       13
 40
0.0
 40
0.0
 40
0.0
 40
0.0
 40
1.0
 40
1.0
 40
1.0
 40
2.0
 40
2.0
 40
2.0
 40
3.0
 40
3.0
 40
3.0
 40
4.0
 40
4.0
 40
4.0
 40
4.0
 10
118.071345999128
 20
-147.8852023284801
 10
118.071345999128
 20
-147.8852023284801
 10
117.8195095191562
 20
-147.8852023284801
 10
117.8195095191562
 20
-147.8852023284801
 10
117.8195095191562
 20
-147.8852023284801
 10
117.8195095191562
 20
-147.670572879749
 10
117.8195095191562
 20
-147.670572879749
 10
117.8195095191562
 20
-147.670572879749
 10
118.071345999128
 20
-147.670572879749
 10
118.071345999128
 20
-147.670572879749
 10
118.071345999128
 20
-147.670572879749
 10
118.071345999128
 20
-147.8852023284801
 10
118.071345999128
 20
-147.8852023284801
 97
        0
 97
        1
330
B6
 75
     2
 76
     1
 98
        1
 10
0.0
 20
0.0
450
        0
451
        0
460
0.0
461
0.0
452
        0
462
0.0
453
        0
470

  0
SPLINE
  5
B8
330
AF
100
AcDbEntity
  8
レイヤー 1
100
AcDbSpline
210
0.0
220
0.0
230
1.0
 70
     9
 71
     3
 72
    53
 73
    49
 74
     0
 42
0.0000000001
 43
0.0000000001
 40
0.0
 40
0.0
 40
0.0
 40
0.0
 40
1.0
 40
1.0
 40
1.0
 40
2.0
 40
2.0
 40
2.0
 40
3.0
 40
3.0
 40
3.0
 40
4.0
 40
4.0
 40
4.0
 40
5.0
 40
5.0
 40
5.0
 40
6.0
 40
6.0
 40
6.0
 40
7.0
 40
7.0
 40
7.0
 40
8.0
 40
8.0
 40
8.0
 40
9.0
 40
9.0
 40
9.0
 40
10.0
 40
10.0
 40
10.0
 40
11.0
 40
11.0
 40
11.0
 40
12.0
 40
12.0
 40
12.0
 40
13.0
 40
13.0
 40
13.0
 40
14.0
 40
14.0
 40
14.0
 40
15.0
 40
15.0
 40
15.0
 40
16.0
 40
16.0
 40
16.0
 40
16.0
 10
118.1219889027611
 20
-147.0594129406657
 30
0.0
 10
118.1219889027611
 20
-147.1262477930795
 30
0.0
 10
118.1051079348834
 20
-147.2127196897593
 30
0.0
 10
118.0417181779548
 20
-147.2991915864391
 30
0.0
 10
117.9318196319754
 20
-147.4469861827563
 30
0.0
 10
117.8005614939873
 20
-147.4652451888281
 30
0.0
 10
117.692730005299
 20
-147.4814371376088
 30
0.0
 10
117.692730005299
 20
-147.4814371376088
 30
0.0
 10
117.692730005299
 20
-147.2919568859201
 30
0.0
 10
117.692730005299
 20
-147.2919568859201
 30
0.0
 10
117.8915120147979
 20
-147.2451035873207
 30
0.0
 10
117.9211398359711
 20
-147.1369275890838
 30
0.0
 10
117.9211398359711
 20
-147.0576903929231
 30
0.0
 10
117.9211398359711
 20
-146.9384900891334
 30
0.0
 10
117.8215765764474
 20
-146.8086099893395
 30
0.0
 10
117.589032631193
 20
-146.8086099893395
 30
0.0
 10
117.3330620366389
 20
-146.8086099893395
 30
0.0
 10
117.2631265982884
 20
-146.9619167384331
 30
0.0
 10
117.2631265982884
 20
-147.0649250934421
 30
0.0
 10
117.2631265982884
 20
-147.091796838227
 30
0.0
 10
117.2631265982884
 20
-147.2127196897593
 30
0.0
 10
117.3923176789852
 20
-147.2885117904348
 30
0.0
 10
117.3923176789852
 20
-147.2885117904348
 30
0.0
 10
117.3733696538164
 20
-147.4380289344946
 30
0.0
 10
117.3733696538164
 20
-147.4380289344946
 30
0.0
 10
117.3733696538164
 20
-147.4380289344946
 30
0.0
 10
116.5269096930905
 20
-147.3353650890342
 30
0.0
 10
116.5269096930905
 20
-147.3353650890342
 30
0.0
 10
116.5269096930905
 20
-147.3353650890342
 30
0.0
 10
116.5269096930905
 20
-146.6718396985751
 30
0.0
 10
116.5269096930905
 20
-146.6718396985751
 30
0.0
 10
116.5269096930905
 20
-146.6718396985751
 30
0.0
 10
116.7215575880071
 20
-146.6718396985751
 30
0.0
 10
116.7215575880071
 20
-146.6718396985751
 30
0.0
 10
116.7215575880071
 20
-146.6718396985751
 30
0.0
 10
116.7215575880071
 20
-147.1965277409786
 30
0.0
 10
116.7215575880071
 20
-147.1965277409786
 30
0.0
 10
116.7215575880071
 20
-147.1965277409786
 30
0.0
 10
117.1446153135958
 20
-147.2523382878397
 30
0.0
 10
117.1446153135958
 20
-147.2523382878397
 30
0.0
 10
117.1108533778403
 20
-147.1999728364639
 30
0.0
 10
117.0705457606629
 20
-147.1296928885648
 30
0.0
 10
117.0705457606629
 20
-147.028751590847
 30
0.0
 10
117.0705457606629
 20
-146.8123995943733
 30
0.0
 10
117.2569254264149
 20
-146.6105169989377
 30
0.0
 10
117.5700846060241
 20
-146.6105169989377
 30
0.0
 10
117.8873779002156
 20
-146.6105169989377
 30
0.0
 10
118.1219889027611
 20
-146.8013752888205
 30
0.0
 10
118.1219889027611
 20
-147.0594129406657
 30
0.0
  0
HATCH
  5
B9
330
AF
100
AcDbEntity
  8
レイヤー 1
 62
   250
420
  2299925
440
 33554687
100
AcDbHatch
 10
0.0
 20
0.0
 30
0.0
210
0.0
220
0.0
230
1.0
  2
SOLID
 70
     1
 71
     1
 91
        1
 92
        1
 93
        1
 72
     4
 94
        3
 73
     0
 74
     0
 95
       53
 96
       49
 40
0.0
 40
0.0
 40
0.0
 40
0.0
 40
1.0
 40
1.0
 40
1.0
 40
2.0
 40
2.0
 40
2.0
 40
3.0
 40
3.0
 40
3.0
 40
4.0
 40
4.0
 40
4.0
 40
5.0
 40
5.0
 40
5.0
 40
6.0
 40
6.0
 40
6.0
 40
7.0
 40
7.0
 40
7.0
 40
8.0
 40
8.0
 40
8.0
 40
9.0
 40
9.0
 40
9.0
 40
10.0
 40
10.0
 40
10.0
 40
11.0
 40
11.0
 40
11.0
 40
12.0
 40
12.0
 40
12.0
 40
13.0
 40
13.0
 40
13.0
 40
14.0
 40
14.0
 40
14.0
 40
15.0
 40
15.0
 40
15.0
 40
16.0
 40
16.0
 40
16.0
 40
16.0
 10
118.1219889027611
 20
-147.0594129406657
 10
118.1219889027611
 20
-147.1262477930795
 10
118.1051079348834
 20
-147.2127196897593
 10
118.0417181779548
 20
-147.2991915864391
 10
117.9318196319754
 20
-147.4469861827563
 10
117.8005614939873
 20
-147.4652451888281
 10
117.692730005299
 20
-147.4814371376088
 10
117.692730005299
 20
-147.4814371376088
 10
117.692730005299
 20
-147.2919568859201
 10
117.692730005299
 20
-147.2919568859201
 10
117.8915120147979
 20
-147.2451035873207
 10
117.9211398359711
 20
-147.1369275890838
 10
117.9211398359711
 20
-147.0576903929231
 10
117.9211398359711
 20
-146.9384900891334
 10
117.8215765764474
 20
-146.8086099893395
 10
117.589032631193
 20
-146.8086099893395
 10
117.3330620366389
 20
-146.8086099893395
 10
117.2631265982884
 20
-146.9619167384331
 10
117.2631265982884
 20
-147.0649250934421
 10
117.2631265982884
 20
-147.091796838227
 10
117.2631265982884
 20
-147.2127196897593
 10
117.3923176789852
 20
-147.2885117904348
 10
117.3923176789852
 20
-147.2885117904348
 10
117.3733696538164
 20
-147.4380289344946
 10
117.3733696538164
 20
-147.4380289344946
 10
117.3733696538164
 20
-147.4380289344946
 10
116.5269096930905
 20
-147.3353650890342
 10
116.5269096930905
 20
-147.3353650890342
 10
116.5269096930905
 20
-147.3353650890342
 10
116.5269096930905
 20
-146.6718396985751
 10
116.5269096930905
 20
-146.6718396985751
 10
116.5269096930905
 20
-146.6718396985751
 10
116.7215575880071
 20
-146.6718396985751
 10
116.7215575880071
 20
-146.6718396985751
 10
116.7215575880071
 20
-146.6718396985751
 10
116.7215575880071
 20
-147.1965277409786
 10
116.7215575880071
 20
-147.1965277409786
 10
116.7215575880071
 20
-147.1965277409786
 10
117.1446153135958
 20
-147.2523382878397
 10
117.1446153135958
 20
-147.2523382878397
 10
117.1108533778403
 20
-147.1999728364639
 10
117.0705457606629
 20
-147.1296928885648
 10
117.0705457606629
 20
-147.028751590847
 10
117.0705457606629
 20
-146.8123995943733
 10
117.2569254264149
 20
-146.6105169989377
 10
117.5700846060241
 20
-146.6105169989377
 10
117.8873779002156
 20
-146.6105169989377
 10
118.1219889027611
 20
-146.8013752888205
 10
118.1219889027611
 20
-147.0594129406657
 97
        0
 97
        1
330
B8
 75
     2
 76
     1
 98
        1
 10
0.0
 20
0.0
450
        0
451
        0
460
0.0
461
0.0
452
        0
462
0.0
453
        0
470

  0
ENDBLK
  5
B2
330
AF
100
AcDbEntity
  8
0
100
AcDbBlockEnd
  0
BLOCK
  5
C0
330
BE
100
AcDbEntity
  8
0
100
AcDbBlockBegin
  2
Block_7
 70
     0
 10
0.0
 20
0.0
 30
0.0
  3
Block_7
  1

  0
INSERT
  5
C3
330
BE
100
AcDbEntity
  8
レイヤー 1
100
AcDbBlockReference
  2
Block_8
 10
0.0
 20
0.0
 30
0.0
  0
ENDBLK
  5
C1
330
BE
100
AcDbEntity
  8
0
100
AcDbBlockEnd
  0
BLOCK
  5
C4
330
C2
100
AcDbEntity
  8
0
100
AcDbBlockBegin
  2
Block_8
 70
     0
 10
0.0
 20
0.0
 30
0.0
  3
Block_8
  1

  0
SPLINE
  5
C6
330
C2
100
AcDbEntity
  8
レイヤー 1
100
AcDbSpline
210
0.0
220
0.0
230
1.0
 70
     9
 71
     3
 72
    17
 73
    13
 74
     0
 42
0.0000000001
 43
0.0000000001
 40
0.0
 40
0.0
 40
0.0
 40
0.0
 40
1.0
 40
1.0
 40
1.0
 40
2.0
 40
2.0
 40
2.0
 40
3.0
 40
3.0
 40
3.0
 40
4.0
 40
4.0
 40
4.0
 40
4.0
 10
120.9045925261974
 20
-153.6033718148978
 30
0.0
 10
120.9045925261974
 20
-153.8159342063377
 30
0.0
 10
121.1881238846335
 20
-153.8558973139666
 30
0.0
 10
121.532977942707
 20
-153.8558973139666
 30
0.0
 10
121.8523382941897
 20
-153.8558973139666
 30
0.0
 10
122.1610188496681
 20
-153.8252359641478
 30
0.0
 10
122.1610188496681
 20
-153.6033718148978
 30
0.0
 10
122.1610188496681
 20
-153.3921874616519
 30
0.0
 10
121.8798990580717
 20
-153.3508463158289
 30
0.0
 10
121.532977942707
 20
-153.3508463158289
 30
0.0
 10
121.2132730816758
 20
-153.3508463158289
 30
0.0
 10
120.9045925261974
 20
-153.3832302133903
 30
0.0
 10
120.9045925261974
 20
-153.6033718148978
 30
0.0
  0
SPLINE
  5
C7
330
C2
100
AcDbEntity
  8
レイヤー 1
100
AcDbSpline
210
0.0
220
0.0
230
1.0
 70
     9
 71
     3
 72
    29
 73
    25
 74
     0
 42
0.0000000001
 43
0.0000000001
 40
0.0
 40
0.0
 40
0.0
 40
0.0
 40
1.0
 40
1.0
 40
1.0
 40
2.0
 40
2.0
 40
2.0
 40
3.0
 40
3.0
 40
3.0
 40
4.0
 40
4.0
 40
4.0
 40
5.0
 40
5.0
 40
5.0
 40
6.0
 40
6.0
 40
6.0
 40
7.0
 40
7.0
 40
7.0
 40
8.0
 40
8.0
 40
8.0
 40
8.0
 10
122.1272569139126
 20
-153.2643744191492
 30
0.0
 10
122.3367187194158
 20
-153.3563584686053
 30
0.0
 10
122.3556667445847
 20
-153.5041530649225
 30
0.0
 10
122.3556667445847
 20
-153.6033718148978
 30
0.0
 10
122.3556667445847
 20
-153.7404866152107
 30
0.0
 10
122.3091579555338
 20
-153.8610649571944
 30
0.0
 10
122.1272569139126
 20
-153.9423692106463
 30
0.0
 10
121.932609018996
 20
-154.0305636550687
 30
0.0
 10
121.6955864496108
 20
-154.0467556038494
 30
0.0
 10
121.532977942707
 20
-154.0467556038494
 30
0.0
 10
121.3889729514236
 20
-154.0467556038494
 30
0.0
 10
121.1371364714518
 20
-154.0326307123599
 30
0.0
 10
120.9383544619529
 20
-153.9423692106463
 30
0.0
 10
120.7354383378717
 20
-153.8503851611902
 30
0.0
 10
120.712011688572
 20
-153.7132703608772
 30
0.0
 10
120.712011688572
 20
-153.6033718148978
 30
0.0
 10
120.712011688572
 20
-153.4679795623274
 30
0.0
 10
120.7564534203317
 20
-153.3453341630526
 30
0.0
 10
120.9383544619529
 20
-153.2643744191492
 30
0.0
 10
121.1309352995784
 20
-153.179625070212
 30
0.0
 10
121.3593451302504
 20
-153.1596435163976
 30
0.0
 10
121.532977942707
 20
-153.1596435163976
 30
0.0
 10
121.7041991883239
 20
-153.1596435163976
 30
0.0
 10
121.9346760762872
 20
-153.1779025224694
 30
0.0
 10
122.1272569139126
 20
-153.2643744191492
 30
0.0
  0
HATCH
  5
C8
330
C2
100
AcDbEntity
  8
レイヤー 1
 62
   250
420
  2299925
440
 33554687
100
AcDbHatch
 10
0.0
 20
0.0
 30
0.0
210
0.0
220
0.0
230
1.0
  2
SOLID
 70
     1
 71
     1
 91
        2
 92
        1
 93
        1
 72
     4
 94
        3
 73
     0
 74
     0
 95
       17
 96
       13
 40
0.0
 40
0.0
 40
0.0
 40
0.0
 40
1.0
 40
1.0
 40
1.0
 40
2.0
 40
2.0
 40
2.0
 40
3.0
 40
3.0
 40
3.0
 40
4.0
 40
4.0
 40
4.0
 40
4.0
 10
120.9045925261974
 20
-153.6033718148978
 10
120.9045925261974
 20
-153.8159342063377
 10
121.1881238846335
 20
-153.8558973139666
 10
121.532977942707
 20
-153.8558973139666
 10
121.8523382941897
 20
-153.8558973139666
 10
122.1610188496681
 20
-153.8252359641478
 10
122.1610188496681
 20
-153.6033718148978
 10
122.1610188496681
 20
-153.3921874616519
 10
121.8798990580717
 20
-153.3508463158289
 10
121.532977942707
 20
-153.3508463158289
 10
121.2132730816758
 20
-153.3508463158289
 10
120.9045925261974
 20
-153.3832302133903
 10
120.9045925261974
 20
-153.6033718148978
 97
        0
 97
        1
330
C6
 92
        1
 93
        1
 72
     4
 94
        3
 73
     0
 74
     0
 95
       29
 96
       25
 40
0.0
 40
0.0
 40
0.0
 40
0.0
 40
1.0
 40
1.0
 40
1.0
 40
2.0
 40
2.0
 40
2.0
 40
3.0
 40
3.0
 40
3.0
 40
4.0
 40
4.0
 40
4.0
 40
5.0
 40
5.0
 40
5.0
 40
6.0
 40
6.0
 40
6.0
 40
7.0
 40
7.0
 40
7.0
 40
8.0
 40
8.0
 40
8.0
 40
8.0
 10
122.1272569139126
 20
-153.2643744191492
 10
122.3367187194158
 20
-153.3563584686053
 10
122.3556667445847
 20
-153.5041530649225
 10
122.3556667445847
 20
-153.6033718148978
 10
122.3556667445847
 20
-153.7404866152107
 10
122.3091579555338
 20
-153.8610649571944
 10
122.1272569139126
 20
-153.9423692106463
 10
121.932609018996
 20
-154.0305636550687
 10
121.6955864496108
 20
-154.0467556038494
 10
121.532977942707
 20
-154.0467556038494
 10
121.3889729514236
 20
-154.0467556038494
 10
121.1371364714518
 20
-154.0326307123599
 10
120.9383544619529
 20
-153.9423692106463
 10
120.7354383378717
 20
-153.8503851611902
 10
120.712011688572
 20
-153.7132703608772
 10
120.712011688572
 20
-153.6033718148978
 10
120.712011688572
 20
-153.4679795623274
 10
120.7564534203317
 20
-153.3453341630526
 10
120.9383544619529
 20
-153.2643744191492
 10
121.1309352995784
 20
-153.179625070212
 10
121.3593451302504
 20
-153.1596435163976
 10
121.532977942707
 20
-153.1596435163976
 10
121.7041991883239
 20
-153.1596435163976
 10
121.9346760762872
 20
-153.1779025224694
 10
122.1272569139126
 20
-153.2643744191492
 97
        0
 97
        1
330
C7
 75
     2
 76
     1
 98
        1
 10
0.0
 20
0.0
450
        0
451
        0
460
0.0
461
0.0
452
        0
462
0.0
453
        0
470

  0
SPLINE
  5
C9
330
C2
100
AcDbEntity
  8
レイヤー 1
100
AcDbSpline
210
0.0
220
0.0
230
1.0
 70
    11
 71
     3
 72
    17
 73
    13
 74
     0
 42
0.0000000001
 43
0.0000000001
 40
0.0
 40
0.0
 40
0.0
 40
0.0
 40
1.0
 40
1.0
 40
1.0
 40
2.0
 40
2.0
 40
2.0
 40
3.0
 40
3.0
 40
3.0
 40
4.0
 40
4.0
 40
4.0
 40
4.0
 10
122.3050238409515
 20
-152.9767089461308
 30
0.0
 10
122.3050238409515
 20
-152.9767089461308
 30
0.0
 10
122.0531873609797
 20
-152.9767089461308
 30
0.0
 10
122.0531873609797
 20
-152.9767089461308
 30
0.0
 10
122.0531873609797
 20
-152.9767089461308
 30
0.0
 10
122.0531873609797
 20
-152.7620794973997
 30
0.0
 10
122.0531873609797
 20
-152.7620794973997
 30
0.0
 10
122.0531873609797
 20
-152.7620794973997
 30
0.0
 10
122.3050238409515
 20
-152.7620794973997
 30
0.0
 10
122.3050238409515
 20
-152.7620794973997
 30
0.0
 10
122.3050238409515
 20
-152.7620794973997
 30
0.0
 10
122.3050238409515
 20
-152.9767089461308
 30
0.0
 10
122.3050238409515
 20
-152.9767089461308
 30
0.0
  0
HATCH
  5
CA
330
C2
100
AcDbEntity
  8
レイヤー 1
 62
   250
420
  2299925
440
 33554687
100
AcDbHatch
 10
0.0
 20
0.0
 30
0.0
210
0.0
220
0.0
230
1.0
  2
SOLID
 70
     1
 71
     1
 91
        1
 92
        1
 93
        1
 72
     4
 94
        3
 73
     0
 74
     0
 95
       17
 96
       13
 40
0.0
 40
0.0
 40
0.0
 40
0.0
 40
1.0
 40
1.0
 40
1.0
 40
2.0
 40
2.0
 40
2.0
 40
3.0
 40
3.0
 40
3.0
 40
4.0
 40
4.0
 40
4.0
 40
4.0
 10
122.3050238409515
 20
-152.9767089461308
 10
122.3050238409515
 20
-152.9767089461308
 10
122.0531873609797
 20
-152.9767089461308
 10
122.0531873609797
 20
-152.9767089461308
 10
122.0531873609797
 20
-152.9767089461308
 10
122.0531873609797
 20
-152.7620794973997
 10
122.0531873609797
 20
-152.7620794973997
 10
122.0531873609797
 20
-152.7620794973997
 10
122.3050238409515
 20
-152.7620794973997
 10
122.3050238409515
 20
-152.7620794973997
 10
122.3050238409515
 20
-152.7620794973997
 10
122.3050238409515
 20
-152.9767089461308
 10
122.3050238409515
 20
-152.9767089461308
 97
        0
 97
        1
330
C9
 75
     2
 76
     1
 98
        1
 10
0.0
 20
0.0
450
        0
451
        0
460
0.0
461
0.0
452
        0
462
0.0
453
        0
470

  0
SPLINE
  5
CB
330
C2
100
AcDbEntity
  8
レイヤー 1
100
AcDbSpline
210
0.0
220
0.0
230
1.0
 70
    11
 71
     3
 72
    14
 73
    10
 74
     0
 42
0.0000000001
 43
0.0000000001
 40
0.0
 40
0.0
 40
0.0
 40
0.0
 40
1.0
 40
1.0
 40
1.0
 40
2.0
 40
2.0
 40
2.0
 40
3.0
 40
3.0
 40
3.0
 40
3.0
 10
121.1033745356964
 20
-152.0372314073032
 30
0.0
 10
121.1033745356964
 20
-152.0372314073032
 30
0.0
 10
121.7593207160879
 20
-152.4268717066849
 30
0.0
 10
121.7593207160879
 20
-152.4268717066849
 30
0.0
 10
121.7593207160879
 20
-152.4268717066849
 30
0.0
 10
121.7593207160879
 20
-152.0372314073032
 30
0.0
 10
121.7593207160879
 20
-152.0372314073032
 30
0.0
 10
121.7593207160879
 20
-152.0372314073032
 30
0.0
 10
121.1033745356964
 20
-152.0372314073032
 30
0.0
 10
121.1033745356964
 20
-152.0372314073032
 30
0.0
  0
SPLINE
  5
CC
330
C2
100
AcDbEntity
  8
レイヤー 1
100
AcDbSpline
210
0.0
220
0.0
230
1.0
 70
    11
 71
     3
 72
    38
 73
    34
 74
     0
 42
0.0000000001
 43
0.0000000001
 40
0.0
 40
0.0
 40
0.0
 40
0.0
 40
1.0
 40
1.0
 40
1.0
 40
2.0
 40
2.0
 40
2.0
 40
3.0
 40
3.0
 40
3.0
 40
4.0
 40
4.0
 40
4.0
 40
5.0
 40
5.0
 40
5.0
 40
6.0
 40
6.0
 40
6.0
 40
7.0
 40
7.0
 40
7.0
 40
8.0
 40
8.0
 40
8.0
 40
9.0
 40
9.0
 40
9.0
 40
10.0
 40
10.0
 40
10.0
 40
11.0
 40
11.0
 40
11.0
 40
11.0
 10
121.9581027255868
 20
-151.8515407606482
 30
0.0
 10
121.9581027255868
 20
-151.8515407606482
 30
0.0
 10
122.3050238409515
 20
-151.8515407606482
 30
0.0
 10
122.3050238409515
 20
-151.8515407606482
 30
0.0
 10
122.3050238409515
 20
-151.8515407606482
 30
0.0
 10
122.3050238409515
 20
-152.0372314073032
 30
0.0
 10
122.3050238409515
 20
-152.0372314073032
 30
0.0
 10
122.3050238409515
 20
-152.0372314073032
 30
0.0
 10
121.9581027255868
 20
-152.0372314073032
 30
0.0
 10
121.9581027255868
 20
-152.0372314073032
 30
0.0
 10
121.9581027255868
 20
-152.0372314073032
 30
0.0
 10
121.9581027255868
 20
-152.5963704045592
 30
0.0
 10
121.9581027255868
 20
-152.5963704045592
 30
0.0
 10
121.9581027255868
 20
-152.5963704045592
 30
0.0
 10
121.7338270094971
 20
-152.5963704045592
 30
0.0
 10
121.7338270094971
 20
-152.5963704045592
 30
0.0
 10
121.7338270094971
 20
-152.5963704045592
 30
0.0
 10
120.760587534914
 20
-152.0175943630372
 30
0.0
 10
120.760587534914
 20
-152.0175943630372
 30
0.0
 10
120.760587534914
 20
-152.0175943630372
 30
0.0
 10
120.760587534914
 20
-151.8515407606482
 30
0.0
 10
120.760587534914
 20
-151.8515407606482
 30
0.0
 10
120.760587534914
 20
-151.8515407606482
 30
0.0
 10
121.7593207160879
 20
-151.8515407606482
 30
0.0
 10
121.7593207160879
 20
-151.8515407606482
 30
0.0
 10
121.7593207160879
 20
-151.8515407606482
 30
0.0
 10
121.7593207160879
 20
-151.6748073622549
 30
0.0
 10
121.7593207160879
 20
-151.6748073622549
 30
0.0
 10
121.7593207160879
 20
-151.6748073622549
 30
0.0
 10
121.9581027255868
 20
-151.6748073622549
 30
0.0
 10
121.9581027255868
 20
-151.6748073622549
 30
0.0
 10
121.9581027255868
 20
-151.6748073622549
 30
0.0
 10
121.9581027255868
 20
-151.8515407606482
 30
0.0
 10
121.9581027255868
 20
-151.8515407606482
 30
0.0
  0
HATCH
  5
CD
330
C2
100
AcDbEntity
  8
レイヤー 1
 62
   250
420
  2299925
440
 33554687
100
AcDbHatch
 10
0.0
 20
0.0
 30
0.0
210
0.0
220
0.0
230
1.0
  2
SOLID
 70
     1
 71
     1
 91
        2
 92
        1
 93
        1
 72
     4
 94
        3
 73
     0
 74
     0
 95
       14
 96
       10
 40
0.0
 40
0.0
 40
0.0
 40
0.0
 40
1.0
 40
1.0
 40
1.0
 40
2.0
 40
2.0
 40
2.0
 40
3.0
 40
3.0
 40
3.0
 40
3.0
 10
121.1033745356964
 20
-152.0372314073032
 10
121.1033745356964
 20
-152.0372314073032
 10
121.7593207160879
 20
-152.4268717066849
 10
121.7593207160879
 20
-152.4268717066849
 10
121.7593207160879
 20
-152.4268717066849
 10
121.7593207160879
 20
-152.0372314073032
 10
121.7593207160879
 20
-152.0372314073032
 10
121.7593207160879
 20
-152.0372314073032
 10
121.1033745356964
 20
-152.0372314073032
 10
121.1033745356964
 20
-152.0372314073032
 97
        0
 97
        1
330
CB
 92
        1
 93
        1
 72
     4
 94
        3
 73
     0
 74
     0
 95
       38
 96
       34
 40
0.0
 40
0.0
 40
0.0
 40
0.0
 40
1.0
 40
1.0
 40
1.0
 40
2.0
 40
2.0
 40
2.0
 40
3.0
 40
3.0
 40
3.0
 40
4.0
 40
4.0
 40
4.0
 40
5.0
 40
5.0
 40
5.0
 40
6.0
 40
6.0
 40
6.0
 40
7.0
 40
7.0
 40
7.0
 40
8.0
 40
8.0
 40
8.0
 40
9.0
 40
9.0
 40
9.0
 40
10.0
 40
10.0
 40
10.0
 40
11.0
 40
11.0
 40
11.0
 40
11.0
 10
121.9581027255868
 20
-151.8515407606482
 10
121.9581027255868
 20
-151.8515407606482
 10
122.3050238409515
 20
-151.8515407606482
 10
122.3050238409515
 20
-151.8515407606482
 10
122.3050238409515
 20
-151.8515407606482
 10
122.3050238409515
 20
-152.0372314073032
 10
122.3050238409515
 20
-152.0372314073032
 10
122.3050238409515
 20
-152.0372314073032
 10
121.9581027255868
 20
-152.0372314073032
 10
121.9581027255868
 20
-152.0372314073032
 10
121.9581027255868
 20
-152.0372314073032
 10
121.9581027255868
 20
-152.5963704045592
 10
121.9581027255868
 20
-152.5963704045592
 10
121.9581027255868
 20
-152.5963704045592
 10
121.7338270094971
 20
-152.5963704045592
 10
121.7338270094971
 20
-152.5963704045592
 10
121.7338270094971
 20
-152.5963704045592
 10
120.760587534914
 20
-152.0175943630372
 10
120.760587534914
 20
-152.0175943630372
 10
120.760587534914
 20
-152.0175943630372
 10
120.760587534914
 20
-151.8515407606482
 10
120.760587534914
 20
-151.8515407606482
 10
120.760587534914
 20
-151.8515407606482
 10
121.7593207160879
 20
-151.8515407606482
 10
121.7593207160879
 20
-151.8515407606482
 10
121.7593207160879
 20
-151.8515407606482
 10
121.7593207160879
 20
-151.6748073622549
 10
121.7593207160879
 20
-151.6748073622549
 10
121.7593207160879
 20
-151.6748073622549
 10
121.9581027255868
 20
-151.6748073622549
 10
121.9581027255868
 20
-151.6748073622549
 10
121.9581027255868
 20
-151.6748073622549
 10
121.9581027255868
 20
-151.8515407606482
 10
121.9581027255868
 20
-151.8515407606482
 97
        0
 97
        1
330
CC
 75
     2
 76
     1
 98
        1
 10
0.0
 20
0.0
450
        0
451
        0
460
0.0
461
0.0
452
        0
462
0.0
453
        0
470

  0
ENDBLK
  5
C5
330
C2
100
AcDbEntity
  8
0
100
AcDbBlockEnd
  0
BLOCK
  5
D4
330
D2
100
AcDbEntity
  8
0
100
AcDbBlockBegin
  2
Block_9
 70
     0
 10
0.0
 20
0.0
 30
0.0
  3
Block_9
  1

  0
INSERT
  5
D7
330
D2
100
AcDbEntity
  8
レイヤー 1
100
AcDbBlockReference
  2
Block_10
 10
0.0
 20
0.0
 30
0.0
  0
ENDBLK
  5
D5
330
D2
100
AcDbEntity
  8
0
100
AcDbBlockEnd
  0
BLOCK
  5
D8
330
D6
100
AcDbEntity
  8
0
100
AcDbBlockBegin
  2
Block_10
 70
     0
 10
0.0
 20
0.0
 30
0.0
  3
Block_10
  1

  0
SPLINE
  5
DA
330
D6
100
AcDbEntity
  8
レイヤー 1
100
AcDbSpline
210
0.0
220
0.0
230
1.0
 70
    11
 71
     3
 72
    26
 73
    22
 74
     0
 42
0.0000000001
 43
0.0000000001
 40
0.0
 40
0.0
 40
0.0
 40
0.0
 40
1.0
 40
1.0
 40
1.0
 40
2.0
 40
2.0
 40
2.0
 40
3.0
 40
3.0
 40
3.0
 40
4.0
 40
4.0
 40
4.0
 40
5.0
 40
5.0
 40
5.0
 40
6.0
 40
6.0
 40
6.0
 40
7.0
 40
7.0
 40
7.0
 40
7.0
 10
89.02195635795285
 20
-142.5308349253048
 30
0.0
 10
89.02195635795285
 20
-142.5308349253048
 30
0.0
 10
87.91780325493027
 20
-142.5308349253048
 30
0.0
 10
87.91780325493027
 20
-142.5308349253048
 30
0.0
 10
87.91780325493027
 20
-142.5308349253048
 30
0.0
 10
87.91780325493027
 20
-142.8122992264497
 30
0.0
 10
87.91780325493027
 20
-142.8122992264497
 30
0.0
 10
87.91780325493027
 20
-142.8122992264497
 30
0.0
 10
87.76966414906453
 20
-142.8122992264497
 30
0.0
 10
87.76966414906453
 20
-142.8122992264497
 30
0.0
 10
87.75485023847796
 20
-142.5291123775622
 30
0.0
 10
87.59189722202563
 20
-142.4894937794818
 30
0.0
 10
87.47752005191534
 20
-142.4643445824395
 30
0.0
 10
87.47752005191534
 20
-142.4643445824395
 30
0.0
 10
87.47752005191534
 20
-142.3396321258734
 30
0.0
 10
87.47752005191534
 20
-142.3396321258734
 30
0.0
 10
87.47752005191534
 20
-142.3396321258734
 30
0.0
 10
89.02195635795285
 20
-142.3396321258734
 30
0.0
 10
89.02195635795285
 20
-142.3396321258734
 30
0.0
 10
89.02195635795285
 20
-142.3396321258734
 30
0.0
 10
89.02195635795285
 20
-142.5308349253048
 30
0.0
 10
89.02195635795285
 20
-142.5308349253048
 30
0.0
  0
HATCH
  5
DB
330
D6
100
AcDbEntity
  8
レイヤー 1
 62
   250
420
  2299925
440
 33554687
100
AcDbHatch
 10
0.0
 20
0.0
 30
0.0
210
0.0
220
0.0
230
1.0
  2
SOLID
 70
     1
 71
     1
 91
        1
 92
        1
 93
        1
 72
     4
 94
        3
 73
     0
 74
     0
 95
       26
 96
       22
 40
0.0
 40
0.0
 40
0.0
 40
0.0
 40
1.0
 40
1.0
 40
1.0
 40
2.0
 40
2.0
 40
2.0
 40
3.0
 40
3.0
 40
3.0
 40
4.0
 40
4.0
 40
4.0
 40
5.0
 40
5.0
 40
5.0
 40
6.0
 40
6.0
 40
6.0
 40
7.0
 40
7.0
 40
7.0
 40
7.0
 10
89.02195635795285
 20
-142.5308349253048
 10
89.02195635795285
 20
-142.5308349253048
 10
87.91780325493027
 20
-142.5308349253048
 10
87.91780325493027
 20
-142.5308349253048
 10
87.91780325493027
 20
-142.5308349253048
 10
87.91780325493027
 20
-142.8122992264497
 10
87.91780325493027
 20
-142.8122992264497
 10
87.91780325493027
 20
-142.8122992264497
 10
87.76966414906453
 20
-142.8122992264497
 10
87.76966414906453
 20
-142.8122992264497
 10
87.75485023847796
 20
-142.5291123775622
 10
87.59189722202563
 20
-142.4894937794818
 10
87.47752005191534
 20
-142.4643445824395
 10
87.47752005191534
 20
-142.4643445824395
 10
87.47752005191534
 20
-142.3396321258734
 10
87.47752005191534
 20
-142.3396321258734
 10
87.47752005191534
 20
-142.3396321258734
 10
89.02195635795285
 20
-142.3396321258734
 10
89.02195635795285
 20
-142.3396321258734
 10
89.02195635795285
 20
-142.3396321258734
 10
89.02195635795285
 20
-142.5308349253048
 10
89.02195635795285
 20
-142.5308349253048
 97
        0
 97
        1
330
DA
 75
     2
 76
     1
 98
        1
 10
0.0
 20
0.0
450
        0
451
        0
460
0.0
461
0.0
452
        0
462
0.0
453
        0
470

  0
SPLINE
  5
DC
330
D6
100
AcDbEntity
  8
レイヤー 1
100
AcDbSpline
210
0.0
220
0.0
230
1.0
 70
    11
 71
     3
 72
    17
 73
    13
 74
     0
 42
0.0000000001
 43
0.0000000001
 40
0.0
 40
0.0
 40
0.0
 40
0.0
 40
1.0
 40
1.0
 40
1.0
 40
2.0
 40
2.0
 40
2.0
 40
3.0
 40
3.0
 40
3.0
 40
4.0
 40
4.0
 40
4.0
 40
4.0
 10
89.02195635795285
 20
-141.8628309107148
 30
0.0
 10
89.02195635795285
 20
-141.8628309107148
 30
0.0
 10
88.77011987798109
 20
-141.8628309107148
 30
0.0
 10
88.77011987798109
 20
-141.8628309107148
 30
0.0
 10
88.77011987798109
 20
-141.8628309107148
 30
0.0
 10
88.77011987798109
 20
-141.6482014619838
 30
0.0
 10
88.77011987798109
 20
-141.6482014619838
 30
0.0
 10
88.77011987798109
 20
-141.6482014619838
 30
0.0
 10
89.02195635795285
 20
-141.6482014619838
 30
0.0
 10
89.02195635795285
 20
-141.6482014619838
 30
0.0
 10
89.02195635795285
 20
-141.6482014619838
 30
0.0
 10
89.02195635795285
 20
-141.8628309107148
 30
0.0
 10
89.02195635795285
 20
-141.8628309107148
 30
0.0
  0
HATCH
  5
DD
330
D6
100
AcDbEntity
  8
レイヤー 1
 62
   250
420
  2299925
440
 33554687
100
AcDbHatch
 10
0.0
 20
0.0
 30
0.0
210
0.0
220
0.0
230
1.0
  2
SOLID
 70
     1
 71
     1
 91
        1
 92
        1
 93
        1
 72
     4
 94
        3
 73
     0
 74
     0
 95
       17
 96
       13
 40
0.0
 40
0.0
 40
0.0
 40
0.0
 40
1.0
 40
1.0
 40
1.0
 40
2.0
 40
2.0
 40
2.0
 40
3.0
 40
3.0
 40
3.0
 40
4.0
 40
4.0
 40
4.0
 40
4.0
 10
89.02195635795285
 20
-141.8628309107148
 10
89.02195635795285
 20
-141.8628309107148
 10
88.77011987798109
 20
-141.8628309107148
 10
88.77011987798109
 20
-141.8628309107148
 10
88.77011987798109
 20
-141.8628309107148
 10
88.77011987798109
 20
-141.6482014619838
 10
88.77011987798109
 20
-141.6482014619838
 10
88.77011987798109
 20
-141.6482014619838
 10
89.02195635795285
 20
-141.6482014619838
 10
89.02195635795285
 20
-141.6482014619838
 10
89.02195635795285
 20
-141.6482014619838
 10
89.02195635795285
 20
-141.8628309107148
 10
89.02195635795285
 20
-141.8628309107148
 97
        0
 97
        1
330
DC
 75
     2
 76
     1
 98
        1
 10
0.0
 20
0.0
450
        0
451
        0
460
0.0
461
0.0
452
        0
462
0.0
453
        0
470

  0
SPLINE
  5
DE
330
D6
100
AcDbEntity
  8
レイヤー 1
100
AcDbSpline
210
0.0
220
0.0
230
1.0
 70
     9
 71
     3
 72
    17
 73
    13
 74
     0
 42
0.0000000001
 43
0.0000000001
 40
0.0
 40
0.0
 40
0.0
 40
0.0
 40
1.0
 40
1.0
 40
1.0
 40
2.0
 40
2.0
 40
2.0
 40
3.0
 40
3.0
 40
3.0
 40
4.0
 40
4.0
 40
4.0
 40
4.0
 10
87.62152504319878
 20
-141.0208495741198
 30
0.0
 10
87.62152504319878
 20
-141.2337564751082
 30
0.0
 10
87.90505640163486
 20
-141.2733750731886
 30
0.0
 10
88.24991045970836
 20
-141.2733750731886
 30
0.0
 10
88.56927081119101
 20
-141.2733750731886
 30
0.0
 10
88.87795136666941
 20
-141.2427137233699
 30
0.0
 10
88.87795136666941
 20
-141.0208495741198
 30
0.0
 10
88.87795136666941
 20
-140.8096652208739
 30
0.0
 10
88.59683157507301
 20
-140.7683240750509
 30
0.0
 10
88.24991045970836
 20
-140.7683240750509
 30
0.0
 10
87.93020559867718
 20
-140.7683240750509
 30
0.0
 10
87.62152504319878
 20
-140.8007079726123
 30
0.0
 10
87.62152504319878
 20
-141.0208495741198
 30
0.0
  0
SPLINE
  5
DF
330
D6
100
AcDbEntity
  8
レイヤー 1
100
AcDbSpline
210
0.0
220
0.0
230
1.0
 70
     9
 71
     3
 72
    29
 73
    25
 74
     0
 42
0.0000000001
 43
0.0000000001
 40
0.0
 40
0.0
 40
0.0
 40
0.0
 40
1.0
 40
1.0
 40
1.0
 40
2.0
 40
2.0
 40
2.0
 40
3.0
 40
3.0
 40
3.0
 40
4.0
 40
4.0
 40
4.0
 40
5.0
 40
5.0
 40
5.0
 40
6.0
 40
6.0
 40
6.0
 40
7.0
 40
7.0
 40
7.0
 40
8.0
 40
8.0
 40
8.0
 40
8.0
 10
88.84418943091395
 20
-140.6818521783712
 30
0.0
 10
89.05365123641715
 20
-140.7738362278274
 30
0.0
 10
89.07259926158602
 20
-140.9216308241446
 30
0.0
 10
89.07259926158602
 20
-141.0208495741198
 30
0.0
 10
89.07259926158602
 20
-141.1579643744327
 30
0.0
 10
89.02609047253514
 20
-141.2785427164165
 30
0.0
 10
88.84418943091395
 20
-141.3598469698684
 30
0.0
 10
88.64954153599734
 20
-141.4480414142907
 30
0.0
 10
88.41251896661216
 20
-141.4645778726199
 30
0.0
 10
88.24991045970836
 20
-141.4645778726199
 30
0.0
 10
88.10590546842492
 20
-141.4645778726199
 30
0.0
 10
87.85406898845314
 20
-141.4501084715819
 30
0.0
 10
87.65528697895424
 20
-141.3598469698684
 30
0.0
 10
87.45237085487302
 20
-141.2678629204122
 30
0.0
 10
87.42894420557332
 20
-141.1307481200992
 30
0.0
 10
87.42894420557332
 20
-141.0208495741198
 30
0.0
 10
87.42894420557332
 20
-140.8854573215494
 30
0.0
 10
87.47338593733305
 20
-140.7628119222746
 30
0.0
 10
87.65528697895424
 20
-140.6818521783712
 30
0.0
 10
87.8478678165797
 20
-140.597102829434
 30
0.0
 10
88.07627764725177
 20
-140.5771212756196
 30
0.0
 10
88.24991045970836
 20
-140.5771212756196
 30
0.0
 10
88.42113170532527
 20
-140.5771212756196
 30
0.0
 10
88.65160859328849
 20
-140.5953802816914
 30
0.0
 10
88.84418943091395
 20
-140.6818521783712
 30
0.0
  0
HATCH
  5
E0
330
D6
100
AcDbEntity
  8
レイヤー 1
 62
   250
420
  2299925
440
 33554687
100
AcDbHatch
 10
0.0
 20
0.0
 30
0.0
210
0.0
220
0.0
230
1.0
  2
SOLID
 70
     1
 71
     1
 91
        2
 92
        1
 93
        1
 72
     4
 94
        3
 73
     0
 74
     0
 95
       17
 96
       13
 40
0.0
 40
0.0
 40
0.0
 40
0.0
 40
1.0
 40
1.0
 40
1.0
 40
2.0
 40
2.0
 40
2.0
 40
3.0
 40
3.0
 40
3.0
 40
4.0
 40
4.0
 40
4.0
 40
4.0
 10
87.62152504319878
 20
-141.0208495741198
 10
87.62152504319878
 20
-141.2337564751082
 10
87.90505640163486
 20
-141.2733750731886
 10
88.24991045970836
 20
-141.2733750731886
 10
88.56927081119101
 20
-141.2733750731886
 10
88.87795136666941
 20
-141.2427137233699
 10
88.87795136666941
 20
-141.0208495741198
 10
88.87795136666941
 20
-140.8096652208739
 10
88.59683157507301
 20
-140.7683240750509
 10
88.24991045970836
 20
-140.7683240750509
 10
87.93020559867718
 20
-140.7683240750509
 10
87.62152504319878
 20
-140.8007079726123
 10
87.62152504319878
 20
-141.0208495741198
 97
        0
 97
        1
330
DE
 92
        1
 93
        1
 72
     4
 94
        3
 73
     0
 74
     0
 95
       29
 96
       25
 40
0.0
 40
0.0
 40
0.0
 40
0.0
 40
1.0
 40
1.0
 40
1.0
 40
2.0
 40
2.0
 40
2.0
 40
3.0
 40
3.0
 40
3.0
 40
4.0
 40
4.0
 40
4.0
 40
5.0
 40
5.0
 40
5.0
 40
6.0
 40
6.0
 40
6.0
 40
7.0
 40
7.0
 40
7.0
 40
8.0
 40
8.0
 40
8.0
 40
8.0
 10
88.84418943091395
 20
-140.6818521783712
 10
89.05365123641715
 20
-140.7738362278274
 10
89.07259926158602
 20
-140.9216308241446
 10
89.07259926158602
 20
-141.0208495741198
 10
89.07259926158602
 20
-141.1579643744327
 10
89.02609047253514
 20
-141.2785427164165
 10
88.84418943091395
 20
-141.3598469698684
 10
88.64954153599734
 20
-141.4480414142907
 10
88.41251896661216
 20
-141.4645778726199
 10
88.24991045970836
 20
-141.4645778726199
 10
88.10590546842492
 20
-141.4645778726199
 10
87.85406898845314
 20
-141.4501084715819
 10
87.65528697895424
 20
-141.3598469698684
 10
87.45237085487302
 20
-141.2678629204122
 10
87.42894420557332
 20
-141.1307481200992
 10
87.42894420557332
 20
-141.0208495741198
 10
87.42894420557332
 20
-140.8854573215494
 10
87.47338593733305
 20
-140.7628119222746
 10
87.65528697895424
 20
-140.6818521783712
 10
87.8478678165797
 20
-140.597102829434
 10
88.07627764725177
 20
-140.5771212756196
 10
88.24991045970836
 20
-140.5771212756196
 10
88.42113170532527
 20
-140.5771212756196
 10
88.65160859328849
 20
-140.5953802816914
 10
88.84418943091395
 20
-140.6818521783712
 97
        0
 97
        1
330
DF
 75
     2
 76
     1
 98
        1
 10
0.0
 20
0.0
450
        0
451
        0
460
0.0
461
0.0
452
        0
462
0.0
453
        0
470

  0
ENDBLK
  5
D9
330
D6
100
AcDbEntity
  8
0
100
AcDbBlockEnd
  0
BLOCK
  5
E5
330
E3
100
AcDbEntity
  8
0
100
AcDbBlockBegin
  2
Block_11
 70
     0
 10
0.0
 20
0.0
 30
0.0
  3
Block_11
  1

  0
LINE
  5
E7
330
E3
100
AcDbEntity
  8
レイヤー 1
 62
    18
420
        0
370
     9
100
AcDbLine
 10
109.413204114459
 20
-151.7339633790773
 30
0.0
 11
109.1463592565986
 21
-150.7701911458062
 31
0.0
  0
LINE
  5
E8
330
E3
100
AcDbEntity
  8
レイヤー 1
 62
    18
420
        0
370
     9
100
AcDbLine
 10
109.413204114459
 20
-151.7339633790773
 30
0.0
 11
109.3787699070819
 21
-150.1200028162726
 31
0.0
  0
LINE
  5
E9
330
E3
100
AcDbEntity
  8
レイヤー 1
 62
    18
420
        0
370
     9
100
AcDbLine
 10
109.413204114459
 20
-151.7339633790773
 30
0.0
 11
109.6640521919649
 21
-150.7657829236898
 31
0.0
  0
ENDBLK
  5
E6
330
E3
100
AcDbEntity
  8
0
100
AcDbBlockEnd
  0
BLOCK
  5
EC
330
EA
100
AcDbEntity
  8
0
100
AcDbBlockBegin
  2
Block_12
 70
     0
 10
0.0
 20
0.0
 30
0.0
  3
Block_12
  1

  0
INSERT
  5
EF
330
EA
100
AcDbEntity
  8
レイヤー 1
100
AcDbBlockReference
  2
Block_13
 10
0.0
 20
0.0
 30
0.0
  0
ENDBLK
  5
ED
330
EA
100
AcDbEntity
  8
0
100
AcDbBlockEnd
  0
BLOCK
  5
F0
330
EE
100
AcDbEntity
  8
0
100
AcDbBlockBegin
  2
Block_13
 70
     0
 10
0.0
 20
0.0
 30
0.0
  3
Block_13
  1

  0
SPLINE
  5
F2
330
EE
100
AcDbEntity
  8
レイヤー 1
100
AcDbSpline
210
0.0
220
0.0
230
1.0
 70
     9
 71
     3
 72
    17
 73
    13
 74
     0
 42
0.0000000001
 43
0.0000000001
 40
0.0
 40
0.0
 40
0.0
 40
0.0
 40
1.0
 40
1.0
 40
1.0
 40
2.0
 40
2.0
 40
2.0
 40
3.0
 40
3.0
 40
3.0
 40
4.0
 40
4.0
 40
4.0
 40
4.0
 10
105.427156549164
 20
-149.0537787170768
 30
0.0
 10
105.410103326512
 20
-149.0830620287014
 30
0.0
 10
105.3594604228789
 20
-149.1764241163517
 30
0.0
 10
105.3487806268746
 20
-149.1953721415206
 30
0.0
 10
105.5391221524347
 20
-149.2546277838669
 30
0.0
 10
105.5601372348947
 20
-149.2608289557403
 30
0.0
 10
105.6321397305364
 20
-149.2883897196223
 30
0.0
 10
105.6872612583004
 20
-149.201573313394
 30
0.0
 10
105.7103433980516
 20
-149.1275037604612
 30
0.0
 10
105.7251573086381
 20
-149.0537787170768
 30
0.0
 10
105.7251573086381
 20
-149.0537787170768
 30
0.0
 10
105.427156549164
 20
-149.0537787170768
 30
0.0
 10
105.427156549164
 20
-149.0537787170768
 30
0.0
  0
SPLINE
  5
F3
330
EE
100
AcDbEntity
  8
レイヤー 1
100
AcDbSpline
210
0.0
220
0.0
230
1.0
 70
    11
 71
     3
 72
    20
 73
    16
 74
     0
 42
0.0000000001
 43
0.0000000001
 40
0.0
 40
0.0
 40
0.0
 40
0.0
 40
1.0
 40
1.0
 40
1.0
 40
2.0
 40
2.0
 40
2.0
 40
3.0
 40
3.0
 40
3.0
 40
4.0
 40
4.0
 40
4.0
 40
5.0
 40
5.0
 40
5.0
 40
5.0
 10
105.3635945374612
 20
-148.2031846417686
 30
0.0
 10
105.3635945374612
 20
-148.2031846417686
 30
0.0
 10
105.3318996589969
 20
-148.2031846417686
 30
0.0
 10
105.3318996589969
 20
-148.2031846417686
 30
0.0
 10
105.3784084480477
 20
-148.3027479012924
 30
0.0
 10
105.410103326512
 20
-148.3830186260987
 30
0.0
 10
105.4440375170418
 20
-148.5097981399559
 30
0.0
 10
105.4440375170418
 20
-148.5097981399559
 30
0.0
 10
105.6510877557053
 20
-148.5097981399559
 30
0.0
 10
105.6510877557053
 20
-148.5097981399559
 30
0.0
 10
105.6831271437181
 20
-148.4167805618541
 30
0.0
 10
105.7062092834693
 20
-148.3323757224655
 30
0.0
 10
105.729635932769
 20
-148.2031846417686
 30
0.0
 10
105.729635932769
 20
-148.2031846417686
 30
0.0
 10
105.3635945374612
 20
-148.2031846417686
 30
0.0
 10
105.3635945374612
 20
-148.2031846417686
 30
0.0
  0
SPLINE
  5
F4
330
EE
100
AcDbEntity
  8
レイヤー 1
100
AcDbSpline
210
0.0
220
0.0
230
1.0
 70
     9
 71
     3
 72
   242
 73
   238
 74
     0
 42
0.0000000001
 43
0.0000000001
 40
0.0
 40
0.0
 40
0.0
 40
0.0
 40
1.0
 40
1.0
 40
1.0
 40
2.0
 40
2.0
 40
2.0
 40
3.0
 40
3.0
 40
3.0
 40
4.0
 40
4.0
 40
4.0
 40
5.0
 40
5.0
 40
5.0
 40
6.0
 40
6.0
 40
6.0
 40
7.0
 40
7.0
 40
7.0
 40
8.0
 40
8.0
 40
8.0
 40
9.0
 40
9.0
 40
9.0
 40
10.0
 40
10.0
 40
10.0
 40
11.0
 40
11.0
 40
11.0
 40
12.0
 40
12.0
 40
12.0
 40
13.0
 40
13.0
 40
13.0
 40
14.0
 40
14.0
 40
14.0
 40
15.0
 40
15.0
 40
15.0
 40
16.0
 40
16.0
 40
16.0
 40
17.0
 40
17.0
 40
17.0
 40
18.0
 40
18.0
 40
18.0
 40
19.0
 40
19.0
 40
19.0
 40
20.0
 40
20.0
 40
20.0
 40
21.0
 40
21.0
 40
21.0
 40
22.0
 40
22.0
 40
22.0
 40
23.0
 40
23.0
 40
23.0
 40
24.0
 40
24.0
 40
24.0
 40
25.0
 40
25.0
 40
25.0
 40
26.0
 40
26.0
 40
26.0
 40
27.0
 40
27.0
 40
27.0
 40
28.0
 40
28.0
 40
28.0
 40
29.0
 40
29.0
 40
29.0
 40
30.0
 40
30.0
 40
30.0
 40
31.0
 40
31.0
 40
31.0
 40
32.0
 40
32.0
 40
32.0
 40
33.0
 40
33.0
 40
33.0
 40
34.0
 40
34.0
 40
34.0
 40
35.0
 40
35.0
 40
35.0
 40
36.0
 40
36.0
 40
36.0
 40
37.0
 40
37.0
 40
37.0
 40
38.0
 40
38.0
 40
38.0
 40
39.0
 40
39.0
 40
39.0
 40
40.0
 40
40.0
 40
40.0
 40
41.0
 40
41.0
 40
41.0
 40
42.0
 40
42.0
 40
42.0
 40
43.0
 40
43.0
 40
43.0
 40
44.0
 40
44.0
 40
44.0
 40
45.0
 40
45.0
 40
45.0
 40
46.0
 40
46.0
 40
46.0
 40
47.0
 40
47.0
 40
47.0
 40
48.0
 40
48.0
 40
48.0
 40
49.0
 40
49.0
 40
49.0
 40
50.0
 40
50.0
 40
50.0
 40
51.0
 40
51.0
 40
51.0
 40
52.0
 40
52.0
 40
52.0
 40
53.0
 40
53.0
 40
53.0
 40
54.0
 40
54.0
 40
54.0
 40
55.0
 40
55.0
 40
55.0
 40
56.0
 40
56.0
 40
56.0
 40
57.0
 40
57.0
 40
57.0
 40
58.0
 40
58.0
 40
58.0
 40
59.0
 40
59.0
 40
59.0
 40
60.0
 40
60.0
 40
60.0
 40
61.0
 40
61.0
 40
61.0
 40
62.0
 40
62.0
 40
62.0
 40
63.0
 40
63.0
 40
63.0
 40
64.0
 40
64.0
 40
64.0
 40
65.0
 40
65.0
 40
65.0
 40
66.0
 40
66.0
 40
66.0
 40
67.0
 40
67.0
 40
67.0
 40
68.0
 40
68.0
 40
68.0
 40
69.0
 40
69.0
 40
69.0
 40
70.0
 40
70.0
 40
70.0
 40
71.0
 40
71.0
 40
71.0
 40
72.0
 40
72.0
 40
72.0
 40
73.0
 40
73.0
 40
73.0
 40
74.0
 40
74.0
 40
74.0
 40
75.0
 40
75.0
 40
75.0
 40
76.0
 40
76.0
 40
76.0
 40
77.0
 40
77.0
 40
77.0
 40
78.0
 40
78.0
 40
78.0
 40
79.0
 40
79.0
 40
79.0
 40
79.0
 10
105.9918076991965
 20
-148.6686170418259
 30
0.0
 10
105.9918076991965
 20
-148.6686170418259
 30
0.0
 10
105.7379041619336
 20
-148.6686170418259
 30
0.0
 10
105.7379041619336
 20
-148.6686170418259
 30
0.0
 10
105.7379041619336
 20
-148.6686170418259
 30
0.0
 10
105.4609184849195
 20
-148.6686170418259
 30
0.0
 10
105.4609184849195
 20
-148.6686170418259
 30
0.0
 10
105.4609184849195
 20
-148.6686170418259
 30
0.0
 10
105.5876979987767
 20
-148.7109917162944
 30
0.0
 10
105.5876979987767
 20
-148.7109917162944
 30
0.0
 10
105.598377794781
 20
-148.7151258308768
 30
0.0
 10
105.6111246480764
 20
-148.7213270027502
 30
0.0
 10
105.6111246480764
 20
-148.7340738560456
 30
0.0
 10
105.6111246480764
 20
-148.7554334480542
 30
0.0
 10
105.5794297696121
 20
-148.7616346199276
 30
0.0
 10
105.5580701776035
 20
-148.7657687345099
 30
0.0
 10
105.5477348911478
 20
-148.7891953838096
 30
0.0
 10
105.5181070699746
 20
-148.8546521980294
 30
0.0
 10
105.4988145352572
 20
-148.8990939297891
 30
0.0
 10
105.4988145352572
 20
-148.8990939297891
 30
0.0
 10
105.7695990403979
 20
-148.8990939297891
 30
0.0
 10
105.7695990403979
 20
-148.8990939297891
 30
0.0
 10
105.8605495612084
 20
-148.8990939297891
 30
0.0
 10
106.0572645134162
 20
-148.8949598152068
 30
0.0
 10
106.1992024474085
 20
-148.8863470764937
 30
0.0
 10
106.1992024474085
 20
-148.8863470764937
 30
0.0
 10
106.1992024474085
 20
-149.0641140035326
 30
0.0
 10
106.1992024474085
 20
-149.0641140035326
 30
0.0
 10
106.1165201557625
 20
-149.0599798889503
 30
0.0
 10
106.0955050733025
 20
-149.0599798889503
 30
0.0
 10
105.9156710889725
 20
-149.055845774368
 30
0.0
 10
105.8839762105082
 20
-149.2101860521072
 30
0.0
 10
105.8395344787484
 20
-149.2904567769135
 30
0.0
 10
105.7950927469887
 20
-149.3603922152641
 30
0.0
 10
105.9156710889725
 20
-149.4196478576104
 30
0.0
 10
106.0214355203696
 20
-149.4871717291212
 30
0.0
 10
106.1251328944756
 20
-149.5698540207672
 30
0.0
 10
106.1251328944756
 20
-149.5698540207672
 30
0.0
 10
106.006621609783
 20
-149.7369411518019
 30
0.0
 10
106.006621609783
 20
-149.7369411518019
 30
0.0
 10
105.9835394700319
 20
-149.717993126633
 30
0.0
 10
105.9707926167364
 20
-149.7093803879199
 30
0.0
 10
105.8584825039173
 20
-149.6246310389827
 30
0.0
 10
105.8099066575753
 20
-149.586734988645
 30
0.0
 10
105.750651015229
 20
-149.5509059955984
 30
0.0
 10
105.6703802904227
 20
-149.5064642638386
 30
0.0
 10
105.4588514276283
 20
-149.6924994200421
 30
0.0
 10
105.2535237367074
 20
-149.7159260693418
 30
0.0
 10
104.9637912063979
 20
-149.745553890515
 30
0.0
 10
104.9637912063979
 20
-149.745553890515
 30
0.0
 10
104.8600938322919
 20
-149.5657199061849
 30
0.0
 10
104.8600938322919
 20
-149.5657199061849
 30
0.0
 10
105.1773871264834
 20
-149.5612412820541
 30
0.0
 10
105.3530869962312
 20
-149.5360920850118
 30
0.0
 10
105.5053602166792
 20
-149.4258490294838
 30
0.0
 10
105.3868489319866
 20
-149.3752061258506
 30
0.0
 10
105.2979654684672
 20
-149.3476453619686
 30
0.0
 10
105.2621364754205
 20
-149.3348985086732
 30
0.0
 10
105.2430161954774
 20
-149.3624592725552
 30
0.0
 10
105.2282022848908
 20
-149.3814072977241
 30
0.0
 10
105.2006415210088
 20
-149.4155137430281
 30
0.0
 10
105.2006415210088
 20
-149.4155137430281
 30
0.0
 10
105.0039265688011
 20
-149.3328314513821
 30
0.0
 10
105.0039265688011
 20
-149.3328314513821
 30
0.0
 10
105.0864366056728
 20
-149.2525607265757
 30
0.0
 10
105.1477593053103
 20
-149.1571315816343
 30
0.0
 10
105.2049478903654
 20
-149.055845774368
 30
0.0
 10
105.0146063648053
 20
-149.0599798889503
 30
0.0
 10
104.9934190275711
 20
-149.0599798889503
 30
0.0
 10
104.9109089906993
 20
-149.0641140035326
 30
0.0
 10
104.9109089906993
 20
-149.0641140035326
 30
0.0
 10
104.9109089906993
 20
-148.8863470764937
 30
0.0
 10
104.9109089906993
 20
-148.8863470764937
 30
0.0
 10
105.050435357852
 20
-148.8928927579156
 30
0.0
 10
105.2598971633551
 20
-148.8970268724979
 30
0.0
 10
105.285390869946
 20
-148.8970268724979
 30
0.0
 10
105.3022718378237
 20
-148.8632649367425
 30
0.0
 10
105.3572211108135
 20
-148.7426865947587
 30
0.0
 10
105.3763413907566
 20
-148.6686170418259
 30
0.0
 10
105.3572211108135
 20
-148.6686170418259
 30
0.0
 10
105.1796264385488
 20
-148.6748182136993
 30
0.0
 10
104.9849785436322
 20
-148.6875650669948
 30
0.0
 10
104.9849785436322
 20
-148.6875650669948
 30
0.0
 10
104.9849785436322
 20
-148.8208902622739
 30
0.0
 10
104.9849785436322
 20
-148.8208902622739
 30
0.0
 10
104.9362304425159
 20
-148.8463839688648
 30
0.0
 10
104.8769748001696
 20
-148.8780788473291
 30
0.0
 10
104.7438218596647
 20
-148.9435356615488
 30
0.0
 10
104.7438218596647
 20
-148.9435356615488
 30
0.0
 10
104.7438218596647
 20
-149.0896077101234
 30
0.0
 10
104.7438218596647
 20
-149.0896077101234
 30
0.0
 10
104.7438218596647
 20
-149.0896077101234
 30
0.0
 10
104.7438218596647
 20
-149.5571071674718
 30
0.0
 10
104.7438218596647
 20
-149.5571071674718
 30
0.0
 10
104.7438218596647
 20
-149.683886681329
 30
0.0
 10
104.7078206118439
 20
-149.7431423236753
 30
0.0
 10
104.4242892534078
 20
-149.7348740945107
 30
0.0
 10
104.4242892534078
 20
-149.7348740945107
 30
0.0
 10
104.3205918793018
 20
-149.5274793462987
 30
0.0
 10
104.3205918793018
 20
-149.5274793462987
 30
0.0
 10
104.3841538910046
 20
-149.5402261995941
 30
0.0
 10
104.4327297373467
 20
-149.5443603141764
 30
0.0
 10
104.4730373545241
 20
-149.5443603141764
 30
0.0
 10
104.5491739647481
 20
-149.5443603141764
 30
0.0
 10
104.5596815059781
 20
-149.5212781744252
 30
0.0
 10
104.5596815059781
 20
-149.4554768506569
 30
0.0
 10
104.5596815059781
 20
-149.4554768506569
 30
0.0
 10
104.5596815059781
 20
-149.0262179531948
 30
0.0
 10
104.5596815059781
 20
-149.0262179531948
 30
0.0
 10
104.4623575585198
 20
-149.0661810608237
 30
0.0
 10
104.4454765906421
 20
-149.0727267422457
 30
0.0
 10
104.3989678015912
 20
-149.0916747674146
 30
0.0
 10
104.3946614322347
 20
-149.1126898498746
 30
0.0
 10
104.3905273176523
 20
-149.1423176710477
 30
0.0
 10
104.3714070377092
 20
-149.1423176710477
 30
0.0
 10
104.3629665537703
 20
-149.1423176710477
 30
0.0
 10
104.3524590125403
 20
-149.1381835564654
 30
0.0
 10
104.3460855858926
 20
-149.1151014167143
 30
0.0
 10
104.3460855858926
 20
-149.1151014167143
 30
0.0
 10
104.293203370194
 20
-148.9225205790888
 30
0.0
 10
104.293203370194
 20
-148.9225205790888
 30
0.0
 10
104.4391031639944
 20
-148.8760117900379
 30
0.0
 10
104.5047322329884
 20
-148.8525851407382
 30
0.0
 10
104.5596815059781
 20
-148.8315700582782
 30
0.0
 10
104.5596815059781
 20
-148.8315700582782
 30
0.0
 10
104.5596815059781
 20
-148.4188476191452
 30
0.0
 10
104.5596815059781
 20
-148.4188476191452
 30
0.0
 10
104.5596815059781
 20
-148.4188476191452
 30
0.0
 10
104.5067992902795
 20
-148.4188476191452
 30
0.0
 10
104.5067992902795
 20
-148.4188476191452
 30
0.0
 10
104.5067992902795
 20
-148.4188476191452
 30
0.0
 10
104.4285956227644
 20
-148.4188476191452
 30
0.0
 10
104.4285956227644
 20
-148.4188476191452
 30
0.0
 10
104.3608994964792
 20
-148.4188476191452
 30
0.0
 10
104.3524590125403
 20
-148.4188476191452
 30
0.0
 10
104.3164577647195
 20
-148.4253933005672
 30
0.0
 10
104.3164577647195
 20
-148.4253933005672
 30
0.0
 10
104.3164577647195
 20
-148.2307454056506
 30
0.0
 10
104.3164577647195
 20
-148.2307454056506
 30
0.0
 10
104.3440185286015
 20
-148.2369465775241
 30
0.0
 10
104.3524590125403
 20
-148.2369465775241
 30
0.0
 10
104.4222221961166
 20
-148.2369465775241
 30
0.0
 10
104.4222221961166
 20
-148.2369465775241
 30
0.0
 10
104.5555473913958
 20
-148.2369465775241
 30
0.0
 10
104.5555473913958
 20
-148.2369465775241
 30
0.0
 10
104.5555473913958
 20
-148.167355648722
 30
0.0
 10
104.5555473913958
 20
-148.084673357076
 30
0.0
 10
104.5533080793304
 20
-148.0805392424937
 30
0.0
 10
104.5448675953915
 20
-147.9007052581637
 30
0.0
 10
104.5448675953915
 20
-147.8817572329948
 30
0.0
 10
104.5428005381004
 20
-147.8352484439439
 30
0.0
 10
104.5428005381004
 20
-147.8352484439439
 30
0.0
 10
104.7586357702513
 20
-147.8435166731085
 30
0.0
 10
104.7586357702513
 20
-147.8435166731085
 30
0.0
 10
104.7691433114813
 20
-147.8435166731085
 30
0.0
 10
104.7903306487156
 20
-147.8455837303997
 30
0.0
 10
104.7903306487156
 20
-147.8624646982774
 30
0.0
 10
104.7903306487156
 20
-147.8817572329948
 30
0.0
 10
104.775516738129
 20
-147.8920925194506
 30
0.0
 10
104.7501952863124
 20
-147.911385054168
 30
0.0
 10
104.7501952863124
 20
-147.9620279578011
 30
0.0
 10
104.7438218596647
 20
-148.1904377884732
 30
0.0
 10
104.7458889169559
 20
-148.2369465775241
 30
0.0
 10
104.8749077428785
 20
-148.2369465775241
 30
0.0
 10
104.8876545961739
 20
-148.2369465775241
 30
0.0
 10
104.9849785436322
 20
-148.2286783483595
 30
0.0
 10
104.9849785436322
 20
-148.2286783483595
 30
0.0
 10
104.9849785436322
 20
-148.4233262432761
 30
0.0
 10
104.9849785436322
 20
-148.4233262432761
 30
0.0
 10
104.9469102385202
 20
-148.4209146764364
 30
0.0
 10
104.879214112235
 20
-148.4167805618541
 30
0.0
 10
104.7438218596647
 20
-148.4188476191452
 30
0.0
 10
104.7438218596647
 20
-148.4188476191452
 30
0.0
 10
104.7438218596647
 20
-148.7575005053453
 30
0.0
 10
104.7438218596647
 20
-148.7575005053453
 30
0.0
 10
104.7987711326545
 20
-148.7340738560456
 30
0.0
 10
104.8644002016485
 20
-148.7065130921636
 30
0.0
 10
104.9129760479905
 20
-148.6834309524125
 30
0.0
 10
104.9129760479905
 20
-148.6834309524125
 30
0.0
 10
104.9129760479905
 20
-148.5056640253736
 30
0.0
 10
104.9129760479905
 20
-148.5056640253736
 30
0.0
 10
105.0271809633265
 20
-148.518410878669
 30
0.0
 10
105.1456922480191
 20
-148.518410878669
 30
0.0
 10
105.2621364754205
 20
-148.518410878669
 30
0.0
 10
105.2387098261209
 20
-148.4233262432761
 30
0.0
 10
105.2113213170131
 20
-148.3406439516301
 30
0.0
 10
105.1477593053103
 20
-148.2073187563509
 30
0.0
 10
105.1033175735506
 20
-148.2093858136421
 30
0.0
 10
105.0209797914531
 20
-148.2138644377729
 30
0.0
 10
104.9827392315668
 20
-148.215931495064
 30
0.0
 10
104.9827392315668
 20
-148.215931495064
 30
0.0
 10
104.9827392315668
 20
-148.036097510734
 30
0.0
 10
104.9827392315668
 20
-148.036097510734
 30
0.0
 10
105.1076239429071
 20
-148.0443657398986
 30
0.0
 10
105.2810845005894
 20
-148.0488443640294
 30
0.0
 10
105.3635945374612
 20
-148.0488443640294
 30
0.0
 10
105.3635945374612
 20
-148.0488443640294
 30
0.0
 10
105.4461045743329
 20
-148.0488443640294
 30
0.0
 10
105.4461045743329
 20
-148.0488443640294
 30
0.0
 10
105.4461045743329
 20
-147.8858913475771
 30
0.0
 10
105.4461045743329
 20
-147.8752115515729
 30
0.0
 10
105.4440375170418
 20
-147.8204345333574
 30
0.0
 10
105.4440375170418
 20
-147.8204345333574
 30
0.0
 10
105.6683132331315
 20
-147.8455837303997
 30
0.0
 10
105.6683132331315
 20
-147.8455837303997
 30
0.0
 10
105.6724473477138
 20
-147.8455837303997
 30
0.0
 10
105.6934624301739
 20
-147.8476507876908
 30
0.0
 10
105.6934624301739
 20
-147.8645317555686
 30
0.0
 10
105.6934624301739
 20
-147.8793456661551
 30
0.0
 10
105.6831271437181
 20
-147.8879584048683
 30
0.0
 10
105.6555663798361
 20
-147.9027723154549
 30
0.0
 10
105.6490206984141
 20
-147.9682291296746
 30
0.0
 10
105.646953641123
 20
-147.9895887216831
 30
0.0
 10
105.646953641123
 20
-148.0488443640294
 30
0.0
 10
105.646953641123
 20
-148.0488443640294
 30
0.0
 10
105.7420382765159
 20
-148.0488443640294
 30
0.0
 10
105.7420382765159
 20
-148.0488443640294
 30
0.0
 10
105.8247205681619
 20
-148.0488443640294
 30
0.0
 10
105.9980088710699
 20
-148.0443657398986
 30
0.0
 10
106.1230658371845
 20
-148.036097510734
 30
0.0
 10
106.1230658371845
 20
-148.036097510734
 30
0.0
 10
106.1230658371845
 20
-148.215931495064
 30
0.0
 10
106.1230658371845
 20
-148.215931495064
 30
0.0
 10
106.0934380160113
 20
-148.2138644377729
 30
0.0
 10
105.9749267313188
 20
-148.2093858136421
 30
0.0
 10
105.9346191141413
 20
-148.2073187563509
 30
0.0
 10
105.9198052035547
 20
-148.2583061695326
 30
0.0
 10
105.8860432677993
 20
-148.3702717728033
 30
0.0
 10
105.8205864535796
 20
-148.5097981399559
 30
0.0
 10
105.8626166184996
 20
-148.5097981399559
 30
0.0
 10
106.1399468050622
 20
-148.490850114787
 30
0.0
 10
106.2012695046997
 20
-148.4887830574959
 30
0.0
 10
106.2012695046997
 20
-148.4887830574959
 30
0.0
 10
106.2012695046997
 20
-148.6727511564082
 30
0.0
 10
106.2012695046997
 20
-148.6727511564082
 30
0.0
 10
106.1716416835265
 20
-148.6727511564082
 30
0.0
 10
106.1547607156488
 20
-148.6686170418259
 30
0.0
 10
105.9918076991965
 20
-148.6686170418259
 30
0.0
  0
HATCH
  5
F5
330
EE
100
AcDbEntity
  8
レイヤー 1
 62
    18
420
        0
440
 33554687
100
AcDbHatch
 10
0.0
 20
0.0
 30
0.0
210
0.0
220
0.0
230
1.0
  2
SOLID
 70
     1
 71
     1
 91
        3
 92
        1
 93
        1
 72
     4
 94
        3
 73
     0
 74
     0
 95
       17
 96
       13
 40
0.0
 40
0.0
 40
0.0
 40
0.0
 40
1.0
 40
1.0
 40
1.0
 40
2.0
 40
2.0
 40
2.0
 40
3.0
 40
3.0
 40
3.0
 40
4.0
 40
4.0
 40
4.0
 40
4.0
 10
105.427156549164
 20
-149.0537787170768
 10
105.410103326512
 20
-149.0830620287014
 10
105.3594604228789
 20
-149.1764241163517
 10
105.3487806268746
 20
-149.1953721415206
 10
105.5391221524347
 20
-149.2546277838669
 10
105.5601372348947
 20
-149.2608289557403
 10
105.6321397305364
 20
-149.2883897196223
 10
105.6872612583004
 20
-149.201573313394
 10
105.7103433980516
 20
-149.1275037604612
 10
105.7251573086381
 20
-149.0537787170768
 10
105.7251573086381
 20
-149.0537787170768
 10
105.427156549164
 20
-149.0537787170768
 10
105.427156549164
 20
-149.0537787170768
 97
        0
 97
        1
330
F2
 92
        1
 93
        1
 72
     4
 94
        3
 73
     0
 74
     0
 95
       20
 96
       16
 40
0.0
 40
0.0
 40
0.0
 40
0.0
 40
1.0
 40
1.0
 40
1.0
 40
2.0
 40
2.0
 40
2.0
 40
3.0
 40
3.0
 40
3.0
 40
4.0
 40
4.0
 40
4.0
 40
5.0
 40
5.0
 40
5.0
 40
5.0
 10
105.3635945374612
 20
-148.2031846417686
 10
105.3635945374612
 20
-148.2031846417686
 10
105.3318996589969
 20
-148.2031846417686
 10
105.3318996589969
 20
-148.2031846417686
 10
105.3784084480477
 20
-148.3027479012924
 10
105.410103326512
 20
-148.3830186260987
 10
105.4440375170418
 20
-148.5097981399559
 10
105.4440375170418
 20
-148.5097981399559
 10
105.6510877557053
 20
-148.5097981399559
 10
105.6510877557053
 20
-148.5097981399559
 10
105.6831271437181
 20
-148.4167805618541
 10
105.7062092834693
 20
-148.3323757224655
 10
105.729635932769
 20
-148.2031846417686
 10
105.729635932769
 20
-148.2031846417686
 10
105.3635945374612
 20
-148.2031846417686
 10
105.3635945374612
 20
-148.2031846417686
 97
        0
 97
        1
330
F3
 92
        1
 93
        1
 72
     4
 94
        3
 73
     0
 74
     0
 95
      242
 96
      238
 40
0.0
 40
0.0
 40
0.0
 40
0.0
 40
1.0
 40
1.0
 40
1.0
 40
2.0
 40
2.0
 40
2.0
 40
3.0
 40
3.0
 40
3.0
 40
4.0
 40
4.0
 40
4.0
 40
5.0
 40
5.0
 40
5.0
 40
6.0
 40
6.0
 40
6.0
 40
7.0
 40
7.0
 40
7.0
 40
8.0
 40
8.0
 40
8.0
 40
9.0
 40
9.0
 40
9.0
 40
10.0
 40
10.0
 40
10.0
 40
11.0
 40
11.0
 40
11.0
 40
12.0
 40
12.0
 40
12.0
 40
13.0
 40
13.0
 40
13.0
 40
14.0
 40
14.0
 40
14.0
 40
15.0
 40
15.0
 40
15.0
 40
16.0
 40
16.0
 40
16.0
 40
17.0
 40
17.0
 40
17.0
 40
18.0
 40
18.0
 40
18.0
 40
19.0
 40
19.0
 40
19.0
 40
20.0
 40
20.0
 40
20.0
 40
21.0
 40
21.0
 40
21.0
 40
22.0
 40
22.0
 40
22.0
 40
23.0
 40
23.0
 40
23.0
 40
24.0
 40
24.0
 40
24.0
 40
25.0
 40
25.0
 40
25.0
 40
26.0
 40
26.0
 40
26.0
 40
27.0
 40
27.0
 40
27.0
 40
28.0
 40
28.0
 40
28.0
 40
29.0
 40
29.0
 40
29.0
 40
30.0
 40
30.0
 40
30.0
 40
31.0
 40
31.0
 40
31.0
 40
32.0
 40
32.0
 40
32.0
 40
33.0
 40
33.0
 40
33.0
 40
34.0
 40
34.0
 40
34.0
 40
35.0
 40
35.0
 40
35.0
 40
36.0
 40
36.0
 40
36.0
 40
37.0
 40
37.0
 40
37.0
 40
38.0
 40
38.0
 40
38.0
 40
39.0
 40
39.0
 40
39.0
 40
40.0
 40
40.0
 40
40.0
 40
41.0
 40
41.0
 40
41.0
 40
42.0
 40
42.0
 40
42.0
 40
43.0
 40
43.0
 40
43.0
 40
44.0
 40
44.0
 40
44.0
 40
45.0
 40
45.0
 40
45.0
 40
46.0
 40
46.0
 40
46.0
 40
47.0
 40
47.0
 40
47.0
 40
48.0
 40
48.0
 40
48.0
 40
49.0
 40
49.0
 40
49.0
 40
50.0
 40
50.0
 40
50.0
 40
51.0
 40
51.0
 40
51.0
 40
52.0
 40
52.0
 40
52.0
 40
53.0
 40
53.0
 40
53.0
 40
54.0
 40
54.0
 40
54.0
 40
55.0
 40
55.0
 40
55.0
 40
56.0
 40
56.0
 40
56.0
 40
57.0
 40
57.0
 40
57.0
 40
58.0
 40
58.0
 40
58.0
 40
59.0
 40
59.0
 40
59.0
 40
60.0
 40
60.0
 40
60.0
 40
61.0
 40
61.0
 40
61.0
 40
62.0
 40
62.0
 40
62.0
 40
63.0
 40
63.0
 40
63.0
 40
64.0
 40
64.0
 40
64.0
 40
65.0
 40
65.0
 40
65.0
 40
66.0
 40
66.0
 40
66.0
 40
67.0
 40
67.0
 40
67.0
 40
68.0
 40
68.0
 40
68.0
 40
69.0
 40
69.0
 40
69.0
 40
70.0
 40
70.0
 40
70.0
 40
71.0
 40
71.0
 40
71.0
 40
72.0
 40
72.0
 40
72.0
 40
73.0
 40
73.0
 40
73.0
 40
74.0
 40
74.0
 40
74.0
 40
75.0
 40
75.0
 40
75.0
 40
76.0
 40
76.0
 40
76.0
 40
77.0
 40
77.0
 40
77.0
 40
78.0
 40
78.0
 40
78.0
 40
79.0
 40
79.0
 40
79.0
 40
79.0
 10
105.9918076991965
 20
-148.6686170418259
 10
105.9918076991965
 20
-148.6686170418259
 10
105.7379041619336
 20
-148.6686170418259
 10
105.7379041619336
 20
-148.6686170418259
 10
105.7379041619336
 20
-148.6686170418259
 10
105.4609184849195
 20
-148.6686170418259
 10
105.4609184849195
 20
-148.6686170418259
 10
105.4609184849195
 20
-148.6686170418259
 10
105.5876979987767
 20
-148.7109917162944
 10
105.5876979987767
 20
-148.7109917162944
 10
105.598377794781
 20
-148.7151258308768
 10
105.6111246480764
 20
-148.7213270027502
 10
105.6111246480764
 20
-148.7340738560456
 10
105.6111246480764
 20
-148.7554334480542
 10
105.5794297696121
 20
-148.7616346199276
 10
105.5580701776035
 20
-148.7657687345099
 10
105.5477348911478
 20
-148.7891953838096
 10
105.5181070699746
 20
-148.8546521980294
 10
105.4988145352572
 20
-148.8990939297891
 10
105.4988145352572
 20
-148.8990939297891
 10
105.7695990403979
 20
-148.8990939297891
 10
105.7695990403979
 20
-148.8990939297891
 10
105.8605495612084
 20
-148.8990939297891
 10
106.0572645134162
 20
-148.8949598152068
 10
106.1992024474085
 20
-148.8863470764937
 10
106.1992024474085
 20
-148.8863470764937
 10
106.1992024474085
 20
-149.0641140035326
 10
106.1992024474085
 20
-149.0641140035326
 10
106.1165201557625
 20
-149.0599798889503
 10
106.0955050733025
 20
-149.0599798889503
 10
105.9156710889725
 20
-149.055845774368
 10
105.8839762105082
 20
-149.2101860521072
 10
105.8395344787484
 20
-149.2904567769135
 10
105.7950927469887
 20
-149.3603922152641
 10
105.9156710889725
 20
-149.4196478576104
 10
106.0214355203696
 20
-149.4871717291212
 10
106.1251328944756
 20
-149.5698540207672
 10
106.1251328944756
 20
-149.5698540207672
 10
106.006621609783
 20
-149.7369411518019
 10
106.006621609783
 20
-149.7369411518019
 10
105.9835394700319
 20
-149.717993126633
 10
105.9707926167364
 20
-149.7093803879199
 10
105.8584825039173
 20
-149.6246310389827
 10
105.8099066575753
 20
-149.586734988645
 10
105.750651015229
 20
-149.5509059955984
 10
105.6703802904227
 20
-149.5064642638386
 10
105.4588514276283
 20
-149.6924994200421
 10
105.2535237367074
 20
-149.7159260693418
 10
104.9637912063979
 20
-149.745553890515
 10
104.9637912063979
 20
-149.745553890515
 10
104.8600938322919
 20
-149.5657199061849
 10
104.8600938322919
 20
-149.5657199061849
 10
105.1773871264834
 20
-149.5612412820541
 10
105.3530869962312
 20
-149.5360920850118
 10
105.5053602166792
 20
-149.4258490294838
 10
105.3868489319866
 20
-149.3752061258506
 10
105.2979654684672
 20
-149.3476453619686
 10
105.2621364754205
 20
-149.3348985086732
 10
105.2430161954774
 20
-149.3624592725552
 10
105.2282022848908
 20
-149.3814072977241
 10
105.2006415210088
 20
-149.4155137430281
 10
105.2006415210088
 20
-149.4155137430281
 10
105.0039265688011
 20
-149.3328314513821
 10
105.0039265688011
 20
-149.3328314513821
 10
105.0864366056728
 20
-149.2525607265757
 10
105.1477593053103
 20
-149.1571315816343
 10
105.2049478903654
 20
-149.055845774368
 10
105.0146063648053
 20
-149.0599798889503
 10
104.9934190275711
 20
-149.0599798889503
 10
104.9109089906993
 20
-149.0641140035326
 10
104.9109089906993
 20
-149.0641140035326
 10
104.9109089906993
 20
-148.8863470764937
 10
104.9109089906993
 20
-148.8863470764937
 10
105.050435357852
 20
-148.8928927579156
 10
105.2598971633551
 20
-148.8970268724979
 10
105.285390869946
 20
-148.8970268724979
 10
105.3022718378237
 20
-148.8632649367425
 10
105.3572211108135
 20
-148.7426865947587
 10
105.3763413907566
 20
-148.6686170418259
 10
105.3572211108135
 20
-148.6686170418259
 10
105.1796264385488
 20
-148.6748182136993
 10
104.9849785436322
 20
-148.6875650669948
 10
104.9849785436322
 20
-148.6875650669948
 10
104.9849785436322
 20
-148.8208902622739
 10
104.9849785436322
 20
-148.8208902622739
 10
104.9362304425159
 20
-148.8463839688648
 10
104.8769748001696
 20
-148.8780788473291
 10
104.7438218596647
 20
-148.9435356615488
 10
104.7438218596647
 20
-148.9435356615488
 10
104.7438218596647
 20
-149.0896077101234
 10
104.7438218596647
 20
-149.0896077101234
 10
104.7438218596647
 20
-149.0896077101234
 10
104.7438218596647
 20
-149.5571071674718
 10
104.7438218596647
 20
-149.5571071674718
 10
104.7438218596647
 20
-149.683886681329
 10
104.7078206118439
 20
-149.7431423236753
 10
104.4242892534078
 20
-149.7348740945107
 10
104.4242892534078
 20
-149.7348740945107
 10
104.3205918793018
 20
-149.5274793462987
 10
104.3205918793018
 20
-149.5274793462987
 10
104.3841538910046
 20
-149.5402261995941
 10
104.4327297373467
 20
-149.5443603141764
 10
104.4730373545241
 20
-149.5443603141764
 10
104.5491739647481
 20
-149.5443603141764
 10
104.5596815059781
 20
-149.5212781744252
 10
104.5596815059781
 20
-149.4554768506569
 10
104.5596815059781
 20
-149.4554768506569
 10
104.5596815059781
 20
-149.0262179531948
 10
104.5596815059781
 20
-149.0262179531948
 10
104.4623575585198
 20
-149.0661810608237
 10
104.4454765906421
 20
-149.0727267422457
 10
104.3989678015912
 20
-149.0916747674146
 10
104.3946614322347
 20
-149.1126898498746
 10
104.3905273176523
 20
-149.1423176710477
 10
104.3714070377092
 20
-149.1423176710477
 10
104.3629665537703
 20
-149.1423176710477
 10
104.3524590125403
 20
-149.1381835564654
 10
104.3460855858926
 20
-149.1151014167143
 10
104.3460855858926
 20
-149.1151014167143
 10
104.293203370194
 20
-148.9225205790888
 10
104.293203370194
 20
-148.9225205790888
 10
104.4391031639944
 20
-148.8760117900379
 10
104.5047322329884
 20
-148.8525851407382
 10
104.5596815059781
 20
-148.8315700582782
 10
104.5596815059781
 20
-148.8315700582782
 10
104.5596815059781
 20
-148.4188476191452
 10
104.5596815059781
 20
-148.4188476191452
 10
104.5596815059781
 20
-148.4188476191452
 10
104.5067992902795
 20
-148.4188476191452
 10
104.5067992902795
 20
-148.4188476191452
 10
104.5067992902795
 20
-148.4188476191452
 10
104.4285956227644
 20
-148.4188476191452
 10
104.4285956227644
 20
-148.4188476191452
 10
104.3608994964792
 20
-148.4188476191452
 10
104.3524590125403
 20
-148.4188476191452
 10
104.3164577647195
 20
-148.4253933005672
 10
104.3164577647195
 20
-148.4253933005672
 10
104.3164577647195
 20
-148.2307454056506
 10
104.3164577647195
 20
-148.2307454056506
 10
104.3440185286015
 20
-148.2369465775241
 10
104.3524590125403
 20
-148.2369465775241
 10
104.4222221961166
 20
-148.2369465775241
 10
104.4222221961166
 20
-148.2369465775241
 10
104.5555473913958
 20
-148.2369465775241
 10
104.5555473913958
 20
-148.2369465775241
 10
104.5555473913958
 20
-148.167355648722
 10
104.5555473913958
 20
-148.084673357076
 10
104.5533080793304
 20
-148.0805392424937
 10
104.5448675953915
 20
-147.9007052581637
 10
104.5448675953915
 20
-147.8817572329948
 10
104.5428005381004
 20
-147.8352484439439
 10
104.5428005381004
 20
-147.8352484439439
 10
104.7586357702513
 20
-147.8435166731085
 10
104.7586357702513
 20
-147.8435166731085
 10
104.7691433114813
 20
-147.8435166731085
 10
104.7903306487156
 20
-147.8455837303997
 10
104.7903306487156
 20
-147.8624646982774
 10
104.7903306487156
 20
-147.8817572329948
 10
104.775516738129
 20
-147.8920925194506
 10
104.7501952863124
 20
-147.911385054168
 10
104.7501952863124
 20
-147.9620279578011
 10
104.7438218596647
 20
-148.1904377884732
 10
104.7458889169559
 20
-148.2369465775241
 10
104.8749077428785
 20
-148.2369465775241
 10
104.8876545961739
 20
-148.2369465775241
 10
104.9849785436322
 20
-148.2286783483595
 10
104.9849785436322
 20
-148.2286783483595
 10
104.9849785436322
 20
-148.4233262432761
 10
104.9849785436322
 20
-148.4233262432761
 10
104.9469102385202
 20
-148.4209146764364
 10
104.879214112235
 20
-148.4167805618541
 10
104.7438218596647
 20
-148.4188476191452
 10
104.7438218596647
 20
-148.4188476191452
 10
104.7438218596647
 20
-148.7575005053453
 10
104.7438218596647
 20
-148.7575005053453
 10
104.7987711326545
 20
-148.7340738560456
 10
104.8644002016485
 20
-148.7065130921636
 10
104.9129760479905
 20
-148.6834309524125
 10
104.9129760479905
 20
-148.6834309524125
 10
104.9129760479905
 20
-148.5056640253736
 10
104.9129760479905
 20
-148.5056640253736
 10
105.0271809633265
 20
-148.518410878669
 10
105.1456922480191
 20
-148.518410878669
 10
105.2621364754205
 20
-148.518410878669
 10
105.2387098261209
 20
-148.4233262432761
 10
105.2113213170131
 20
-148.3406439516301
 10
105.1477593053103
 20
-148.2073187563509
 10
105.1033175735506
 20
-148.2093858136421
 10
105.0209797914531
 20
-148.2138644377729
 10
104.9827392315668
 20
-148.215931495064
 10
104.9827392315668
 20
-148.215931495064
 10
104.9827392315668
 20
-148.036097510734
 10
104.9827392315668
 20
-148.036097510734
 10
105.1076239429071
 20
-148.0443657398986
 10
105.2810845005894
 20
-148.0488443640294
 10
105.3635945374612
 20
-148.0488443640294
 10
105.3635945374612
 20
-148.0488443640294
 10
105.4461045743329
 20
-148.0488443640294
 10
105.4461045743329
 20
-148.0488443640294
 10
105.4461045743329
 20
-147.8858913475771
 10
105.4461045743329
 20
-147.8752115515729
 10
105.4440375170418
 20
-147.8204345333574
 10
105.4440375170418
 20
-147.8204345333574
 10
105.6683132331315
 20
-147.8455837303997
 10
105.6683132331315
 20
-147.8455837303997
 10
105.6724473477138
 20
-147.8455837303997
 10
105.6934624301739
 20
-147.8476507876908
 10
105.6934624301739
 20
-147.8645317555686
 10
105.6934624301739
 20
-147.8793456661551
 10
105.6831271437181
 20
-147.8879584048683
 10
105.6555663798361
 20
-147.9027723154549
 10
105.6490206984141
 20
-147.9682291296746
 10
105.646953641123
 20
-147.9895887216831
 10
105.646953641123
 20
-148.0488443640294
 10
105.646953641123
 20
-148.0488443640294
 10
105.7420382765159
 20
-148.0488443640294
 10
105.7420382765159
 20
-148.0488443640294
 10
105.8247205681619
 20
-148.0488443640294
 10
105.9980088710699
 20
-148.0443657398986
 10
106.1230658371845
 20
-148.036097510734
 10
106.1230658371845
 20
-148.036097510734
 10
106.1230658371845
 20
-148.215931495064
 10
106.1230658371845
 20
-148.215931495064
 10
106.0934380160113
 20
-148.2138644377729
 10
105.9749267313188
 20
-148.2093858136421
 10
105.9346191141413
 20
-148.2073187563509
 10
105.9198052035547
 20
-148.2583061695326
 10
105.8860432677993
 20
-148.3702717728033
 10
105.8205864535796
 20
-148.5097981399559
 10
105.8626166184996
 20
-148.5097981399559
 10
106.1399468050622
 20
-148.490850114787
 10
106.2012695046997
 20
-148.4887830574959
 10
106.2012695046997
 20
-148.4887830574959
 10
106.2012695046997
 20
-148.6727511564082
 10
106.2012695046997
 20
-148.6727511564082
 10
106.1716416835265
 20
-148.6727511564082
 10
106.1547607156488
 20
-148.6686170418259
 10
105.9918076991965
 20
-148.6686170418259
 97
        0
 97
        1
330
F4
 75
     2
 76
     1
 98
        1
 10
0.0
 20
0.0
450
        0
451
        0
460
0.0
461
0.0
452
        0
462
0.0
453
        0
470

  0
SPLINE
  5
F6
330
EE
100
AcDbEntity
  8
レイヤー 1
100
AcDbSpline
210
0.0
220
0.0
230
1.0
 70
    11
 71
     3
 72
    17
 73
    13
 74
     0
 42
0.0000000001
 43
0.0000000001
 40
0.0
 40
0.0
 40
0.0
 40
0.0
 40
1.0
 40
1.0
 40
1.0
 40
2.0
 40
2.0
 40
2.0
 40
3.0
 40
3.0
 40
3.0
 40
4.0
 40
4.0
 40
4.0
 40
4.0
 10
107.8483696561976
 20
-149.4682237039524
 30
0.0
 10
107.8483696561976
 20
-149.4682237039524
 30
0.0
 10
107.1417805721729
 20
-149.4682237039524
 30
0.0
 10
107.1417805721729
 20
-149.4682237039524
 30
0.0
 10
107.1417805721729
 20
-149.4682237039524
 30
0.0
 10
107.1417805721729
 20
-149.5826008740626
 30
0.0
 10
107.1417805721729
 20
-149.5826008740626
 30
0.0
 10
107.1417805721729
 20
-149.5826008740626
 30
0.0
 10
107.8483696561976
 20
-149.5826008740626
 30
0.0
 10
107.8483696561976
 20
-149.5826008740626
 30
0.0
 10
107.8483696561976
 20
-149.5826008740626
 30
0.0
 10
107.8483696561976
 20
-149.4682237039524
 30
0.0
 10
107.8483696561976
 20
-149.4682237039524
 30
0.0
  0
SPLINE
  5
F7
330
EE
100
AcDbEntity
  8
レイヤー 1
100
AcDbSpline
210
0.0
220
0.0
230
1.0
 70
    11
 71
     3
 72
    17
 73
    13
 74
     0
 42
0.0000000001
 43
0.0000000001
 40
0.0
 40
0.0
 40
0.0
 40
0.0
 40
1.0
 40
1.0
 40
1.0
 40
2.0
 40
2.0
 40
2.0
 40
3.0
 40
3.0
 40
3.0
 40
4.0
 40
4.0
 40
4.0
 40
4.0
 10
107.8483696561976
 20
-149.2249999626937
 30
0.0
 10
107.8483696561976
 20
-149.2249999626937
 30
0.0
 10
107.1417805721729
 20
-149.2249999626937
 30
0.0
 10
107.1417805721729
 20
-149.2249999626937
 30
0.0
 10
107.1417805721729
 20
-149.2249999626937
 30
0.0
 10
107.1417805721729
 20
-149.339377132804
 30
0.0
 10
107.1417805721729
 20
-149.339377132804
 30
0.0
 10
107.1417805721729
 20
-149.339377132804
 30
0.0
 10
107.8483696561976
 20
-149.339377132804
 30
0.0
 10
107.8483696561976
 20
-149.339377132804
 30
0.0
 10
107.8483696561976
 20
-149.339377132804
 30
0.0
 10
107.8483696561976
 20
-149.2249999626937
 30
0.0
 10
107.8483696561976
 20
-149.2249999626937
 30
0.0
  0
SPLINE
  5
F8
330
EE
100
AcDbEntity
  8
レイヤー 1
100
AcDbSpline
210
0.0
220
0.0
230
1.0
 70
    11
 71
     3
 72
    17
 73
    13
 74
     0
 42
0.0000000001
 43
0.0000000001
 40
0.0
 40
0.0
 40
0.0
 40
0.0
 40
1.0
 40
1.0
 40
1.0
 40
2.0
 40
2.0
 40
2.0
 40
3.0
 40
3.0
 40
3.0
 40
4.0
 40
4.0
 40
4.0
 40
4.0
 10
107.8483696561976
 20
-148.9921115078908
 30
0.0
 10
107.8483696561976
 20
-148.9921115078908
 30
0.0
 10
107.1417805721729
 20
-148.9921115078908
 30
0.0
 10
107.1417805721729
 20
-148.9921115078908
 30
0.0
 10
107.1417805721729
 20
-148.9921115078908
 30
0.0
 10
107.1417805721729
 20
-149.1002875061277
 30
0.0
 10
107.1417805721729
 20
-149.1002875061277
 30
0.0
 10
107.1417805721729
 20
-149.1002875061277
 30
0.0
 10
107.8483696561976
 20
-149.1002875061277
 30
0.0
 10
107.8483696561976
 20
-149.1002875061277
 30
0.0
 10
107.8483696561976
 20
-149.1002875061277
 30
0.0
 10
107.8483696561976
 20
-148.9921115078908
 30
0.0
 10
107.8483696561976
 20
-148.9921115078908
 30
0.0
  0
SPLINE
  5
F9
330
EE
100
AcDbEntity
  8
レイヤー 1
100
AcDbSpline
210
0.0
220
0.0
230
1.0
 70
     9
 71
     3
 72
   203
 73
   199
 74
     0
 42
0.0000000001
 43
0.0000000001
 40
0.0
 40
0.0
 40
0.0
 40
0.0
 40
1.0
 40
1.0
 40
1.0
 40
2.0
 40
2.0
 40
2.0
 40
3.0
 40
3.0
 40
3.0
 40
4.0
 40
4.0
 40
4.0
 40
5.0
 40
5.0
 40
5.0
 40
6.0
 40
6.0
 40
6.0
 40
7.0
 40
7.0
 40
7.0
 40
8.0
 40
8.0
 40
8.0
 40
9.0
 40
9.0
 40
9.0
 40
10.0
 40
10.0
 40
10.0
 40
11.0
 40
11.0
 40
11.0
 40
12.0
 40
12.0
 40
12.0
 40
13.0
 40
13.0
 40
13.0
 40
14.0
 40
14.0
 40
14.0
 40
15.0
 40
15.0
 40
15.0
 40
16.0
 40
16.0
 40
16.0
 40
17.0
 40
17.0
 40
17.0
 40
18.0
 40
18.0
 40
18.0
 40
19.0
 40
19.0
 40
19.0
 40
20.0
 40
20.0
 40
20.0
 40
21.0
 40
21.0
 40
21.0
 40
22.0
 40
22.0
 40
22.0
 40
23.0
 40
23.0
 40
23.0
 40
24.0
 40
24.0
 40
24.0
 40
25.0
 40
25.0
 40
25.0
 40
26.0
 40
26.0
 40
26.0
 40
27.0
 40
27.0
 40
27.0
 40
28.0
 40
28.0
 40
28.0
 40
29.0
 40
29.0
 40
29.0
 40
30.0
 40
30.0
 40
30.0
 40
31.0
 40
31.0
 40
31.0
 40
32.0
 40
32.0
 40
32.0
 40
33.0
 40
33.0
 40
33.0
 40
34.0
 40
34.0
 40
34.0
 40
35.0
 40
35.0
 40
35.0
 40
36.0
 40
36.0
 40
36.0
 40
37.0
 40
37.0
 40
37.0
 40
38.0
 40
38.0
 40
38.0
 40
39.0
 40
39.0
 40
39.0
 40
40.0
 40
40.0
 40
40.0
 40
41.0
 40
41.0
 40
41.0
 40
42.0
 40
42.0
 40
42.0
 40
43.0
 40
43.0
 40
43.0
 40
44.0
 40
44.0
 40
44.0
 40
45.0
 40
45.0
 40
45.0
 40
46.0
 40
46.0
 40
46.0
 40
47.0
 40
47.0
 40
47.0
 40
48.0
 40
48.0
 40
48.0
 40
49.0
 40
49.0
 40
49.0
 40
50.0
 40
50.0
 40
50.0
 40
51.0
 40
51.0
 40
51.0
 40
52.0
 40
52.0
 40
52.0
 40
53.0
 40
53.0
 40
53.0
 40
54.0
 40
54.0
 40
54.0
 40
55.0
 40
55.0
 40
55.0
 40
56.0
 40
56.0
 40
56.0
 40
57.0
 40
57.0
 40
57.0
 40
58.0
 40
58.0
 40
58.0
 40
59.0
 40
59.0
 40
59.0
 40
60.0
 40
60.0
 40
60.0
 40
61.0
 40
61.0
 40
61.0
 40
62.0
 40
62.0
 40
62.0
 40
63.0
 40
63.0
 40
63.0
 40
64.0
 40
64.0
 40
64.0
 40
65.0
 40
65.0
 40
65.0
 40
66.0
 40
66.0
 40
66.0
 40
66.0
 10
107.6833495824542
 20
-148.7361409133368
 30
0.0
 10
107.6833495824542
 20
-148.7361409133368
 30
0.0
 10
107.1248996042951
 20
-148.7361409133368
 30
0.0
 10
107.1248996042951
 20
-148.7361409133368
 30
0.0
 10
107.1142198082909
 20
-148.7805826450965
 30
0.0
 10
107.1056070695777
 20
-148.8122775235608
 30
0.0
 10
107.0932047258309
 20
-148.8505180834471
 30
0.0
 10
107.1183539228732
 20
-148.8505180834471
 30
0.0
 10
107.1331678334597
 20
-148.8525851407382
 30
0.0
 10
107.1397135148817
 20
-148.8525851407382
 30
0.0
 10
107.1397135148817
 20
-148.8525851407382
 30
0.0
 10
107.3278157283763
 20
-148.8525851407382
 30
0.0
 10
107.3278157283763
 20
-148.8525851407382
 30
0.0
 10
107.3278157283763
 20
-148.8525851407382
 30
0.0
 10
107.702297607623
 20
-148.8525851407382
 30
0.0
 10
107.702297607623
 20
-148.8525851407382
 30
0.0
 10
107.7529405112562
 20
-148.8525851407382
 30
0.0
 10
108.0364718696922
 20
-148.8398382874428
 30
0.0
 10
108.0681667481566
 20
-148.8398382874428
 30
0.0
 10
108.0660996908654
 20
-148.8673990513248
 30
0.0
 10
108.0640326335742
 20
-148.8863470764937
 30
0.0
 10
108.0640326335742
 20
-148.9159748976668
 30
0.0
 10
108.0619655762831
 20
-148.9476697761311
 30
0.0
 10
108.0619655762831
 20
-149.0830620287014
 30
0.0
 10
108.0619655762831
 20
-149.1106227925834
 30
0.0
 10
108.0619655762831
 20
-149.1106227925834
 30
0.0
 10
108.0619655762831
 20
-149.3562581006818
 30
0.0
 10
108.0619655762831
 20
-149.3562581006818
 30
0.0
 10
108.0619655762831
 20
-149.4006998324415
 30
0.0
 10
108.0660996908654
 20
-149.5974147846492
 30
0.0
 10
108.0705783149962
 20
-149.7496880050973
 30
0.0
 10
108.0705783149962
 20
-149.7496880050973
 30
0.0
 10
107.8438910320668
 20
-149.7496880050973
 30
0.0
 10
107.8438910320668
 20
-149.7496880050973
 30
0.0
 10
107.8438910320668
 20
-149.7496880050973
 30
0.0
 10
107.8463025989065
 20
-149.7159260693418
 30
0.0
 10
107.8463025989065
 20
-149.7159260693418
 30
0.0
 10
107.8463025989065
 20
-149.7159260693418
 30
0.0
 10
107.143847629464
 20
-149.7159260693418
 30
0.0
 10
107.143847629464
 20
-149.7159260693418
 30
0.0
 10
107.143847629464
 20
-149.7159260693418
 30
0.0
 10
107.1459146867552
 20
-149.7496880050973
 30
0.0
 10
107.1459146867552
 20
-149.7496880050973
 30
0.0
 10
107.1459146867552
 20
-149.7496880050973
 30
0.0
 10
106.9281846520874
 20
-149.7496880050973
 30
0.0
 10
106.9281846520874
 20
-149.7496880050973
 30
0.0
 10
106.9323187666697
 20
-149.6945664773333
 30
0.0
 10
106.9323187666697
 20
-149.6818196240378
 30
0.0
 10
106.9385199385431
 20
-149.5677869634761
 30
0.0
 10
106.9405869958343
 20
-149.5402261995941
 30
0.0
 10
106.9429985626739
 20
-149.4069010043149
 30
0.0
 10
106.9429985626739
 20
-149.387952979146
 30
0.0
 10
106.9429985626739
 20
-149.387952979146
 30
0.0
 10
106.9429985626739
 20
-149.1846923455163
 30
0.0
 10
106.9429985626739
 20
-149.1846923455163
 30
0.0
 10
106.8031276859728
 20
-149.4344617681969
 30
0.0
 10
106.633973497647
 20
-149.5657199061849
 30
0.0
 10
106.5282090662499
 20
-149.6311767204047
 30
0.0
 10
106.5282090662499
 20
-149.6311767204047
 30
0.0
 10
106.3545762537933
 20
-149.4916503532521
 30
0.0
 10
106.3545762537933
 20
-149.4916503532521
 30
0.0
 10
106.4434597173127
 20
-149.4406629400704
 30
0.0
 10
106.5874647085962
 20
-149.3538465338421
 30
0.0
 10
106.7249240184576
 20
-149.159543148474
 30
0.0
 10
106.8158745392682
 20
-149.0324191250683
 30
0.0
 10
106.8816758630365
 20
-148.8887586433333
 30
0.0
 10
106.915437798792
 20
-148.7361409133368
 30
0.0
 10
106.6870279681199
 20
-148.7385524801765
 30
0.0
 10
106.5071939837898
 20
-148.7447536520499
 30
0.0
 10
106.4117648388484
 20
-148.7468207093411
 30
0.0
 10
106.4117648388484
 20
-148.7468207093411
 30
0.0
 10
106.4117648388484
 20
-148.5690537823022
 30
0.0
 10
106.4117648388484
 20
-148.5690537823022
 30
0.0
 10
106.6084797910562
 20
-148.5755994637241
 30
0.0
 10
106.8920111494922
 20
-148.5797335783064
 30
0.0
 10
107.0422173126492
 20
-148.5797335783064
 30
0.0
 10
107.0422173126492
 20
-148.5797335783064
 30
0.0
 10
107.2558132327346
 20
-148.5797335783064
 30
0.0
 10
107.2558132327346
 20
-148.5797335783064
 30
0.0
 10
107.2558132327346
 20
-148.5797335783064
 30
0.0
 10
107.2558132327346
 20
-148.4719020896181
 30
0.0
 10
107.2558132327346
 20
-148.4719020896181
 30
0.0
 10
107.2558132327346
 20
-148.4719020896181
 30
0.0
 10
107.1100856937086
 20
-148.4719020896181
 30
0.0
 10
107.1100856937086
 20
-148.4719020896181
 30
0.0
 10
106.9405869958343
 20
-148.4719020896181
 30
0.0
 10
106.7714328075085
 20
-148.4760362042004
 30
0.0
 10
106.6043456764739
 20
-148.4825818856224
 30
0.0
 10
106.6043456764739
 20
-148.4825818856224
 30
0.0
 10
106.6043456764739
 20
-148.311016130457
 30
0.0
 10
106.6043456764739
 20
-148.311016130457
 30
0.0
 10
106.7586859542131
 20
-148.3216959264612
 30
0.0
 10
106.9450656199651
 20
-148.3216959264612
 30
0.0
 10
107.1100856937086
 20
-148.3216959264612
 30
0.0
 10
107.1100856937086
 20
-148.3216959264612
 30
0.0
 10
107.2558132327346
 20
-148.3216959264612
 30
0.0
 10
107.2558132327346
 20
-148.3216959264612
 30
0.0
 10
107.2558132327346
 20
-148.3216959264612
 30
0.0
 10
107.2558132327346
 20
-148.2031846417686
 30
0.0
 10
107.2558132327346
 20
-148.2031846417686
 30
0.0
 10
107.2558132327346
 20
-148.2031846417686
 30
0.0
 10
107.1248996042951
 20
-148.2031846417686
 30
0.0
 10
107.1248996042951
 20
-148.2031846417686
 30
0.0
 10
107.0783908152443
 20
-148.2031846417686
 30
0.0
 10
106.8751301816145
 20
-148.2117973804817
 30
0.0
 10
106.8327555071459
 20
-148.2117973804817
 30
0.0
 10
106.6298393830647
 20
-148.215931495064
 30
0.0
 10
106.5537027728407
 20
-148.2179985523552
 30
0.0
 10
106.4754991053255
 20
-148.2200656096464
 30
0.0
 10
106.4754991053255
 20
-148.2200656096464
 30
0.0
 10
106.4754991053255
 20
-148.036097510734
 30
0.0
 10
106.4754991053255
 20
-148.036097510734
 30
0.0
 10
106.5895317658873
 20
-148.0443657398986
 30
0.0
 10
106.633973497647
 20
-148.0443657398986
 30
0.0
 10
107.0170681156068
 20
-148.0529784786117
 30
0.0
 10
106.9533338491297
 20
-147.9578938432188
 30
0.0
 10
106.9257730852477
 20
-147.9303330793368
 30
0.0
 10
106.8899440922011
 20
-147.8941595767417
 30
0.0
 10
106.8899440922011
 20
-147.8941595767417
 30
0.0
 10
107.0656439619488
 20
-147.8118217946442
 30
0.0
 10
107.0656439619488
 20
-147.8118217946442
 30
0.0
 10
107.1056070695777
 20
-147.8476507876908
 30
0.0
 10
107.1500488013375
 20
-147.8900254621594
 30
0.0
 10
107.2241183542703
 20
-147.9999240081389
 30
0.0
 10
107.2241183542703
 20
-147.9999240081389
 30
0.0
 10
107.1100856937086
 20
-148.0550455359029
 30
0.0
 10
107.1100856937086
 20
-148.0550455359029
 30
0.0
 10
107.1100856937086
 20
-148.0550455359029
 30
0.0
 10
107.1204209801643
 20
-148.0550455359029
 30
0.0
 10
107.1204209801643
 20
-148.0550455359029
 30
0.0
 10
107.1204209801643
 20
-148.0550455359029
 30
0.0
 10
107.6430419652767
 20
-148.0550455359029
 30
0.0
 10
107.6430419652767
 20
-148.0550455359029
 30
0.0
 10
107.6430419652767
 20
-148.0550455359029
 30
0.0
 10
107.5479573298838
 20
-148.0106038041432
 30
0.0
 10
107.5479573298838
 20
-148.0106038041432
 30
0.0
 10
107.5755180937658
 20
-147.9727077538054
 30
0.0
 10
107.6323621692724
 20
-147.8920925194506
 30
0.0
 10
107.647176079859
 20
-147.8180229665177
 30
0.0
 10
107.647176079859
 20
-147.8180229665177
 30
0.0
 10
107.861116509493
 20
-147.8817572329948
 30
0.0
 10
107.861116509493
 20
-147.8817572329948
 30
0.0
 10
107.8693847386576
 20
-147.883824290286
 30
0.0
 10
107.8907443306662
 20
-147.8941595767417
 30
0.0
 10
107.8907443306662
 20
-147.9155191687503
 30
0.0
 10
107.8907443306662
 20
-147.953415219088
 30
0.0
 10
107.8249430068979
 20
-147.953415219088
 30
0.0
 10
107.805994981729
 20
-147.953415219088
 30
0.0
 10
107.7953151857248
 20
-147.9727077538054
 30
0.0
 10
107.7722330459736
 20
-148.0126708614343
 30
0.0
 10
107.7426052248005
 20
-148.0529784786117
 30
0.0
 10
108.1422363010894
 20
-148.0467773067383
 30
0.0
 10
108.1718641222626
 20
-148.0443657398986
 30
0.0
 10
108.2480007324866
 20
-148.0381645680252
 30
0.0
 10
108.2480007324866
 20
-148.0381645680252
 30
0.0
 10
108.2480007324866
 20
-148.2200656096464
 30
0.0
 10
108.2480007324866
 20
-148.2200656096464
 30
0.0
 10
108.2290527073177
 20
-148.2200656096464
 30
0.0
 10
108.2035590007269
 20
-148.2179985523552
 30
0.0
 10
107.9837619087679
 20
-148.2093858136421
 30
0.0
 10
107.9327744955862
 20
-148.2073187563509
 30
0.0
 10
107.7129774036273
 20
-148.2031846417686
 30
0.0
 10
107.6685356718676
 20
-148.2031846417686
 30
0.0
 10
107.6685356718676
 20
-148.2031846417686
 30
0.0
 10
107.4525281849424
 20
-148.2031846417686
 30
0.0
 10
107.4525281849424
 20
-148.2031846417686
 30
0.0
 10
107.4525281849424
 20
-148.2031846417686
 30
0.0
 10
107.4525281849424
 20
-148.3216959264612
 30
0.0
 10
107.4525281849424
 20
-148.3216959264612
 30
0.0
 10
107.4525281849424
 20
-148.3216959264612
 30
0.0
 10
107.626160997399
 20
-148.3216959264612
 30
0.0
 10
107.626160997399
 20
-148.3216959264612
 30
0.0
 10
107.7891140138513
 20
-148.3216959264612
 30
0.0
 10
107.9792832846371
 20
-148.3216959264612
 30
0.0
 10
108.136035129216
 20
-148.311016130457
 30
0.0
 10
108.136035129216
 20
-148.311016130457
 30
0.0
 10
108.136035129216
 20
-148.4825818856224
 30
0.0
 10
108.136035129216
 20
-148.4825818856224
 30
0.0
 10
107.9265733237128
 20
-148.4739691469093
 30
0.0
 10
107.729858371505
 20
-148.4719020896181
 30
0.0
 10
107.626160997399
 20
-148.4719020896181
 30
0.0
 10
107.626160997399
 20
-148.4719020896181
 30
0.0
 10
107.4525281849424
 20
-148.4719020896181
 30
0.0
 10
107.4525281849424
 20
-148.4719020896181
 30
0.0
 10
107.4525281849424
 20
-148.4719020896181
 30
0.0
 10
107.4525281849424
 20
-148.5797335783064
 30
0.0
 10
107.4525281849424
 20
-148.5797335783064
 30
0.0
 10
107.4525281849424
 20
-148.5797335783064
 30
0.0
 10
107.6833495824542
 20
-148.5797335783064
 30
0.0
 10
107.6833495824542
 20
-148.5797335783064
 30
0.0
 10
107.8166747777333
 20
-148.5797335783064
 30
0.0
 10
108.1043402507517
 20
-148.5755994637241
 30
0.0
 10
108.3138020562549
 20
-148.5690537823022
 30
0.0
 10
108.3138020562549
 20
-148.5690537823022
 30
0.0
 10
108.3138020562549
 20
-148.7468207093411
 30
0.0
 10
108.3138020562549
 20
-148.7468207093411
 30
0.0
 10
108.1212212186294
 20
-148.7406195374676
 30
0.0
 10
107.8080620390202
 20
-148.7361409133368
 30
0.0
 10
107.6833495824542
 20
-148.7361409133368
 30
0.0
  0
HATCH
  5
FA
330
EE
100
AcDbEntity
  8
レイヤー 1
 62
    18
420
        0
440
 33554687
100
AcDbHatch
 10
0.0
 20
0.0
 30
0.0
210
0.0
220
0.0
230
1.0
  2
SOLID
 70
     1
 71
     1
 91
        4
 92
        1
 93
        1
 72
     4
 94
        3
 73
     0
 74
     0
 95
       17
 96
       13
 40
0.0
 40
0.0
 40
0.0
 40
0.0
 40
1.0
 40
1.0
 40
1.0
 40
2.0
 40
2.0
 40
2.0
 40
3.0
 40
3.0
 40
3.0
 40
4.0
 40
4.0
 40
4.0
 40
4.0
 10
107.8483696561976
 20
-149.4682237039524
 10
107.8483696561976
 20
-149.4682237039524
 10
107.1417805721729
 20
-149.4682237039524
 10
107.1417805721729
 20
-149.4682237039524
 10
107.1417805721729
 20
-149.4682237039524
 10
107.1417805721729
 20
-149.5826008740626
 10
107.1417805721729
 20
-149.5826008740626
 10
107.1417805721729
 20
-149.5826008740626
 10
107.8483696561976
 20
-149.5826008740626
 10
107.8483696561976
 20
-149.5826008740626
 10
107.8483696561976
 20
-149.5826008740626
 10
107.8483696561976
 20
-149.4682237039524
 10
107.8483696561976
 20
-149.4682237039524
 97
        0
 97
        1
330
F6
 92
        1
 93
        1
 72
     4
 94
        3
 73
     0
 74
     0
 95
       17
 96
       13
 40
0.0
 40
0.0
 40
0.0
 40
0.0
 40
1.0
 40
1.0
 40
1.0
 40
2.0
 40
2.0
 40
2.0
 40
3.0
 40
3.0
 40
3.0
 40
4.0
 40
4.0
 40
4.0
 40
4.0
 10
107.8483696561976
 20
-149.2249999626937
 10
107.8483696561976
 20
-149.2249999626937
 10
107.1417805721729
 20
-149.2249999626937
 10
107.1417805721729
 20
-149.2249999626937
 10
107.1417805721729
 20
-149.2249999626937
 10
107.1417805721729
 20
-149.339377132804
 10
107.1417805721729
 20
-149.339377132804
 10
107.1417805721729
 20
-149.339377132804
 10
107.8483696561976
 20
-149.339377132804
 10
107.8483696561976
 20
-149.339377132804
 10
107.8483696561976
 20
-149.339377132804
 10
107.8483696561976
 20
-149.2249999626937
 10
107.8483696561976
 20
-149.2249999626937
 97
        0
 97
        1
330
F7
 92
        1
 93
        1
 72
     4
 94
        3
 73
     0
 74
     0
 95
       17
 96
       13
 40
0.0
 40
0.0
 40
0.0
 40
0.0
 40
1.0
 40
1.0
 40
1.0
 40
2.0
 40
2.0
 40
2.0
 40
3.0
 40
3.0
 40
3.0
 40
4.0
 40
4.0
 40
4.0
 40
4.0
 10
107.8483696561976
 20
-148.9921115078908
 10
107.8483696561976
 20
-148.9921115078908
 10
107.1417805721729
 20
-148.9921115078908
 10
107.1417805721729
 20
-148.9921115078908
 10
107.1417805721729
 20
-148.9921115078908
 10
107.1417805721729
 20
-149.1002875061277
 10
107.1417805721729
 20
-149.1002875061277
 10
107.1417805721729
 20
-149.1002875061277
 10
107.8483696561976
 20
-149.1002875061277
 10
107.8483696561976
 20
-149.1002875061277
 10
107.8483696561976
 20
-149.1002875061277
 10
107.8483696561976
 20
-148.9921115078908
 10
107.8483696561976
 20
-148.9921115078908
 97
        0
 97
        1
330
F8
 92
        1
 93
        1
 72
     4
 94
        3
 73
     0
 74
     0
 95
      203
 96
      199
 40
0.0
 40
0.0
 40
0.0
 40
0.0
 40
1.0
 40
1.0
 40
1.0
 40
2.0
 40
2.0
 40
2.0
 40
3.0
 40
3.0
 40
3.0
 40
4.0
 40
4.0
 40
4.0
 40
5.0
 40
5.0
 40
5.0
 40
6.0
 40
6.0
 40
6.0
 40
7.0
 40
7.0
 40
7.0
 40
8.0
 40
8.0
 40
8.0
 40
9.0
 40
9.0
 40
9.0
 40
10.0
 40
10.0
 40
10.0
 40
11.0
 40
11.0
 40
11.0
 40
12.0
 40
12.0
 40
12.0
 40
13.0
 40
13.0
 40
13.0
 40
14.0
 40
14.0
 40
14.0
 40
15.0
 40
15.0
 40
15.0
 40
16.0
 40
16.0
 40
16.0
 40
17.0
 40
17.0
 40
17.0
 40
18.0
 40
18.0
 40
18.0
 40
19.0
 40
19.0
 40
19.0
 40
20.0
 40
20.0
 40
20.0
 40
21.0
 40
21.0
 40
21.0
 40
22.0
 40
22.0
 40
22.0
 40
23.0
 40
23.0
 40
23.0
 40
24.0
 40
24.0
 40
24.0
 40
25.0
 40
25.0
 40
25.0
 40
26.0
 40
26.0
 40
26.0
 40
27.0
 40
27.0
 40
27.0
 40
28.0
 40
28.0
 40
28.0
 40
29.0
 40
29.0
 40
29.0
 40
30.0
 40
30.0
 40
30.0
 40
31.0
 40
31.0
 40
31.0
 40
32.0
 40
32.0
 40
32.0
 40
33.0
 40
33.0
 40
33.0
 40
34.0
 40
34.0
 40
34.0
 40
35.0
 40
35.0
 40
35.0
 40
36.0
 40
36.0
 40
36.0
 40
37.0
 40
37.0
 40
37.0
 40
38.0
 40
38.0
 40
38.0
 40
39.0
 40
39.0
 40
39.0
 40
40.0
 40
40.0
 40
40.0
 40
41.0
 40
41.0
 40
41.0
 40
42.0
 40
42.0
 40
42.0
 40
43.0
 40
43.0
 40
43.0
 40
44.0
 40
44.0
 40
44.0
 40
45.0
 40
45.0
 40
45.0
 40
46.0
 40
46.0
 40
46.0
 40
47.0
 40
47.0
 40
47.0
 40
48.0
 40
48.0
 40
48.0
 40
49.0
 40
49.0
 40
49.0
 40
50.0
 40
50.0
 40
50.0
 40
51.0
 40
51.0
 40
51.0
 40
52.0
 40
52.0
 40
52.0
 40
53.0
 40
53.0
 40
53.0
 40
54.0
 40
54.0
 40
54.0
 40
55.0
 40
55.0
 40
55.0
 40
56.0
 40
56.0
 40
56.0
 40
57.0
 40
57.0
 40
57.0
 40
58.0
 40
58.0
 40
58.0
 40
59.0
 40
59.0
 40
59.0
 40
60.0
 40
60.0
 40
60.0
 40
61.0
 40
61.0
 40
61.0
 40
62.0
 40
62.0
 40
62.0
 40
63.0
 40
63.0
 40
63.0
 40
64.0
 40
64.0
 40
64.0
 40
65.0
 40
65.0
 40
65.0
 40
66.0
 40
66.0
 40
66.0
 40
66.0
 10
107.6833495824542
 20
-148.7361409133368
 10
107.6833495824542
 20
-148.7361409133368
 10
107.1248996042951
 20
-148.7361409133368
 10
107.1248996042951
 20
-148.7361409133368
 10
107.1142198082909
 20
-148.7805826450965
 10
107.1056070695777
 20
-148.8122775235608
 10
107.0932047258309
 20
-148.8505180834471
 10
107.1183539228732
 20
-148.8505180834471
 10
107.1331678334597
 20
-148.8525851407382
 10
107.1397135148817
 20
-148.8525851407382
 10
107.1397135148817
 20
-148.8525851407382
 10
107.3278157283763
 20
-148.8525851407382
 10
107.3278157283763
 20
-148.8525851407382
 10
107.3278157283763
 20
-148.8525851407382
 10
107.702297607623
 20
-148.8525851407382
 10
107.702297607623
 20
-148.8525851407382
 10
107.7529405112562
 20
-148.8525851407382
 10
108.0364718696922
 20
-148.8398382874428
 10
108.0681667481566
 20
-148.8398382874428
 10
108.0660996908654
 20
-148.8673990513248
 10
108.0640326335742
 20
-148.8863470764937
 10
108.0640326335742
 20
-148.9159748976668
 10
108.0619655762831
 20
-148.9476697761311
 10
108.0619655762831
 20
-149.0830620287014
 10
108.0619655762831
 20
-149.1106227925834
 10
108.0619655762831
 20
-149.1106227925834
 10
108.0619655762831
 20
-149.3562581006818
 10
108.0619655762831
 20
-149.3562581006818
 10
108.0619655762831
 20
-149.4006998324415
 10
108.0660996908654
 20
-149.5974147846492
 10
108.0705783149962
 20
-149.7496880050973
 10
108.0705783149962
 20
-149.7496880050973
 10
107.8438910320668
 20
-149.7496880050973
 10
107.8438910320668
 20
-149.7496880050973
 10
107.8438910320668
 20
-149.7496880050973
 10
107.8463025989065
 20
-149.7159260693418
 10
107.8463025989065
 20
-149.7159260693418
 10
107.8463025989065
 20
-149.7159260693418
 10
107.143847629464
 20
-149.7159260693418
 10
107.143847629464
 20
-149.7159260693418
 10
107.143847629464
 20
-149.7159260693418
 10
107.1459146867552
 20
-149.7496880050973
 10
107.1459146867552
 20
-149.7496880050973
 10
107.1459146867552
 20
-149.7496880050973
 10
106.9281846520874
 20
-149.7496880050973
 10
106.9281846520874
 20
-149.7496880050973
 10
106.9323187666697
 20
-149.6945664773333
 10
106.9323187666697
 20
-149.6818196240378
 10
106.9385199385431
 20
-149.5677869634761
 10
106.9405869958343
 20
-149.5402261995941
 10
106.9429985626739
 20
-149.4069010043149
 10
106.9429985626739
 20
-149.387952979146
 10
106.9429985626739
 20
-149.387952979146
 10
106.9429985626739
 20
-149.1846923455163
 10
106.9429985626739
 20
-149.1846923455163
 10
106.8031276859728
 20
-149.4344617681969
 10
106.633973497647
 20
-149.5657199061849
 10
106.5282090662499
 20
-149.6311767204047
 10
106.5282090662499
 20
-149.6311767204047
 10
106.3545762537933
 20
-149.4916503532521
 10
106.3545762537933
 20
-149.4916503532521
 10
106.4434597173127
 20
-149.4406629400704
 10
106.5874647085962
 20
-149.3538465338421
 10
106.7249240184576
 20
-149.159543148474
 10
106.8158745392682
 20
-149.0324191250683
 10
106.8816758630365
 20
-148.8887586433333
 10
106.915437798792
 20
-148.7361409133368
 10
106.6870279681199
 20
-148.7385524801765
 10
106.5071939837898
 20
-148.7447536520499
 10
106.4117648388484
 20
-148.7468207093411
 10
106.4117648388484
 20
-148.7468207093411
 10
106.4117648388484
 20
-148.5690537823022
 10
106.4117648388484
 20
-148.5690537823022
 10
106.6084797910562
 20
-148.5755994637241
 10
106.8920111494922
 20
-148.5797335783064
 10
107.0422173126492
 20
-148.5797335783064
 10
107.0422173126492
 20
-148.5797335783064
 10
107.2558132327346
 20
-148.5797335783064
 10
107.2558132327346
 20
-148.5797335783064
 10
107.2558132327346
 20
-148.5797335783064
 10
107.2558132327346
 20
-148.4719020896181
 10
107.2558132327346
 20
-148.4719020896181
 10
107.2558132327346
 20
-148.4719020896181
 10
107.1100856937086
 20
-148.4719020896181
 10
107.1100856937086
 20
-148.4719020896181
 10
106.9405869958343
 20
-148.4719020896181
 10
106.7714328075085
 20
-148.4760362042004
 10
106.6043456764739
 20
-148.4825818856224
 10
106.6043456764739
 20
-148.4825818856224
 10
106.6043456764739
 20
-148.311016130457
 10
106.6043456764739
 20
-148.311016130457
 10
106.7586859542131
 20
-148.3216959264612
 10
106.9450656199651
 20
-148.3216959264612
 10
107.1100856937086
 20
-148.3216959264612
 10
107.1100856937086
 20
-148.3216959264612
 10
107.2558132327346
 20
-148.3216959264612
 10
107.2558132327346
 20
-148.3216959264612
 10
107.2558132327346
 20
-148.3216959264612
 10
107.2558132327346
 20
-148.2031846417686
 10
107.2558132327346
 20
-148.2031846417686
 10
107.2558132327346
 20
-148.2031846417686
 10
107.1248996042951
 20
-148.2031846417686
 10
107.1248996042951
 20
-148.2031846417686
 10
107.0783908152443
 20
-148.2031846417686
 10
106.8751301816145
 20
-148.2117973804817
 10
106.8327555071459
 20
-148.2117973804817
 10
106.6298393830647
 20
-148.215931495064
 10
106.5537027728407
 20
-148.2179985523552
 10
106.4754991053255
 20
-148.2200656096464
 10
106.4754991053255
 20
-148.2200656096464
 10
106.4754991053255
 20
-148.036097510734
 10
106.4754991053255
 20
-148.036097510734
 10
106.5895317658873
 20
-148.0443657398986
 10
106.633973497647
 20
-148.0443657398986
 10
107.0170681156068
 20
-148.0529784786117
 10
106.9533338491297
 20
-147.9578938432188
 10
106.9257730852477
 20
-147.9303330793368
 10
106.8899440922011
 20
-147.8941595767417
 10
106.8899440922011
 20
-147.8941595767417
 10
107.0656439619488
 20
-147.8118217946442
 10
107.0656439619488
 20
-147.8118217946442
 10
107.1056070695777
 20
-147.8476507876908
 10
107.1500488013375
 20
-147.8900254621594
 10
107.2241183542703
 20
-147.9999240081389
 10
107.2241183542703
 20
-147.9999240081389
 10
107.1100856937086
 20
-148.0550455359029
 10
107.1100856937086
 20
-148.0550455359029
 10
107.1100856937086
 20
-148.0550455359029
 10
107.1204209801643
 20
-148.0550455359029
 10
107.1204209801643
 20
-148.0550455359029
 10
107.1204209801643
 20
-148.0550455359029
 10
107.6430419652767
 20
-148.0550455359029
 10
107.6430419652767
 20
-148.0550455359029
 10
107.6430419652767
 20
-148.0550455359029
 10
107.5479573298838
 20
-148.0106038041432
 10
107.5479573298838
 20
-148.0106038041432
 10
107.5755180937658
 20
-147.9727077538054
 10
107.6323621692724
 20
-147.8920925194506
 10
107.647176079859
 20
-147.8180229665177
 10
107.647176079859
 20
-147.8180229665177
 10
107.861116509493
 20
-147.8817572329948
 10
107.861116509493
 20
-147.8817572329948
 10
107.8693847386576
 20
-147.883824290286
 10
107.8907443306662
 20
-147.8941595767417
 10
107.8907443306662
 20
-147.9155191687503
 10
107.8907443306662
 20
-147.953415219088
 10
107.8249430068979
 20
-147.953415219088
 10
107.805994981729
 20
-147.953415219088
 10
107.7953151857248
 20
-147.9727077538054
 10
107.7722330459736
 20
-148.0126708614343
 10
107.7426052248005
 20
-148.0529784786117
 10
108.1422363010894
 20
-148.0467773067383
 10
108.1718641222626
 20
-148.0443657398986
 10
108.2480007324866
 20
-148.0381645680252
 10
108.2480007324866
 20
-148.0381645680252
 10
108.2480007324866
 20
-148.2200656096464
 10
108.2480007324866
 20
-148.2200656096464
 10
108.2290527073177
 20
-148.2200656096464
 10
108.2035590007269
 20
-148.2179985523552
 10
107.9837619087679
 20
-148.2093858136421
 10
107.9327744955862
 20
-148.2073187563509
 10
107.7129774036273
 20
-148.2031846417686
 10
107.6685356718676
 20
-148.2031846417686
 10
107.6685356718676
 20
-148.2031846417686
 10
107.4525281849424
 20
-148.2031846417686
 10
107.4525281849424
 20
-148.2031846417686
 10
107.4525281849424
 20
-148.2031846417686
 10
107.4525281849424
 20
-148.3216959264612
 10
107.4525281849424
 20
-148.3216959264612
 10
107.4525281849424
 20
-148.3216959264612
 10
107.626160997399
 20
-148.3216959264612
 10
107.626160997399
 20
-148.3216959264612
 10
107.7891140138513
 20
-148.3216959264612
 10
107.9792832846371
 20
-148.3216959264612
 10
108.136035129216
 20
-148.311016130457
 10
108.136035129216
 20
-148.311016130457
 10
108.136035129216
 20
-148.4825818856224
 10
108.136035129216
 20
-148.4825818856224
 10
107.9265733237128
 20
-148.4739691469093
 10
107.729858371505
 20
-148.4719020896181
 10
107.626160997399
 20
-148.4719020896181
 10
107.626160997399
 20
-148.4719020896181
 10
107.4525281849424
 20
-148.4719020896181
 10
107.4525281849424
 20
-148.4719020896181
 10
107.4525281849424
 20
-148.4719020896181
 10
107.4525281849424
 20
-148.5797335783064
 10
107.4525281849424
 20
-148.5797335783064
 10
107.4525281849424
 20
-148.5797335783064
 10
107.6833495824542
 20
-148.5797335783064
 10
107.6833495824542
 20
-148.5797335783064
 10
107.8166747777333
 20
-148.5797335783064
 10
108.1043402507517
 20
-148.5755994637241
 10
108.3138020562549
 20
-148.5690537823022
 10
108.3138020562549
 20
-148.5690537823022
 10
108.3138020562549
 20
-148.7468207093411
 10
108.3138020562549
 20
-148.7468207093411
 10
108.1212212186294
 20
-148.7406195374676
 10
107.8080620390202
 20
-148.7361409133368
 10
107.6833495824542
 20
-148.7361409133368
 97
        0
 97
        1
330
F9
 75
     2
 76
     1
 98
        1
 10
0.0
 20
0.0
450
        0
451
        0
460
0.0
461
0.0
452
        0
462
0.0
453
        0
470

  0
SPLINE
  5
FB
330
EE
100
AcDbEntity
  8
レイヤー 1
100
AcDbSpline
210
0.0
220
0.0
230
1.0
 70
     9
 71
     3
 72
    29
 73
    25
 74
     0
 42
0.0000000001
 43
0.0000000001
 40
0.0
 40
0.0
 40
0.0
 40
0.0
 40
1.0
 40
1.0
 40
1.0
 40
2.0
 40
2.0
 40
2.0
 40
3.0
 40
3.0
 40
3.0
 40
4.0
 40
4.0
 40
4.0
 40
5.0
 40
5.0
 40
5.0
 40
6.0
 40
6.0
 40
6.0
 40
7.0
 40
7.0
 40
7.0
 40
8.0
 40
8.0
 40
8.0
 40
8.0
 10
109.5588595646242
 20
-148.1842366165998
 30
0.0
 10
109.5588595646242
 20
-148.1842366165998
 30
0.0
 10
109.2053927678375
 20
-148.1842366165998
 30
0.0
 10
109.2053927678375
 20
-148.1842366165998
 30
0.0
 10
109.0934271645669
 20
-148.1842366165998
 30
0.0
 10
108.9539007974143
 20
-148.1904377884732
 30
0.0
 10
108.8457247991774
 20
-148.2031846417686
 30
0.0
 10
108.8457247991774
 20
-148.2031846417686
 30
0.0
 10
108.8457247991774
 20
-147.9682291296746
 30
0.0
 10
108.8457247991774
 20
-147.9682291296746
 30
0.0
 10
108.96423608387
 20
-147.9830430402611
 30
0.0
 10
109.1482041827824
 20
-147.987521664392
 30
0.0
 10
109.2053927678375
 20
-147.987521664392
 30
0.0
 10
109.2053927678375
 20
-147.987521664392
 30
0.0
 10
109.5588595646242
 20
-147.987521664392
 30
0.0
 10
109.5588595646242
 20
-147.987521664392
 30
0.0
 10
109.577807589793
 20
-147.987521664392
 30
0.0
 10
109.7810682234228
 20
-147.987521664392
 30
0.0
 10
109.9226616478665
 20
-147.9682291296746
 30
0.0
 10
109.9226616478665
 20
-147.9682291296746
 30
0.0
 10
109.9226616478665
 20
-148.2031846417686
 30
0.0
 10
109.9226616478665
 20
-148.2031846417686
 30
0.0
 10
109.7662543128362
 20
-148.1842366165998
 30
0.0
 10
109.5757405325019
 20
-148.1842366165998
 30
0.0
 10
109.5588595646242
 20
-148.1842366165998
 30
0.0
  0
SPLINE
  5
FC
330
EE
100
AcDbEntity
  8
レイヤー 1
100
AcDbSpline
210
0.0
220
0.0
230
1.0
 70
     9
 71
     3
 72
    47
 73
    43
 74
     0
 42
0.0000000001
 43
0.0000000001
 40
0.0
 40
0.0
 40
0.0
 40
0.0
 40
1.0
 40
1.0
 40
1.0
 40
2.0
 40
2.0
 40
2.0
 40
3.0
 40
3.0
 40
3.0
 40
4.0
 40
4.0
 40
4.0
 40
5.0
 40
5.0
 40
5.0
 40
6.0
 40
6.0
 40
6.0
 40
7.0
 40
7.0
 40
7.0
 40
8.0
 40
8.0
 40
8.0
 40
9.0
 40
9.0
 40
9.0
 40
10.0
 40
10.0
 40
10.0
 40
11.0
 40
11.0
 40
11.0
 40
12.0
 40
12.0
 40
12.0
 40
13.0
 40
13.0
 40
13.0
 40
14.0
 40
14.0
 40
14.0
 40
14.0
 10
109.6601453718905
 20
-148.7130587735856
 30
0.0
 10
109.6601453718905
 20
-148.7130587735856
 30
0.0
 10
109.5588595646242
 20
-148.7130587735856
 30
0.0
 10
109.5588595646242
 20
-148.7130587735856
 30
0.0
 10
109.5588595646242
 20
-148.7998751798139
 30
0.0
 10
109.5374999726156
 20
-149.1891709696471
 30
0.0
 10
109.3407850204078
 20
-149.4089680616061
 30
0.0
 10
109.1885117999598
 20
-149.5781222499318
 30
0.0
 10
108.9811170517478
 20
-149.6480576882824
 30
0.0
 10
108.8967122123591
 20
-149.6756184521644
 30
0.0
 10
108.8967122123591
 20
-149.6756184521644
 30
0.0
 10
108.7020643174425
 20
-149.5085313211298
 30
0.0
 10
108.7020643174425
 20
-149.5085313211298
 30
0.0
 10
108.7992160101266
 20
-149.4957844678344
 30
0.0
 10
108.9749158798743
 20
-149.4723578185347
 30
0.0
 10
109.1630180933689
 20
-149.28425560504
 30
0.0
 10
109.2370876463018
 20
-149.2122531093983
 30
0.0
 10
109.3407850204078
 20
-149.0727267422457
 30
0.0
 10
109.3407850204078
 20
-148.7130587735856
 30
0.0
 10
109.3407850204078
 20
-148.7130587735856
 30
0.0
 10
109.1103081324446
 20
-148.7130587735856
 30
0.0
 10
109.1103081324446
 20
-148.7130587735856
 30
0.0
 10
108.9242729762411
 20
-148.7130587735856
 30
0.0
 10
108.7378933104891
 20
-148.7171928881679
 30
0.0
 10
108.5518581542856
 20
-148.7320067987545
 30
0.0
 10
108.5518581542856
 20
-148.7320067987545
 30
0.0
 10
108.5518581542856
 20
-148.5122097067955
 30
0.0
 10
108.5518581542856
 20
-148.5122097067955
 30
0.0
 10
108.7399603677803
 20
-148.5270236173821
 30
0.0
 10
109.0255587835075
 20
-148.5311577319644
 30
0.0
 10
109.1103081324446
 20
-148.5311577319644
 30
0.0
 10
109.1103081324446
 20
-148.5311577319644
 30
0.0
 10
109.6601453718905
 20
-148.5311577319644
 30
0.0
 10
109.6601453718905
 20
-148.5311577319644
 30
0.0
 10
109.6794379066079
 20
-148.5311577319644
 30
0.0
 10
109.9967312007994
 20
-148.5311577319644
 30
0.0
 10
110.2251410314715
 20
-148.5122097067955
 30
0.0
 10
110.2251410314715
 20
-148.5122097067955
 30
0.0
 10
110.2251410314715
 20
-148.7320067987545
 30
0.0
 10
110.2251410314715
 20
-148.7320067987545
 30
0.0
 10
110.0370388179768
 20
-148.7171928881679
 30
0.0
 10
109.8485920949337
 20
-148.7130587735856
 30
0.0
 10
109.6601453718905
 20
-148.7130587735856
 30
0.0
  0
HATCH
  5
FD
330
EE
100
AcDbEntity
  8
レイヤー 1
 62
    18
420
        0
440
 33554687
100
AcDbHatch
 10
0.0
 20
0.0
 30
0.0
210
0.0
220
0.0
230
1.0
  2
SOLID
 70
     1
 71
     1
 91
        2
 92
        1
 93
        1
 72
     4
 94
        3
 73
     0
 74
     0
 95
       29
 96
       25
 40
0.0
 40
0.0
 40
0.0
 40
0.0
 40
1.0
 40
1.0
 40
1.0
 40
2.0
 40
2.0
 40
2.0
 40
3.0
 40
3.0
 40
3.0
 40
4.0
 40
4.0
 40
4.0
 40
5.0
 40
5.0
 40
5.0
 40
6.0
 40
6.0
 40
6.0
 40
7.0
 40
7.0
 40
7.0
 40
8.0
 40
8.0
 40
8.0
 40
8.0
 10
109.5588595646242
 20
-148.1842366165998
 10
109.5588595646242
 20
-148.1842366165998
 10
109.2053927678375
 20
-148.1842366165998
 10
109.2053927678375
 20
-148.1842366165998
 10
109.0934271645669
 20
-148.1842366165998
 10
108.9539007974143
 20
-148.1904377884732
 10
108.8457247991774
 20
-148.2031846417686
 10
108.8457247991774
 20
-148.2031846417686
 10
108.8457247991774
 20
-147.9682291296746
 10
108.8457247991774
 20
-147.9682291296746
 10
108.96423608387
 20
-147.9830430402611
 10
109.1482041827824
 20
-147.987521664392
 10
109.2053927678375
 20
-147.987521664392
 10
109.2053927678375
 20
-147.987521664392
 10
109.5588595646242
 20
-147.987521664392
 10
109.5588595646242
 20
-147.987521664392
 10
109.577807589793
 20
-147.987521664392
 10
109.7810682234228
 20
-147.987521664392
 10
109.9226616478665
 20
-147.9682291296746
 10
109.9226616478665
 20
-147.9682291296746
 10
109.9226616478665
 20
-148.2031846417686
 10
109.9226616478665
 20
-148.2031846417686
 10
109.7662543128362
 20
-148.1842366165998
 10
109.5757405325019
 20
-148.1842366165998
 10
109.5588595646242
 20
-148.1842366165998
 97
        0
 97
        1
330
FB
 92
        1
 93
        1
 72
     4
 94
        3
 73
     0
 74
     0
 95
       47
 96
       43
 40
0.0
 40
0.0
 40
0.0
 40
0.0
 40
1.0
 40
1.0
 40
1.0
 40
2.0
 40
2.0
 40
2.0
 40
3.0
 40
3.0
 40
3.0
 40
4.0
 40
4.0
 40
4.0
 40
5.0
 40
5.0
 40
5.0
 40
6.0
 40
6.0
 40
6.0
 40
7.0
 40
7.0
 40
7.0
 40
8.0
 40
8.0
 40
8.0
 40
9.0
 40
9.0
 40
9.0
 40
10.0
 40
10.0
 40
10.0
 40
11.0
 40
11.0
 40
11.0
 40
12.0
 40
12.0
 40
12.0
 40
13.0
 40
13.0
 40
13.0
 40
14.0
 40
14.0
 40
14.0
 40
14.0
 10
109.6601453718905
 20
-148.7130587735856
 10
109.6601453718905
 20
-148.7130587735856
 10
109.5588595646242
 20
-148.7130587735856
 10
109.5588595646242
 20
-148.7130587735856
 10
109.5588595646242
 20
-148.7998751798139
 10
109.5374999726156
 20
-149.1891709696471
 10
109.3407850204078
 20
-149.4089680616061
 10
109.1885117999598
 20
-149.5781222499318
 10
108.9811170517478
 20
-149.6480576882824
 10
108.8967122123591
 20
-149.6756184521644
 10
108.8967122123591
 20
-149.6756184521644
 10
108.7020643174425
 20
-149.5085313211298
 10
108.7020643174425
 20
-149.5085313211298
 10
108.7992160101266
 20
-149.4957844678344
 10
108.9749158798743
 20
-149.4723578185347
 10
109.1630180933689
 20
-149.28425560504
 10
109.2370876463018
 20
-149.2122531093983
 10
109.3407850204078
 20
-149.0727267422457
 10
109.3407850204078
 20
-148.7130587735856
 10
109.3407850204078
 20
-148.7130587735856
 10
109.1103081324446
 20
-148.7130587735856
 10
109.1103081324446
 20
-148.7130587735856
 10
108.9242729762411
 20
-148.7130587735856
 10
108.7378933104891
 20
-148.7171928881679
 10
108.5518581542856
 20
-148.7320067987545
 10
108.5518581542856
 20
-148.7320067987545
 10
108.5518581542856
 20
-148.5122097067955
 10
108.5518581542856
 20
-148.5122097067955
 10
108.7399603677803
 20
-148.5270236173821
 10
109.0255587835075
 20
-148.5311577319644
 10
109.1103081324446
 20
-148.5311577319644
 10
109.1103081324446
 20
-148.5311577319644
 10
109.6601453718905
 20
-148.5311577319644
 10
109.6601453718905
 20
-148.5311577319644
 10
109.6794379066079
 20
-148.5311577319644
 10
109.9967312007994
 20
-148.5311577319644
 10
110.2251410314715
 20
-148.5122097067955
 10
110.2251410314715
 20
-148.5122097067955
 10
110.2251410314715
 20
-148.7320067987545
 10
110.2251410314715
 20
-148.7320067987545
 10
110.0370388179768
 20
-148.7171928881679
 10
109.8485920949337
 20
-148.7130587735856
 10
109.6601453718905
 20
-148.7130587735856
 97
        0
 97
        1
330
FC
 75
     2
 76
     1
 98
        1
 10
0.0
 20
0.0
450
        0
451
        0
460
0.0
461
0.0
452
        0
462
0.0
453
        0
470

  0
SPLINE
  5
FE
330
EE
100
AcDbEntity
  8
レイヤー 1
100
AcDbSpline
210
0.0
220
0.0
230
1.0
 70
     9
 71
     3
 72
    29
 73
    25
 74
     0
 42
0.0000000001
 43
0.0000000001
 40
0.0
 40
0.0
 40
0.0
 40
0.0
 40
1.0
 40
1.0
 40
1.0
 40
2.0
 40
2.0
 40
2.0
 40
3.0
 40
3.0
 40
3.0
 40
4.0
 40
4.0
 40
4.0
 40
5.0
 40
5.0
 40
5.0
 40
6.0
 40
6.0
 40
6.0
 40
7.0
 40
7.0
 40
7.0
 40
8.0
 40
8.0
 40
8.0
 40
8.0
 10
111.5060275328874
 20
-148.8760117900379
 30
0.0
 10
111.5060275328874
 20
-148.8760117900379
 30
0.0
 10
111.0216471076612
 20
-148.8760117900379
 30
0.0
 10
111.0216471076612
 20
-148.8760117900379
 30
0.0
 10
110.9940863437792
 20
-148.8760117900379
 30
0.0
 10
110.6767930495877
 20
-148.8760117900379
 30
0.0
 10
110.4652641867934
 20
-148.9011609870802
 30
0.0
 10
110.4652641867934
 20
-148.9011609870802
 30
0.0
 10
110.4652641867934
 20
-148.670684099117
 30
0.0
 10
110.4652641867934
 20
-148.670684099117
 30
0.0
 10
110.6240830886634
 20
-148.6941107484167
 30
0.0
 10
110.8142523594492
 20
-148.6961778057079
 30
0.0
 10
111.0216471076612
 20
-148.6961778057079
 30
0.0
 10
111.0216471076612
 20
-148.6961778057079
 30
0.0
 10
111.5060275328874
 20
-148.6961778057079
 30
0.0
 10
111.5060275328874
 20
-148.6961778057079
 30
0.0
 10
111.6924071986394
 20
-148.6961778057079
 30
0.0
 10
111.8784423548429
 20
-148.6941107484167
 30
0.0
 10
112.0624104537552
 20
-148.670684099117
 30
0.0
 10
112.0624104537552
 20
-148.670684099117
 30
0.0
 10
112.0624104537552
 20
-148.9011609870802
 30
0.0
 10
112.0624104537552
 20
-148.9011609870802
 30
0.0
 10
111.8784423548429
 20
-148.8780788473291
 30
0.0
 10
111.6310844990019
 20
-148.8760117900379
 30
0.0
 10
111.5060275328874
 20
-148.8760117900379
 30
0.0
  0
HATCH
  5
FF
330
EE
100
AcDbEntity
  8
レイヤー 1
 62
    18
420
        0
440
 33554687
100
AcDbHatch
 10
0.0
 20
0.0
 30
0.0
210
0.0
220
0.0
230
1.0
  2
SOLID
 70
     1
 71
     1
 91
        1
 92
        1
 93
        1
 72
     4
 94
        3
 73
     0
 74
     0
 95
       29
 96
       25
 40
0.0
 40
0.0
 40
0.0
 40
0.0
 40
1.0
 40
1.0
 40
1.0
 40
2.0
 40
2.0
 40
2.0
 40
3.0
 40
3.0
 40
3.0
 40
4.0
 40
4.0
 40
4.0
 40
5.0
 40
5.0
 40
5.0
 40
6.0
 40
6.0
 40
6.0
 40
7.0
 40
7.0
 40
7.0
 40
8.0
 40
8.0
 40
8.0
 40
8.0
 10
111.5060275328874
 20
-148.8760117900379
 10
111.5060275328874
 20
-148.8760117900379
 10
111.0216471076612
 20
-148.8760117900379
 10
111.0216471076612
 20
-148.8760117900379
 10
110.9940863437792
 20
-148.8760117900379
 10
110.6767930495877
 20
-148.8760117900379
 10
110.4652641867934
 20
-148.9011609870802
 10
110.4652641867934
 20
-148.9011609870802
 10
110.4652641867934
 20
-148.670684099117
 10
110.4652641867934
 20
-148.670684099117
 10
110.6240830886634
 20
-148.6941107484167
 10
110.8142523594492
 20
-148.6961778057079
 10
111.0216471076612
 20
-148.6961778057079
 10
111.0216471076612
 20
-148.6961778057079
 10
111.5060275328874
 20
-148.6961778057079
 10
111.5060275328874
 20
-148.6961778057079
 10
111.6924071986394
 20
-148.6961778057079
 10
111.8784423548429
 20
-148.6941107484167
 10
112.0624104537552
 20
-148.670684099117
 10
112.0624104537552
 20
-148.670684099117
 10
112.0624104537552
 20
-148.9011609870802
 10
112.0624104537552
 20
-148.9011609870802
 10
111.8784423548429
 20
-148.8780788473291
 10
111.6310844990019
 20
-148.8760117900379
 10
111.5060275328874
 20
-148.8760117900379
 97
        0
 97
        1
330
FE
 75
     2
 76
     1
 98
        1
 10
0.0
 20
0.0
450
        0
451
        0
460
0.0
461
0.0
452
        0
462
0.0
453
        0
470

  0
SPLINE
  5
100
330
EE
100
AcDbEntity
  8
レイヤー 1
100
AcDbSpline
210
0.0
220
0.0
230
1.0
 70
     9
 71
     3
 72
    47
 73
    43
 74
     0
 42
0.0000000001
 43
0.0000000001
 40
0.0
 40
0.0
 40
0.0
 40
0.0
 40
1.0
 40
1.0
 40
1.0
 40
2.0
 40
2.0
 40
2.0
 40
3.0
 40
3.0
 40
3.0
 40
4.0
 40
4.0
 40
4.0
 40
5.0
 40
5.0
 40
5.0
 40
6.0
 40
6.0
 40
6.0
 40
7.0
 40
7.0
 40
7.0
 40
8.0
 40
8.0
 40
8.0
 40
9.0
 40
9.0
 40
9.0
 40
10.0
 40
10.0
 40
10.0
 40
11.0
 40
11.0
 40
11.0
 40
12.0
 40
12.0
 40
12.0
 40
13.0
 40
13.0
 40
13.0
 40
14.0
 40
14.0
 40
14.0
 40
14.0
 10
113.7263915731309
 20
-148.2813883092838
 30
0.0
 10
113.6564561347803
 20
-148.5607855531376
 30
0.0
 10
113.5803195245563
 20
-148.8653319940337
 30
0.0
 10
113.2671603449471
 20
-149.1974391988117
 30
0.0
 10
113.0301377755619
 20
-149.4472086214923
 30
0.0
 10
112.7848469770121
 20
-149.5464273714675
 30
0.0
 10
112.6790825456149
 20
-149.5888020459361
 30
0.0
 10
112.6790825456149
 20
-149.5888020459361
 30
0.0
 10
112.4844346506983
 20
-149.4069010043149
 30
0.0
 10
112.4844346506983
 20
-149.4069010043149
 30
0.0
 10
112.6704698069018
 20
-149.3603922152641
 30
0.0
 10
113.0325493424016
 20
-149.2673746371623
 30
0.0
 10
113.3284830445845
 20
-148.7723144159319
 30
0.0
 10
113.4893690037457
 20
-148.5056640253736
 30
0.0
 10
113.5021158570411
 20
-148.3323757224655
 30
0.0
 10
113.5103840862057
 20
-148.2414252016549
 30
0.0
 10
113.5103840862057
 20
-148.2414252016549
 30
0.0
 10
113.0049885785196
 20
-148.2414252016549
 30
0.0
 10
113.0049885785196
 20
-148.2414252016549
 30
0.0
 10
112.886477293827
 20
-148.2414252016549
 30
0.0
 10
112.4654866255294
 20
-148.2603732268238
 30
0.0
 10
112.3132134050814
 20
-148.2707085132795
 30
0.0
 10
112.3132134050814
 20
-148.2707085132795
 30
0.0
 10
112.3132134050814
 20
-148.0615912173249
 30
0.0
 10
112.3132134050814
 20
-148.0615912173249
 30
0.0
 10
112.4548068295252
 20
-148.0739935610718
 30
0.0
 10
112.7321370160878
 20
-148.0784721852026
 30
0.0
 10
112.8482367339407
 20
-148.0784721852026
 30
0.0
 10
112.8482367339407
 20
-148.0784721852026
 30
0.0
 10
113.2037705880185
 20
-148.0784721852026
 30
0.0
 10
113.2037705880185
 20
-148.0784721852026
 30
0.0
 10
113.2313313519005
 20
-148.0784721852026
 30
0.0
 10
113.3918728015131
 20
-148.0764051279114
 30
0.0
 10
113.5021158570411
 20
-148.0615912173249
 30
0.0
 10
113.5593044420963
 20
-148.0550455359029
 30
0.0
 10
113.576185409974
 20
-148.036097510734
 30
0.0
 10
113.5992675497252
 20
-148.0126708614343
 30
0.0
 10
113.5992675497252
 20
-148.0126708614343
 30
0.0
 10
113.7877142727683
 20
-148.1628770245912
 30
0.0
 10
113.7877142727683
 20
-148.1628770245912
 30
0.0
 10
113.7729003621818
 20
-148.1925048457644
 30
0.0
 10
113.7622205661775
 20
-148.2117973804817
 30
0.0
 10
113.7263915731309
 20
-148.2813883092838
 30
0.0
  0
HATCH
  5
101
330
EE
100
AcDbEntity
  8
レイヤー 1
 62
    18
420
        0
440
 33554687
100
AcDbHatch
 10
0.0
 20
0.0
 30
0.0
210
0.0
220
0.0
230
1.0
  2
SOLID
 70
     1
 71
     1
 91
        1
 92
        1
 93
        1
 72
     4
 94
        3
 73
     0
 74
     0
 95
       47
 96
       43
 40
0.0
 40
0.0
 40
0.0
 40
0.0
 40
1.0
 40
1.0
 40
1.0
 40
2.0
 40
2.0
 40
2.0
 40
3.0
 40
3.0
 40
3.0
 40
4.0
 40
4.0
 40
4.0
 40
5.0
 40
5.0
 40
5.0
 40
6.0
 40
6.0
 40
6.0
 40
7.0
 40
7.0
 40
7.0
 40
8.0
 40
8.0
 40
8.0
 40
9.0
 40
9.0
 40
9.0
 40
10.0
 40
10.0
 40
10.0
 40
11.0
 40
11.0
 40
11.0
 40
12.0
 40
12.0
 40
12.0
 40
13.0
 40
13.0
 40
13.0
 40
14.0
 40
14.0
 40
14.0
 40
14.0
 10
113.7263915731309
 20
-148.2813883092838
 10
113.6564561347803
 20
-148.5607855531376
 10
113.5803195245563
 20
-148.8653319940337
 10
113.2671603449471
 20
-149.1974391988117
 10
113.0301377755619
 20
-149.4472086214923
 10
112.7848469770121
 20
-149.5464273714675
 10
112.6790825456149
 20
-149.5888020459361
 10
112.6790825456149
 20
-149.5888020459361
 10
112.4844346506983
 20
-149.4069010043149
 10
112.4844346506983
 20
-149.4069010043149
 10
112.6704698069018
 20
-149.3603922152641
 10
113.0325493424016
 20
-149.2673746371623
 10
113.3284830445845
 20
-148.7723144159319
 10
113.4893690037457
 20
-148.5056640253736
 10
113.5021158570411
 20
-148.3323757224655
 10
113.5103840862057
 20
-148.2414252016549
 10
113.5103840862057
 20
-148.2414252016549
 10
113.0049885785196
 20
-148.2414252016549
 10
113.0049885785196
 20
-148.2414252016549
 10
112.886477293827
 20
-148.2414252016549
 10
112.4654866255294
 20
-148.2603732268238
 10
112.3132134050814
 20
-148.2707085132795
 10
112.3132134050814
 20
-148.2707085132795
 10
112.3132134050814
 20
-148.0615912173249
 10
112.3132134050814
 20
-148.0615912173249
 10
112.4548068295252
 20
-148.0739935610718
 10
112.7321370160878
 20
-148.0784721852026
 10
112.8482367339407
 20
-148.0784721852026
 10
112.8482367339407
 20
-148.0784721852026
 10
113.2037705880185
 20
-148.0784721852026
 10
113.2037705880185
 20
-148.0784721852026
 10
113.2313313519005
 20
-148.0784721852026
 10
113.3918728015131
 20
-148.0764051279114
 10
113.5021158570411
 20
-148.0615912173249
 10
113.5593044420963
 20
-148.0550455359029
 10
113.576185409974
 20
-148.036097510734
 10
113.5992675497252
 20
-148.0126708614343
 10
113.5992675497252
 20
-148.0126708614343
 10
113.7877142727683
 20
-148.1628770245912
 10
113.7877142727683
 20
-148.1628770245912
 10
113.7729003621818
 20
-148.1925048457644
 10
113.7622205661775
 20
-148.2117973804817
 10
113.7263915731309
 20
-148.2813883092838
 97
        0
 97
        1
330
100
 75
     2
 76
     1
 98
        1
 10
0.0
 20
0.0
450
        0
451
        0
460
0.0
461
0.0
452
        0
462
0.0
453
        0
470

  0
SPLINE
  5
102
330
EE
100
AcDbEntity
  8
レイヤー 1
100
AcDbSpline
210
0.0
220
0.0
230
1.0
 70
    11
 71
     3
 72
    17
 73
    13
 74
     0
 42
0.0000000001
 43
0.0000000001
 40
0.0
 40
0.0
 40
0.0
 40
0.0
 40
1.0
 40
1.0
 40
1.0
 40
2.0
 40
2.0
 40
2.0
 40
3.0
 40
3.0
 40
3.0
 40
4.0
 40
4.0
 40
4.0
 40
4.0
 10
114.1167208916097
 20
-148.063658274616
 30
0.0
 10
114.1167208916097
 20
-148.1229139169623
 30
0.0
 10
114.1632296806606
 20
-148.1694227060132
 30
0.0
 10
114.2224853230068
 20
-148.1694227060132
 30
0.0
 10
114.2817409653531
 20
-148.1694227060132
 30
0.0
 10
114.3303168116952
 20
-148.1229139169623
 30
0.0
 10
114.3303168116952
 20
-148.063658274616
 30
0.0
 10
114.3303168116952
 20
-148.0044026322697
 30
0.0
 10
114.2817409653531
 20
-147.9558267859277
 30
0.0
 10
114.2224853230068
 20
-147.9558267859277
 30
0.0
 10
114.1632296806606
 20
-147.9558267859277
 30
0.0
 10
114.1167208916097
 20
-148.0044026322697
 30
0.0
 10
114.1167208916097
 20
-148.063658274616
 30
0.0
  0
SPLINE
  5
103
330
EE
100
AcDbEntity
  8
レイヤー 1
100
AcDbSpline
210
0.0
220
0.0
230
1.0
 70
     9
 71
     3
 72
    17
 73
    13
 74
     0
 42
0.0000000001
 43
0.0000000001
 40
0.0
 40
0.0
 40
0.0
 40
0.0
 40
1.0
 40
1.0
 40
1.0
 40
2.0
 40
2.0
 40
2.0
 40
3.0
 40
3.0
 40
3.0
 40
4.0
 40
4.0
 40
4.0
 40
4.0
 10
114.4316026189615
 20
-148.063658274616
 30
0.0
 10
114.4316026189615
 20
-148.1776909351778
 30
0.0
 10
114.3385850408598
 20
-148.2731200801192
 30
0.0
 10
114.2224853230068
 20
-148.2731200801192
 30
0.0
 10
114.1081081528966
 20
-148.2731200801192
 30
0.0
 10
114.0130235175037
 20
-148.1776909351778
 30
0.0
 10
114.0130235175037
 20
-148.063658274616
 30
0.0
 10
114.0130235175037
 20
-147.9472140472146
 30
0.0
 10
114.1081081528966
 20
-147.8541964691128
 30
0.0
 10
114.2224853230068
 20
-147.8541964691128
 30
0.0
 10
114.3365179835686
 20
-147.8541964691128
 30
0.0
 10
114.4316026189615
 20
-147.9472140472146
 30
0.0
 10
114.4316026189615
 20
-148.063658274616
 30
0.0
  0
HATCH
  5
104
330
EE
100
AcDbEntity
  8
レイヤー 1
 62
    18
420
        0
440
 33554687
100
AcDbHatch
 10
0.0
 20
0.0
 30
0.0
210
0.0
220
0.0
230
1.0
  2
SOLID
 70
     1
 71
     1
 91
        2
 92
        1
 93
        1
 72
     4
 94
        3
 73
     0
 74
     0
 95
       17
 96
       13
 40
0.0
 40
0.0
 40
0.0
 40
0.0
 40
1.0
 40
1.0
 40
1.0
 40
2.0
 40
2.0
 40
2.0
 40
3.0
 40
3.0
 40
3.0
 40
4.0
 40
4.0
 40
4.0
 40
4.0
 10
114.1167208916097
 20
-148.063658274616
 10
114.1167208916097
 20
-148.1229139169623
 10
114.1632296806606
 20
-148.1694227060132
 10
114.2224853230068
 20
-148.1694227060132
 10
114.2817409653531
 20
-148.1694227060132
 10
114.3303168116952
 20
-148.1229139169623
 10
114.3303168116952
 20
-148.063658274616
 10
114.3303168116952
 20
-148.0044026322697
 10
114.2817409653531
 20
-147.9558267859277
 10
114.2224853230068
 20
-147.9558267859277
 10
114.1632296806606
 20
-147.9558267859277
 10
114.1167208916097
 20
-148.0044026322697
 10
114.1167208916097
 20
-148.063658274616
 97
        0
 97
        1
330
102
 92
        1
 93
        1
 72
     4
 94
        3
 73
     0
 74
     0
 95
       17
 96
       13
 40
0.0
 40
0.0
 40
0.0
 40
0.0
 40
1.0
 40
1.0
 40
1.0
 40
2.0
 40
2.0
 40
2.0
 40
3.0
 40
3.0
 40
3.0
 40
4.0
 40
4.0
 40
4.0
 40
4.0
 10
114.4316026189615
 20
-148.063658274616
 10
114.4316026189615
 20
-148.1776909351778
 10
114.3385850408598
 20
-148.2731200801192
 10
114.2224853230068
 20
-148.2731200801192
 10
114.1081081528966
 20
-148.2731200801192
 10
114.0130235175037
 20
-148.1776909351778
 10
114.0130235175037
 20
-148.063658274616
 10
114.0130235175037
 20
-147.9472140472146
 10
114.1081081528966
 20
-147.8541964691128
 10
114.2224853230068
 20
-147.8541964691128
 10
114.3365179835686
 20
-147.8541964691128
 10
114.4316026189615
 20
-147.9472140472146
 10
114.4316026189615
 20
-148.063658274616
 97
        0
 97
        1
330
103
 75
     2
 76
     1
 98
        1
 10
0.0
 20
0.0
450
        0
451
        0
460
0.0
461
0.0
452
        0
462
0.0
453
        0
470

  0
ENDBLK
  5
F1
330
EE
100
AcDbEntity
  8
0
100
AcDbBlockEnd
  0
ENDSEC
  0
SECTION
  2
ENTITIES
  0
INSERT
  5
7A
330
70
100
AcDbEntity
  8
レイヤー 1
100
AcDbBlockReference
  2
Block_0
 10
0.0
 20
0.0
 30
0.0
  0
LINE
  5
E1
330
70
100
AcDbEntity
  8
レイヤー 1
  6
AI-Linetype-0
 62
   154
420
    23468
370
    25
100
AcDbLine
 10
104.7177236329044
 20
-151.9400410426047
 30
0.0
 11
114.6520809399535
 21
-151.9400410426047
 31
0.0
  0
INSERT
  5
E4
330
70
100
AcDbEntity
  8
レイヤー 1
100
AcDbBlockReference
  2
Block_11
 10
0.0
 20
0.0
 30
0.0
  0
INSERT
  5
EB
330
70
100
AcDbEntity
  8
レイヤー 1
100
AcDbBlockReference
  2
Block_12
 10
0.0
 20
0.0
 30
0.0
  0
ENDSEC
  0
SECTION
  2
OBJECTS
  0
DICTIONARY
  5
C
330
0
100
AcDbDictionary
281
     1
  3
ACAD_COLOR
350
63
  3
ACAD_DETAILVIEWSTYLE
350
6A
  3
ACAD_GROUP
350
D
  3
ACAD_LAYOUT
350
62
  3
ACAD_MATERIAL
350
10
  3
ACAD_MLEADERSTYLE
350
66
  3
ACAD_MLINESTYLE
350
5F
  3
ACAD_PLOTSETTINGS
350
61
  3
ACAD_PLOTSTYLENAME
350
E
  3
ACAD_SCALELIST
350
42
  3
ACAD_SECTIONVIEWSTYLE
350
68
  3
ACAD_TABLESTYLE
350
64
  3
ACAD_VISUALSTYLE
350
29
  3
ACDB_RECOMPOSE_DATA
350
10D
  3
AcDbVariableDictionary
350
105
  0
DICTIONARY
  5
63
102
{ACAD_REACTORS
330
C
102
}
330
C
100
AcDbDictionary
281
     1
  0
DICTIONARY
  5
6A
102
{ACAD_REACTORS
330
C
102
}
330
C
100
AcDbDictionary
281
     1
  3
Imperial24
350
6B
  0
DICTIONARY
  5
D
102
{ACAD_REACTORS
330
C
102
}
330
C
100
AcDbDictionary
281
     1
  0
DICTIONARY
  5
62
102
{ACAD_REACTORS
330
C
102
}
330
C
100
AcDbDictionary
281
     1
  3
Layout1
350
6F
  3
Layout2
350
77
  3
Model
350
73
  0
DICTIONARY
  5
10
102
{ACAD_REACTORS
330
C
102
}
330
C
100
AcDbDictionary
281
     1
  3
ByBlock
350
19
  3
ByLayer
350
11
  3
Global
350
21
  0
DICTIONARY
  5
66
102
{ACAD_REACTORS
330
C
102
}
330
C
100
AcDbDictionary
281
     1
  3
Standard
350
67
  0
DICTIONARY
  5
5F
102
{ACAD_REACTORS
330
C
102
}
330
C
100
AcDbDictionary
281
     1
  3
Standard
350
60
  0
DICTIONARY
  5
61
102
{ACAD_REACTORS
330
C
102
}
330
C
100
AcDbDictionary
281
     1
  0
ACDBDICTIONARYWDFLT
  5
E
102
{ACAD_REACTORS
330
C
102
}
330
C
100
AcDbDictionary
281
     1
  3
Normal
350
F
100
AcDbDictionaryWithDefault
340
F
  0
DICTIONARY
  5
42
102
{ACAD_REACTORS
330
C
102
}
330
C
100
AcDbDictionary
281
     1
  3
A0
350
43
  3
A1
350
44
  3
A2
350
45
  3
A3
350
46
  3
A4
350
47
  3
A5
350
48
  3
A6
350
49
  3
A7
350
4A
  3
A8
350
4B
  3
A9
350
4C
  3
B0
350
4D
  3
B1
350
4E
  3
B2
350
4F
  3
B3
350
50
  3
B4
350
51
  3
B5
350
52
  3
B6
350
53
  0
DICTIONARY
  5
68
102
{ACAD_REACTORS
330
C
102
}
330
C
100
AcDbDictionary
281
     1
  3
Imperial24
350
69
  0
DICTIONARY
  5
64
102
{ACAD_REACTORS
330
C
102
}
330
C
100
AcDbDictionary
281
     1
  3
Standard
350
65
  0
DICTIONARY
  5
29
102
{ACAD_REACTORS
330
C
102
}
330
C
100
AcDbDictionary
281
     1
  3
2dWireframe
350
2F
  3
Basic
350
2E
  3
Brighten
350
35
  3
ColorChange
350
39
  3
Conceptual
350
32
  3
Dim
350
34
  3
EdgeColorOff
350
41
  3
Facepattern
350
38
  3
Flat
350
2A
  3
FlatWithEdges
350
2B
  3
Gouraud
350
2C
  3
GouraudWithEdges
350
2D
  3
Hidden
350
31
  3
JitterOff
350
3F
  3
Linepattern
350
37
  3
OverhangOff
350
40
  3
Realistic
350
33
  3
Shaded
350
3E
  3
Shaded with edges
350
3D
  3
Shades of Gray
350
3A
  3
Sketchy
350
3B
  3
Thicken
350
36
  3
Wireframe
350
30
  3
X-Ray
350
3C
  0
XRECORD
  5
10D
102
{ACAD_REACTORS
330
C
102
}
330
C
100
AcDbXrecord
280
     1
 90
        1
330
65
  0
DICTIONARY
  5
105
102
{ACAD_REACTORS
330
C
102
}
330
C
100
AcDbDictionary
281
     1
  3
CANNOSCALE
350
10A
  3
CMLEADERSTYLE
350
107
  3
CTABLESTYLE
350
106
  3
CVIEWDETAILSTYLE
350
108
  3
CVIEWSECTIONSTYLE
350
109
  0
ACDBDETAILVIEWSTYLE
  5
6B
102
{ACAD_XDICTIONARY
360
142
102
}
102
{ACAD_REACTORS
330
6A
102
}
330
6A
100
AcDbModelDocViewStyle
 70
     0
  3
Imperial24
290
     0
100
AcDbDetailViewStyle
 70
     0
 71
     0
 90
        3
 71
     1
340
55
 62
   256
 40
0.24
340
0
 62
   256
 40
0.24
300

 40
0.36
280
     3
 71
     2
340
5D
 90
       25
 62
   256
 71
     3
340
55
 62
   256
 40
0.24
 90
        1
 40
0.75
 90
        1
300
%<\AcVar ViewType \f "%tc1">% %<\AcVar ViewDetailId>%\PSCALE %<\AcVar ViewScale \f "%sn">%
 71
     4
340
5D
 90
       25
 62
   256
340
5D
 90
       25
 62
   256
280
     0
  0
LAYOUT
  5
6F
102
{ACAD_REACTORS
330
62
102
}
330
62
100
AcDbPlotSettings
  1

  2

  4

  6

 40
0.0
 41
0.0
 42
0.0
 43
0.0
 44
0.0
 45
0.0
 46
0.0
 47
0.0
 48
0.0
 49
0.0
140
0.0
141
0.0
142
1.0
143
1.0
 70
   688
 72
     0
 73
     0
 74
     5
  7

 75
    16
147
1.0
 76
     0
 77
     2
 78
   300
148
0.0
149
0.0
100
AcDbLayout
  1
Layout1
 70
     1
 71
     1
 10
0.0
 20
0.0
 11
12.0
 21
9.0
 12
0.0
 22
0.0
 32
0.0
 14
0.0
 24
0.0
 34
0.0
 15
0.0
 25
0.0
 35
0.0
146
0.0
 13
0.0
 23
0.0
 33
0.0
 16
1.0
 26
0.0
 36
0.0
 17
0.0
 27
1.0
 37
0.0
 76
     0
330
6C
  0
LAYOUT
  5
77
102
{ACAD_REACTORS
330
62
102
}
330
62
100
AcDbPlotSettings
  1

  2

  4

  6

 40
0.0
 41
0.0
 42
0.0
 43
0.0
 44
0.0
 45
0.0
 46
0.0
 47
0.0
 48
0.0
 49
0.0
140
0.0
141
0.0
142
1.0
143
1.0
 70
   688
 72
     0
 73
     0
 74
     5
  7

 75
    16
147
1.0
 76
     0
 77
     2
 78
   300
148
0.0
149
0.0
100
AcDbLayout
  1
Layout2
 70
     1
 71
     2
 10
0.0
 20
0.0
 11
12.0
 21
9.0
 12
0.0
 22
0.0
 32
0.0
 14
0.0
 24
0.0
 34
0.0
 15
0.0
 25
0.0
 35
0.0
146
0.0
 13
0.0
 23
0.0
 33
0.0
 16
1.0
 26
0.0
 36
0.0
 17
0.0
 27
1.0
 37
0.0
 76
     0
330
74
  0
LAYOUT
  5
73
102
{ACAD_REACTORS
330
62
102
}
330
62
100
AcDbPlotSettings
  1

  2

  4

  6

 40
0.0
 41
0.0
 42
0.0
 43
0.0
 44
0.0
 45
0.0
 46
0.0
 47
0.0
 48
0.0
 49
0.0
140
0.0
141
0.0
142
1.0
143
1.0
 70
  1712
 72
     0
 73
     0
 74
     0
  7

 75
     0
147
1.0
 76
     0
 77
     2
 78
   300
148
0.0
149
0.0
100
AcDbLayout
  1
Model
 70
     1
 71
     0
 10
0.0
 20
0.0
 11
12.0
 21
9.0
 12
0.0
 22
0.0
 32
0.0
 14
0.0
 24
0.0
 34
0.0
 15
0.0
 25
0.0
 35
0.0
146
0.0
 13
0.0
 23
0.0
 33
0.0
 16
1.0
 26
0.0
 36
0.0
 17
0.0
 27
1.0
 37
0.0
 76
     0
330
70
  0
MATERIAL
  5
19
102
{ACAD_XDICTIONARY
360
1A
102
}
102
{ACAD_REACTORS
330
10
102
}
330
10
100
AcDbMaterial
  1
ByBlock
 72
     0
 43
0.0208333333333333
 43
0.0
 43
0.0
 43
0.0
 43
0.0
 43
0.0208333333333333
 43
0.0
 43
0.0
 43
0.0
 43
0.0
 43
1.0
 43
0.0
 43
0.0
 43
0.0
 43
0.0
 43
1.0
 77
     0
 47
0.0208333333333333
 47
0.0
 47
0.0
 47
0.0
 47
0.0
 47
0.0208333333333333
 47
0.0
 47
0.0
 47
0.0
 47
0.0
 47
1.0
 47
0.0
 47
0.0
 47
0.0
 47
0.0
 47
1.0
171
     0
 49
0.0208333333333333
 49
0.0
 49
0.0
 49
0.0
 49
0.0
 49
0.0208333333333333
 49
0.0
 49
0.0
 49
0.0
 49
0.0
 49
1.0
 49
0.0
 49
0.0
 49
0.0
 49
0.0
 49
1.0
175
     0
142
0.0208333333333333
142
0.0
142
0.0
142
0.0
142
0.0
142
0.0208333333333333
142
0.0
142
0.0
142
0.0
142
0.0
142
1.0
142
0.0
142
0.0
142
0.0
142
0.0
142
1.0
179
     0
144
0.0208333333333333
144
0.0
144
0.0
144
0.0
144
0.0
144
0.0208333333333333
144
0.0
144
0.0
144
0.0
144
0.0
144
1.0
144
0.0
144
0.0
144
0.0
144
0.0
144
1.0
147
0.0208333333333333
147
0.0
147
0.0
147
0.0
147
0.0
147
0.0208333333333333
147
0.0
147
0.0
147
0.0
147
0.0
147
1.0
147
0.0
147
0.0
147
0.0
147
0.0
147
1.0
  0
MATERIAL
  5
11
102
{ACAD_XDICTIONARY
360
12
102
}
102
{ACAD_REACTORS
330
10
102
}
330
10
100
AcDbMaterial
  1
ByLayer
 72
     0
 43
0.0208333333333333
 43
0.0
 43
0.0
 43
0.0
 43
0.0
 43
0.0208333333333333
 43
0.0
 43
0.0
 43
0.0
 43
0.0
 43
1.0
 43
0.0
 43
0.0
 43
0.0
 43
0.0
 43
1.0
 77
     0
 47
0.0208333333333333
 47
0.0
 47
0.0
 47
0.0
 47
0.0
 47
0.0208333333333333
 47
0.0
 47
0.0
 47
0.0
 47
0.0
 47
1.0
 47
0.0
 47
0.0
 47
0.0
 47
0.0
 47
1.0
171
     0
 49
0.0208333333333333
 49
0.0
 49
0.0
 49
0.0
 49
0.0
 49
0.0208333333333333
 49
0.0
 49
0.0
 49
0.0
 49
0.0
 49
1.0
 49
0.0
 49
0.0
 49
0.0
 49
0.0
 49
1.0
175
     0
142
0.0208333333333333
142
0.0
142
0.0
142
0.0
142
0.0
142
0.0208333333333333
142
0.0
142
0.0
142
0.0
142
0.0
142
1.0
142
0.0
142
0.0
142
0.0
142
0.0
142
1.0
179
     0
144
0.0208333333333333
144
0.0
144
0.0
144
0.0
144
0.0
144
0.0208333333333333
144
0.0
144
0.0
144
0.0
144
0.0
144
1.0
144
0.0
144
0.0
144
0.0
144
0.0
144
1.0
147
0.0208333333333333
147
0.0
147
0.0
147
0.0
147
0.0
147
0.0208333333333333
147
0.0
147
0.0
147
0.0
147
0.0
147
1.0
147
0.0
147
0.0
147
0.0
147
0.0
147
1.0
  0
MATERIAL
  5
21
102
{ACAD_XDICTIONARY
360
22
102
}
102
{ACAD_REACTORS
330
10
102
}
330
10
100
AcDbMaterial
  1
Global
 72
     0
 43
0.0208333333333333
 43
0.0
 43
0.0
 43
0.0
 43
0.0
 43
0.0208333333333333
 43
0.0
 43
0.0
 43
0.0
 43
0.0
 43
1.0
 43
0.0
 43
0.0
 43
0.0
 43
0.0
 43
1.0
 77
     0
 47
0.0208333333333333
 47
0.0
 47
0.0
 47
0.0
 47
0.0
 47
0.0208333333333333
 47
0.0
 47
0.0
 47
0.0
 47
0.0
 47
1.0
 47
0.0
 47
0.0
 47
0.0
 47
0.0
 47
1.0
171
     0
 49
0.0208333333333333
 49
0.0
 49
0.0
 49
0.0
 49
0.0
 49
0.0208333333333333
 49
0.0
 49
0.0
 49
0.0
 49
0.0
 49
1.0
 49
0.0
 49
0.0
 49
0.0
 49
0.0
 49
1.0
175
     0
142
0.0208333333333333
142
0.0
142
0.0
142
0.0
142
0.0
142
0.0208333333333333
142
0.0
142
0.0
142
0.0
142
0.0
142
1.0
142
0.0
142
0.0
142
0.0
142
0.0
142
1.0
179
     0
144
0.0208333333333333
144
0.0
144
0.0
144
0.0
144
0.0
144
0.0208333333333333
144
0.0
144
0.0
144
0.0
144
0.0
144
1.0
144
0.0
144
0.0
144
0.0
144
0.0
144
1.0
147
0.0208333333333333
147
0.0
147
0.0
147
0.0
147
0.0
147
0.0208333333333333
147
0.0
147
0.0
147
0.0
147
0.0
147
1.0
147
0.0
147
0.0
147
0.0
147
0.0
147
1.0
  0
MLEADERSTYLE
  5
67
102
{ACAD_XDICTIONARY
360
13E
102
}
102
{ACAD_REACTORS
330
66
102
}
330
66
100
AcDbMLeaderStyle
179
     2
170
     2
171
     1
172
     0
 90
        2
 40
0.0
 41
0.0
173
     1
 91
-1056964608
340
5B
 92
       -2
290
     1
 42
0.09
291
     1
 43
0.36
  3
Standard
 44
0.18
300

342
55
174
     1
178
     6
175
     1
176
     0
 93
-1056964608
 45
0.18
292
     0
297
     0
 46
0.18
 94
-1056964608
 47
1.0
 49
1.0
140
1.0
293
     1
141
0.0
294
     1
177
     0
142
1.0
295
     0
296
     0
143
0.125
271
     0
272
     9
273
     9
  0
MLINESTYLE
  5
60
102
{ACAD_REACTORS
330
5F
102
}
330
5F
100
AcDbMlineStyle
  2
STANDARD
 70
     0
  3

 62
   256
 51
90.0
 52
90.0
 71
     2
 49
0.5
 62
   256
  6
BYLAYER
 49
-0.5
 62
   256
  6
BYLAYER
  0
ACDBPLACEHOLDER
  5
F
102
{ACAD_REACTORS
330
E
102
}
330
E
  0
SCALE
  5
43
102
{ACAD_REACTORS
330
42
102
}
330
42
100
AcDbScale
 70
     0
300
1:1
140
1.0
141
1.0
290
     1
  0
SCALE
  5
44
102
{ACAD_REACTORS
330
42
102
}
330
42
100
AcDbScale
 70
     0
300
1/128" = 1'-0"
140
0.0078125
141
12.0
290
     0
  0
SCALE
  5
45
102
{ACAD_REACTORS
330
42
102
}
330
42
100
AcDbScale
 70
     0
300
1/64" = 1'-0"
140
0.015625
141
12.0
290
     0
  0
SCALE
  5
46
102
{ACAD_REACTORS
330
42
102
}
330
42
100
AcDbScale
 70
     0
300
1/32" = 1'-0"
140
0.03125
141
12.0
290
     0
  0
SCALE
  5
47
102
{ACAD_REACTORS
330
42
102
}
330
42
100
AcDbScale
 70
     0
300
1/16" = 1'-0"
140
0.0625
141
12.0
290
     0
  0
SCALE
  5
48
102
{ACAD_REACTORS
330
42
102
}
330
42
100
AcDbScale
 70
     0
300
3/32" = 1'-0"
140
0.09375
141
12.0
290
     0
  0
SCALE
  5
49
102
{ACAD_REACTORS
330
42
102
}
330
42
100
AcDbScale
 70
     0
300
1/8" = 1'-0"
140
0.125
141
12.0
290
     0
  0
SCALE
  5
4A
102
{ACAD_REACTORS
330
42
102
}
330
42
100
AcDbScale
 70
     0
300
3/16" = 1'-0"
140
0.1875
141
12.0
290
     0
  0
SCALE
  5
4B
102
{ACAD_REACTORS
330
42
102
}
330
42
100
AcDbScale
 70
     0
300
1/4" = 1'-0"
140
0.25
141
12.0
290
     0
  0
SCALE
  5
4C
102
{ACAD_REACTORS
330
42
102
}
330
42
100
AcDbScale
 70
     0
300
3/8" = 1'-0"
140
0.375
141
12.0
290
     0
  0
SCALE
  5
4D
102
{ACAD_REACTORS
330
42
102
}
330
42
100
AcDbScale
 70
     0
300
1/2" = 1'-0"
140
0.5
141
12.0
290
     0
  0
SCALE
  5
4E
102
{ACAD_REACTORS
330
42
102
}
330
42
100
AcDbScale
 70
     0
300
3/4" = 1'-0"
140
0.75
141
12.0
290
     0
  0
SCALE
  5
4F
102
{ACAD_REACTORS
330
42
102
}
330
42
100
AcDbScale
 70
     0
300
1" = 1'-0"
140
1.0
141
12.0
290
     0
  0
SCALE
  5
50
102
{ACAD_REACTORS
330
42
102
}
330
42
100
AcDbScale
 70
     0
300
1-1/2" = 1'-0"
140
1.5
141
12.0
290
     0
  0
SCALE
  5
51
102
{ACAD_REACTORS
330
42
102
}
330
42
100
AcDbScale
 70
     0
300
3" = 1'-0"
140
3.0
141
12.0
290
     0
  0
SCALE
  5
52
102
{ACAD_REACTORS
330
42
102
}
330
42
100
AcDbScale
 70
     0
300
6" = 1'-0"
140
6.0
141
12.0
290
     0
  0
SCALE
  5
53
102
{ACAD_REACTORS
330
42
102
}
330
42
100
AcDbScale
 70
     0
300
1'-0" = 1'-0"
140
12.0
141
12.0
290
     0
  0
ACDBSECTIONVIEWSTYLE
  5
69
102
{ACAD_XDICTIONARY
360
140
102
}
102
{ACAD_REACTORS
330
68
102
}
330
68
100
AcDbModelDocViewStyle
 70
     0
  3
Imperial24
290
     0
100
AcDbSectionViewStyle
 70
     0
 71
     0
 90
       78
 71
     1
340
55
 62
   256
 40
0.24
340
0
340
0
 62
   256
 40
0.24
300
I, O, Q, S, X, Z
 40
0.48
 90
        3
 40
0.18
 90
        1
 71
     2
340
5D
 90
       25
 62
   256
340
5D
 90
       50
 62
   256
 40
0.24
 40
0.0
 40
0.24
 71
     3
340
55
 62
   256
 40
0.24
 90
        1
 40
0.75
 90
        1
300
%<\AcVar ViewType \f "%tc1">% %<\AcVar ViewSectionStartId>%-%<\AcVar ViewSectionEndId>%\PSCALE %<\AcVar ViewScale \f "%sn">%
 71
     4
 62
   256
 62
   257
300
ANSI31
 40
1.0
 90
        0
290
     0
290
     0
 90
        6
 40
0.0
 40
1.570796326794896
 40
0.2617993877991494
 40
1.308996938995747
 40
-0.2617993877991494
 40
1.832595714594046
  0
TABLESTYLE
  5
65
102
{ACAD_XDICTIONARY
360
10B
102
}
102
{ACAD_REACTORS
330
64
102
}
330
64
100
AcDbTableStyle
280
     0
  3
Standard
 70
     0
 71
     0
 40
0.06
 41
0.06
280
     0
281
     0
  7
Standard
140
0.18
170
     2
 62
     0
 63
     7
283
     0
 90
      512
 91
        0
  1

274
    -2
284
     1
 64
     0
275
    -2
285
     1
 65
     0
276
    -2
286
     1
 66
     0
277
    -2
287
     1
 67
     0
278
    -2
288
     1
 68
     0
279
    -2
289
     1
 69
     0
  7
Standard
140
0.25
170
     5
 62
     0
 63
     7
283
     0
 90
      512
 91
        0
  1

274
    -2
284
     1
 64
     0
275
    -2
285
     1
 65
     0
276
    -2
286
     1
 66
     0
277
    -2
287
     1
 67
     0
278
    -2
288
     1
 68
     0
279
    -2
289
     1
 69
     0
  7
Standard
140
0.18
170
     5
 62
     0
 63
     7
283
     0
 90
      512
 91
        0
  1

274
    -2
284
     1
 64
     0
275
    -2
285
     1
 65
     0
276
    -2
286
     1
 66
     0
277
    -2
287
     1
 67
     0
278
    -2
288
     1
 68
     0
279
    -2
289
     1
 69
     0
  0
VISUALSTYLE
  5
2F
102
{ACAD_XDICTIONARY
360
118
102
}
102
{ACAD_REACTORS
330
29
102
}
330
29
100
AcDbVisualStyle
  2
2dWireframe
 70
     4
177
     2
291
     0
 71
     0
176
     1
 72
     2
176
     1
 73
     0
176
     1
 90
        0
176
     1
 40
0.6
176
     1
 41
30.0
176
     1
 63
     7
421
 16777215
176
     1
 74
     1
176
     1
 91
        4
176
     1
 64
     7
176
     1
 65
   257
176
     1
 75
     1
176
     1
175
     1
176
     1
 42
1.0
176
     1
 92
        0
176
     1
 66
   257
176
     1
 43
1.0
176
     1
 76
     1
176
     1
 77
     6
176
     1
 78
     2
176
     1
 67
     7
176
     1
 79
     5
176
     1
170
     0
176
     1
171
     0
176
     1
290
     0
176
     1
 93
        1
176
     1
 44
0.0
176
     1
173
     0
176
     1
1001
ACAD
1000
AcDbSavedByObjectVersion
1070
     0
  0
VISUALSTYLE
  5
2E
102
{ACAD_XDICTIONARY
360
116
102
}
102
{ACAD_REACTORS
330
29
102
}
330
29
100
AcDbVisualStyle
  2
Basic
 70
     7
177
     2
291
     1
 71
     1
176
     1
 72
     0
176
     1
 73
     1
176
     1
 90
        0
176
     1
 40
0.6
176
     1
 41
30.0
176
     1
 63
     7
421
 16777215
176
     1
 74
     0
176
     1
 91
        4
176
     1
 64
     7
176
     1
 65
   257
176
     1
 75
     1
176
     1
175
     1
176
     1
 42
1.0
176
     1
 92
        8
176
     1
 66
     7
176
     1
 43
1.0
176
     1
 76
     1
176
     1
 77
     6
176
     1
 78
     2
176
     1
 67
     7
176
     1
 79
     5
176
     1
170
     0
176
     1
171
     0
176
     1
290
     0
176
     1
 93
        1
176
     1
 44
0.0
176
     1
173
     0
176
     1
1001
ACAD
1000
AcDbSavedByObjectVersion
1070
     0
  0
VISUALSTYLE
  5
35
102
{ACAD_XDICTIONARY
360
124
102
}
102
{ACAD_REACTORS
330
29
102
}
330
29
100
AcDbVisualStyle
  2
Brighten
 70
    12
177
     2
291
     1
 71
     2
176
     1
 72
     2
176
     1
 73
     0
176
     1
 90
        0
176
     1
 40
0.6
176
     1
 41
30.0
176
     1
 63
     7
421
 16777215
176
     1
 74
     1
176
     1
 91
        4
176
     1
 64
     7
176
     1
 65
   257
176
     1
 75
     1
176
     1
175
     1
176
     1
 42
1.0
176
     1
 92
        8
176
     1
 66
     7
176
     1
 43
1.0
176
     1
 76
     1
176
     1
 77
     6
176
     1
 78
     2
176
     1
 67
     7
176
     1
 79
     5
176
     1
170
     0
176
     1
171
     0
176
     1
290
     0
176
     1
 93
        1
176
     1
 44
50.0
176
     1
173
     0
176
     1
1001
ACAD
1000
AcDbSavedByObjectVersion
1070
     0
  0
VISUALSTYLE
  5
39
102
{ACAD_XDICTIONARY
360
12C
102
}
102
{ACAD_REACTORS
330
29
102
}
330
29
100
AcDbVisualStyle
  2
ColorChange
 70
    16
177
     2
291
     1
 71
     2
176
     1
 72
     2
176
     1
 73
     3
176
     1
 90
        0
176
     1
 40
0.6
176
     1
 41
30.0
176
     1
 63
     8
421
  8421504
176
     1
 74
     1
176
     1
 91
        4
176
     1
 64
     7
176
     1
 65
   257
176
     1
 75
     1
176
     1
175
     1
176
     1
 42
1.0
176
     1
 92
        8
176
     1
 66
     8
424
  8421504
176
     1
 43
1.0
176
     1
 76
     1
176
     1
 77
     6
176
     1
 78
     2
176
     1
 67
     7
176
     1
 79
     5
176
     1
170
     0
176
     1
171
     0
176
     1
290
     0
176
     1
 93
        1
176
     1
 44
0.0
176
     1
173
     0
176
     1
1001
ACAD
1000
AcDbSavedByObjectVersion
1070
     0
  0
VISUALSTYLE
  5
32
102
{ACAD_XDICTIONARY
360
11E
102
}
102
{ACAD_REACTORS
330
29
102
}
330
29
100
AcDbVisualStyle
  2
Conceptual
 70
     9
177
     2
291
     0
 71
     3
176
     1
 72
     2
176
     1
 73
     0
176
     1
 90
        0
176
     1
 40
0.6
176
     1
 41
30.0
176
     1
 63
     7
421
 16777215
176
     1
 74
     2
176
     1
 91
        2
176
     1
 64
     7
176
     1
 65
   257
176
     1
 75
     1
176
     1
175
     1
176
     1
 42
179.0
176
     1
 92
        8
176
     1
 66
     7
176
     1
 43
1.0
176
     1
 76
     1
176
     1
 77
     6
176
     1
 78
     2
176
     1
 67
     7
176
     1
 79
     3
176
     1
170
     0
176
     1
171
     0
176
     1
290
     0
176
     1
 93
        1
176
     1
 44
0.0
176
     1
173
     0
176
     1
1001
ACAD
1000
AcDbSavedByObjectVersion
1070
     0
  0
VISUALSTYLE
  5
34
102
{ACAD_XDICTIONARY
360
122
102
}
102
{ACAD_REACTORS
330
29
102
}
330
29
100
AcDbVisualStyle
  2
Dim
 70
    11
177
     2
291
     1
 71
     2
176
     1
 72
     2
176
     1
 73
     0
176
     1
 90
        0
176
     1
 40
0.6
176
     1
 41
30.0
176
     1
 63
     7
421
 16777215
176
     1
 74
     1
176
     1
 91
        4
176
     1
 64
     7
176
     1
 65
   257
176
     1
 75
     1
176
     1
175
     1
176
     1
 42
1.0
176
     1
 92
        8
176
     1
 66
     7
176
     1
 43
1.0
176
     1
 76
     1
176
     1
 77
     6
176
     1
 78
     2
176
     1
 67
     7
176
     1
 79
     5
176
     1
170
     0
176
     1
171
     0
176
     1
290
     0
176
     1
 93
        1
176
     1
 44
-50.0
176
     1
173
     0
176
     1
1001
ACAD
1000
AcDbSavedByObjectVersion
1070
     0
  0
VISUALSTYLE
  5
41
102
{ACAD_XDICTIONARY
360
13C
102
}
102
{ACAD_REACTORS
330
29
102
}
330
29
100
AcDbVisualStyle
  2
EdgeColorOff
 70
    22
177
     2
291
     1
 71
     2
176
     0
 72
     2
176
     0
 73
     0
176
     0
 90
        0
176
     0
 40
0.6
176
     0
 41
30.0
176
     0
 63
     7
421
 16777215
176
     0
 74
     1
176
     0
 91
        4
176
     0
 64
     7
176
     0
 65
   257
176
     0
 75
     1
176
     0
175
     1
176
     0
 42
1.0
176
     0
 92
        8
176
     2
 66
     7
176
     0
 43
1.0
176
     0
 76
     1
176
     0
 77
     6
176
     0
 78
     2
176
     0
 67
     7
176
     0
 79
     5
176
     0
170
     0
176
     0
171
     0
176
     0
290
     0
176
     0
 93
        1
176
     0
 44
0.0
176
     0
173
     0
176
     0
1001
ACAD
1000
AcDbSavedByObjectVersion
1070
     0
  0
VISUALSTYLE
  5
38
102
{ACAD_XDICTIONARY
360
12A
102
}
102
{ACAD_REACTORS
330
29
102
}
330
29
100
AcDbVisualStyle
  2
Facepattern
 70
    15
177
     2
291
     1
 71
     2
176
     1
 72
     2
176
     1
 73
     0
176
     1
 90
        0
176
     1
 40
0.6
176
     1
 41
30.0
176
     1
 63
     7
421
 16777215
176
     1
 74
     1
176
     1
 91
        4
176
     1
 64
     7
176
     1
 65
   257
176
     1
 75
     1
176
     1
175
     1
176
     1
 42
1.0
176
     1
 92
        8
176
     1
 66
     7
176
     1
 43
1.0
176
     1
 76
     1
176
     1
 77
     6
176
     1
 78
     2
176
     1
 67
     7
176
     1
 79
     5
176
     1
170
     0
176
     1
171
     0
176
     1
290
     0
176
     1
 93
        1
176
     1
 44
0.0
176
     1
173
     0
176
     1
1001
ACAD
1000
AcDbSavedByObjectVersion
1070
     0
  0
VISUALSTYLE
  5
2A
102
{ACAD_XDICTIONARY
360
10E
102
}
102
{ACAD_REACTORS
330
29
102
}
330
29
100
AcDbVisualStyle
  2
Flat
 70
     0
177
     2
291
     1
 71
     2
176
     1
 72
     1
176
     1
 73
     1
176
     1
 90
        2
176
     1
 40
0.6
176
     1
 41
30.0
176
     1
 63
     7
421
 16777215
176
     1
 74
     0
176
     1
 91
        0
176
     1
 64
     7
176
     1
 65
   257
176
     1
 75
     1
176
     1
175
     1
176
     1
 42
1.0
176
     1
 92
        8
176
     1
 66
     7
176
     1
 43
1.0
176
     1
 76
     1
176
     1
 77
     6
176
     1
 78
     2
176
     1
 67
     7
176
     1
 79
     5
176
     1
170
     0
176
     1
171
     0
176
     1
290
     0
176
     1
 93
       13
176
     1
 44
0.0
176
     1
173
     0
176
     1
1001
ACAD
1000
AcDbSavedByObjectVersion
1070
     0
  0
VISUALSTYLE
  5
2B
102
{ACAD_XDICTIONARY
360
110
102
}
102
{ACAD_REACTORS
330
29
102
}
330
29
100
AcDbVisualStyle
  2
FlatWithEdges
 70
     1
177
     2
291
     1
 71
     2
176
     1
 72
     1
176
     1
 73
     1
176
     1
 90
        2
176
     1
 40
0.6
176
     1
 41
30.0
176
     1
 63
     7
421
 16777215
176
     1
 74
     1
176
     1
 91
        0
176
     1
 64
     7
176
     1
 65
   257
176
     1
 75
     1
176
     1
175
     1
176
     1
 42
1.0
176
     1
 92
        0
176
     1
 66
   257
176
     1
 43
1.0
176
     1
 76
     1
176
     1
 77
     6
176
     1
 78
     2
176
     1
 67
     7
176
     1
 79
     5
176
     1
170
     0
176
     1
171
     0
176
     1
290
     0
176
     1
 93
       13
176
     1
 44
0.0
176
     1
173
     0
176
     1
1001
ACAD
1000
AcDbSavedByObjectVersion
1070
     0
  0
VISUALSTYLE
  5
2C
102
{ACAD_XDICTIONARY
360
112
102
}
102
{ACAD_REACTORS
330
29
102
}
330
29
100
AcDbVisualStyle
  2
Gouraud
 70
     2
177
     2
291
     1
 71
     2
176
     1
 72
     2
176
     1
 73
     1
176
     1
 90
        2
176
     1
 40
0.6
176
     1
 41
30.0
176
     1
 63
     7
421
 16777215
176
     1
 74
     0
176
     1
 91
        0
176
     1
 64
     7
176
     1
 65
   257
176
     1
 75
     1
176
     1
175
     1
176
     1
 42
1.0
176
     1
 92
        0
176
     1
 66
     7
176
     1
 43
1.0
176
     1
 76
     1
176
     1
 77
     6
176
     1
 78
     2
176
     1
 67
     7
176
     1
 79
     5
176
     1
170
     0
176
     1
171
     0
176
     1
290
     0
176
     1
 93
       13
176
     1
 44
0.0
176
     1
173
     0
176
     1
1001
ACAD
1000
AcDbSavedByObjectVersion
1070
     0
  0
VISUALSTYLE
  5
2D
102
{ACAD_XDICTIONARY
360
114
102
}
102
{ACAD_REACTORS
330
29
102
}
330
29
100
AcDbVisualStyle
  2
GouraudWithEdges
 70
     3
177
     2
291
     1
 71
     2
176
     1
 72
     2
176
     1
 73
     1
176
     1
 90
        2
176
     1
 40
0.6
176
     1
 41
30.0
176
     1
 63
     7
421
 16777215
176
     1
 74
     1
176
     1
 91
        0
176
     1
 64
     7
176
     1
 65
   257
176
     1
 75
     1
176
     1
175
     1
176
     1
 42
1.0
176
     1
 92
        0
176
     1
 66
   257
176
     1
 43
1.0
176
     1
 76
     1
176
     1
 77
     6
176
     1
 78
     2
176
     1
 67
     7
176
     1
 79
     5
176
     1
170
     0
176
     1
171
     0
176
     1
290
     0
176
     1
 93
       13
176
     1
 44
0.0
176
     1
173
     0
176
     1
1001
ACAD
1000
AcDbSavedByObjectVersion
1070
     0
  0
VISUALSTYLE
  5
31
102
{ACAD_XDICTIONARY
360
11C
102
}
102
{ACAD_REACTORS
330
29
102
}
330
29
100
AcDbVisualStyle
  2
Hidden
 70
     6
177
     2
291
     0
 71
     1
176
     1
 72
     2
176
     1
 73
     2
176
     1
 90
        0
176
     1
 40
0.6
176
     1
 41
30.0
176
     1
 63
     7
421
 16777215
176
     1
 74
     2
176
     1
 91
        2
176
     1
 64
     7
176
     1
 65
   257
176
     1
 75
     2
176
     1
175
     1
176
     1
 42
40.0
176
     1
 92
        0
176
     1
 66
   257
176
     1
 43
1.0
176
     1
 76
     1
176
     1
 77
     6
176
     1
 78
     2
176
     1
 67
     7
176
     1
 79
     3
176
     1
170
     0
176
     1
171
     0
176
     1
290
     0
176
     1
 93
        1
176
     1
 44
0.0
176
     1
173
     0
176
     1
1001
ACAD
1000
AcDbSavedByObjectVersion
1070
     0
  0
VISUALSTYLE
  5
3F
102
{ACAD_XDICTIONARY
360
138
102
}
102
{ACAD_REACTORS
330
29
102
}
330
29
100
AcDbVisualStyle
  2
JitterOff
 70
    20
177
     2
291
     1
 71
     2
176
     0
 72
     2
176
     0
 73
     0
176
     0
 90
        0
176
     0
 40
0.6
176
     0
 41
30.0
176
     0
 63
     7
421
 16777215
176
     0
 74
     1
176
     0
 91
        4
176
     0
 64
     7
176
     0
 65
   257
176
     0
 75
     1
176
     0
175
     1
176
     0
 42
1.0
176
     0
 92
       10
176
     2
 66
     7
176
     0
 43
1.0
176
     0
 76
     1
176
     0
 77
     6
176
     0
 78
     2
176
     0
 67
     7
176
     0
 79
     5
176
     0
170
     0
176
     0
171
     0
176
     0
290
     0
176
     0
 93
        1
176
     0
 44
0.0
176
     0
173
     0
176
     0
1001
ACAD
1000
AcDbSavedByObjectVersion
1070
     0
  0
VISUALSTYLE
  5
37
102
{ACAD_XDICTIONARY
360
128
102
}
102
{ACAD_REACTORS
330
29
102
}
330
29
100
AcDbVisualStyle
  2
Linepattern
 70
    14
177
     2
291
     1
 71
     2
176
     1
 72
     2
176
     1
 73
     0
176
     1
 90
        0
176
     1
 40
0.6
176
     1
 41
30.0
176
     1
 63
     7
421
 16777215
176
     1
 74
     1
176
     1
 91
        4
176
     1
 64
     7
176
     1
 65
   257
176
     1
 75
     7
176
     1
175
     7
176
     1
 42
1.0
176
     1
 92
        8
176
     1
 66
     7
176
     1
 43
1.0
176
     1
 76
     1
176
     1
 77
     6
176
     1
 78
     2
176
     1
 67
     7
176
     1
 79
     5
176
     1
170
     0
176
     1
171
     0
176
     1
290
     0
176
     1
 93
        1
176
     1
 44
0.0
176
     1
173
     0
176
     1
1001
ACAD
1000
AcDbSavedByObjectVersion
1070
     0
  0
VISUALSTYLE
  5
40
102
{ACAD_XDICTIONARY
360
13A
102
}
102
{ACAD_REACTORS
330
29
102
}
330
29
100
AcDbVisualStyle
  2
OverhangOff
 70
    21
177
     2
291
     1
 71
     2
176
     0
 72
     2
176
     0
 73
     0
176
     0
 90
        0
176
     0
 40
0.6
176
     0
 41
30.0
176
     0
 63
     7
421
 16777215
176
     0
 74
     1
176
     0
 91
        4
176
     0
 64
     7
176
     0
 65
   257
176
     0
 75
     1
176
     0
175
     1
176
     0
 42
1.0
176
     0
 92
        9
176
     2
 66
     7
176
     0
 43
1.0
176
     0
 76
     1
176
     0
 77
     6
176
     0
 78
     2
176
     0
 67
     7
176
     0
 79
     5
176
     0
170
     0
176
     0
171
     0
176
     0
290
     0
176
     0
 93
        1
176
     0
 44
0.0
176
     0
173
     0
176
     0
1001
ACAD
1000
AcDbSavedByObjectVersion
1070
     0
  0
VISUALSTYLE
  5
33
102
{ACAD_XDICTIONARY
360
120
102
}
102
{ACAD_REACTORS
330
29
102
}
330
29
100
AcDbVisualStyle
  2
Realistic
 70
     8
177
     2
291
     0
 71
     2
176
     1
 72
     3
176
     1
 73
     0
176
     1
 90
        2
176
     1
 40
0.6
176
     1
 41
30.0
176
     1
 63
     7
421
 16777215
176
     1
 74
     0
176
     1
 91
        0
176
     1
 64
     7
176
     1
 65
   257
176
     1
 75
     1
176
     1
175
     1
176
     1
 42
1.0
176
     1
 92
        8
176
     1
 66
   257
176
     1
 43
1.0
176
     1
 76
     1
176
     1
 77
     6
176
     1
 78
     2
176
     1
 67
     7
176
     1
 79
     3
176
     1
170
     0
176
     1
171
     0
176
     1
290
     0
176
     1
 93
       13
176
     1
 44
0.0
176
     1
173
     0
176
     1
1001
ACAD
1000
AcDbSavedByObjectVersion
1070
     0
  0
VISUALSTYLE
  5
3E
102
{ACAD_XDICTIONARY
360
136
102
}
102
{ACAD_REACTORS
330
29
102
}
330
29
100
AcDbVisualStyle
  2
Shaded
 70
    27
177
     2
291
     0
 71
     2
176
     1
 72
     2
176
     1
 73
     1
176
     1
 90
        2
176
     1
 40
0.6
176
     1
 41
30.0
176
     1
 63
     7
421
 16777215
176
     1
 74
     0
176
     1
 91
        4
176
     1
 64
     7
176
     1
 65
   257
176
     1
 75
     1
176
     1
175
     1
176
     1
 42
1.0
176
     1
 92
        8
176
     1
 66
   257
176
     1
 43
1.0
176
     1
 76
     1
176
     1
 77
     6
176
     1
 78
     2
176
     1
 67
     8
425
  7895160
176
     1
 79
     3
176
     1
170
     0
176
     1
171
     0
176
     1
290
     0
176
     1
 93
        5
176
     1
 44
0.0
176
     1
173
     0
176
     1
1001
ACAD
1000
AcDbSavedByObjectVersion
1070
     0
  0
VISUALSTYLE
  5
3D
102
{ACAD_XDICTIONARY
360
134
102
}
102
{ACAD_REACTORS
330
29
102
}
330
29
100
AcDbVisualStyle
  2
Shaded with edges
 70
    26
177
     2
291
     0
 71
     2
176
     1
 72
     2
176
     1
 73
     1
176
     1
 90
        2
176
     1
 40
0.6
176
     1
 41
30.0
176
     1
 63
     7
421
 16777215
176
     1
 74
     1
176
     1
 91
        2
176
     1
 64
     7
176
     1
 65
   257
176
     1
 75
     2
176
     1
175
     1
176
     1
 42
1.0
176
     1
 92
        8
176
     1
 66
   257
176
     1
 43
1.0
176
     1
 76
     1
176
     1
 77
     6
176
     1
 78
     2
176
     1
 67
     7
176
     1
 79
     3
176
     1
170
     0
176
     1
171
     0
176
     1
290
     0
176
     1
 93
        5
176
     1
 44
0.0
176
     1
173
     0
176
     1
1001
ACAD
1000
AcDbSavedByObjectVersion
1070
     0
  0
VISUALSTYLE
  5
3A
102
{ACAD_XDICTIONARY
360
12E
102
}
102
{ACAD_REACTORS
330
29
102
}
330
29
100
AcDbVisualStyle
  2
Shades of Gray
 70
    23
177
     2
291
     0
 71
     2
176
     1
 72
     2
176
     1
 73
     3
176
     1
 90
        0
176
     1
 40
0.6
176
     1
 41
30.0
176
     1
 63
     7
421
 16777215
176
     1
 74
     2
176
     1
 91
        2
176
     1
 64
     7
176
     1
 65
     7
176
     1
 75
     1
176
     1
175
     1
176
     1
 42
40.0
176
     1
 92
        8
176
     1
 66
     7
176
     1
 43
1.0
176
     1
 76
     1
176
     1
 77
     6
176
     1
 78
     2
176
     1
 67
     7
176
     1
 79
     3
176
     1
170
     0
176
     1
171
     0
176
     1
290
     0
176
     1
 93
        1
176
     1
 44
0.0
176
     1
173
     0
176
     1
1001
ACAD
1000
AcDbSavedByObjectVersion
1070
     0
  0
VISUALSTYLE
  5
3B
102
{ACAD_XDICTIONARY
360
130
102
}
102
{ACAD_REACTORS
330
29
102
}
330
29
100
AcDbVisualStyle
  2
Sketchy
 70
    24
177
     2
291
     0
 71
     1
176
     1
 72
     2
176
     1
 73
     2
176
     1
 90
        0
176
     1
 40
0.6
176
     1
 41
30.0
176
     1
 63
     7
421
 16777215
176
     1
 74
     2
176
     1
 91
        2
176
     1
 64
     7
176
     1
 65
     7
176
     1
 75
     1
176
     1
175
     1
176
     1
 42
40.0
176
     1
 92
       11
176
     1
 66
     7
176
     1
 43
1.0
176
     1
 76
     1
176
     1
 77
     6
176
     1
 78
     2
176
     1
 67
     7
176
     1
 79
     6
176
     1
170
     0
176
     1
171
     0
176
     1
290
     0
176
     1
 93
        1
176
     1
 44
0.0
176
     1
173
     0
176
     1
1001
ACAD
1000
AcDbSavedByObjectVersion
1070
     0
  0
VISUALSTYLE
  5
36
102
{ACAD_XDICTIONARY
360
126
102
}
102
{ACAD_REACTORS
330
29
102
}
330
29
100
AcDbVisualStyle
  2
Thicken
 70
    13
177
     2
291
     1
 71
     2
176
     1
 72
     2
176
     1
 73
     0
176
     1
 90
        0
176
     1
 40
0.6
176
     1
 41
30.0
176
     1
 63
     7
421
 16777215
176
     1
 74
     1
176
     1
 91
        4
176
     1
 64
     7
176
     1
 65
   257
176
     1
 75
     1
176
     1
175
     1
176
     1
 42
1.0
176
     1
 92
       12
176
     1
 66
     7
176
     1
 43
1.0
176
     1
 76
     1
176
     1
 77
     6
176
     1
 78
     2
176
     1
 67
     7
176
     1
 79
     5
176
     1
170
     0
176
     1
171
     0
176
     1
290
     0
176
     1
 93
        1
176
     1
 44
0.0
176
     1
173
     0
176
     1
1001
ACAD
1000
AcDbSavedByObjectVersion
1070
     0
  0
VISUALSTYLE
  5
30
102
{ACAD_XDICTIONARY
360
11A
102
}
102
{ACAD_REACTORS
330
29
102
}
330
29
100
AcDbVisualStyle
  2
Wireframe
 70
     5
177
     2
291
     0
 71
     0
176
     1
 72
     2
176
     1
 73
     0
176
     1
 90
        0
176
     1
 40
0.6
176
     1
 41
30.0
176
     1
 63
     7
421
 16777215
176
     1
 74
     1
176
     1
 91
        4
176
     1
 64
     7
176
     1
 65
   257
176
     1
 75
     1
176
     1
175
     1
176
     1
 42
1.0
176
     1
 92
        0
176
     1
 66
   257
176
     1
 43
1.0
176
     1
 76
     1
176
     1
 77
     6
176
     1
 78
     2
176
     1
 67
     7
176
     1
 79
     3
176
     1
170
     0
176
     1
171
     0
176
     1
290
     0
176
     1
 93
        1
176
     1
 44
0.0
176
     1
173
     0
176
     1
1001
ACAD
1000
AcDbSavedByObjectVersion
1070
     0
  0
VISUALSTYLE
  5
3C
102
{ACAD_XDICTIONARY
360
132
102
}
102
{ACAD_REACTORS
330
29
102
}
330
29
100
AcDbVisualStyle
  2
X-Ray
 70
    25
177
     2
291
     0
 71
     2
176
     1
 72
     2
176
     1
 73
     1
176
     1
 90
        1
176
     1
 40
0.5
176
     1
 41
30.0
176
     1
 63
     7
421
 16777215
176
     1
 74
     1
176
     1
 91
        0
176
     1
 64
     7
176
     1
 65
   257
176
     1
 75
     1
176
     1
175
     1
176
     1
 42
1.0
176
     1
 92
        8
176
     1
 66
     7
176
     1
 43
1.0
176
     1
 76
     1
176
     1
 77
     6
176
     1
 78
     2
176
     1
 67
     7
176
     1
 79
     3
176
     1
170
     0
176
     1
171
     0
176
     1
290
     0
176
     1
 93
       13
176
     1
 44
0.0
176
     1
173
     0
176
     1
1001
ACAD
1000
AcDbSavedByObjectVersion
1070
     0
  0
DICTIONARYVAR
  5
10A
102
{ACAD_REACTORS
330
105
102
}
330
105
100
DictionaryVariables
280
     0
  1
1:1
  0
DICTIONARYVAR
  5
107
102
{ACAD_REACTORS
330
105
102
}
330
105
100
DictionaryVariables
280
     0
  1
STANDARD
  0
DICTIONARYVAR
  5
106
102
{ACAD_REACTORS
330
105
102
}
330
105
100
DictionaryVariables
280
     0
  1
STANDARD
  0
DICTIONARYVAR
  5
108
102
{ACAD_REACTORS
330
105
102
}
330
105
100
DictionaryVariables
280
     0
  1
Imperial24
  0
DICTIONARYVAR
  5
109
102
{ACAD_REACTORS
330
105
102
}
330
105
100
DictionaryVariables
280
     0
  1
Imperial24
  0
DICTIONARY
  5
142
330
6B
100
AcDbDictionary
280
     1
281
     1
  3
ACAD_XREC_ROUNDTRIP
360
143
  0
DICTIONARY
  5
1A
330
19
100
AcDbDictionary
280
     1
281
     1
  3
BUMPTILE
360
1C
  3
DIFFUSETILE
360
1B
  3
OPACITYTILE
360
1F
  3
REFLECTIONTILE
360
1E
  3
REFRACTIONTILE
360
20
  3
SPECULARTILE
360
1D
  0
DICTIONARY
  5
12
330
11
100
AcDbDictionary
280
     1
281
     1
  3
BUMPTILE
360
14
  3
DIFFUSETILE
360
13
  3
OPACITYTILE
360
17
  3
REFLECTIONTILE
360
16
  3
REFRACTIONTILE
360
18
  3
SPECULARTILE
360
15
  0
DICTIONARY
  5
22
330
21
100
AcDbDictionary
280
     1
281
     1
  3
BUMPTILE
360
24
  3
DIFFUSETILE
360
23
  3
OPACITYTILE
360
27
  3
REFLECTIONTILE
360
26
  3
REFRACTIONTILE
360
28
  3
SPECULARTILE
360
25
  0
DICTIONARY
  5
13E
330
67
100
AcDbDictionary
280
     1
281
     1
  3
ACAD_XREC_ROUNDTRIP
360
13F
  0
DICTIONARY
  5
140
330
69
100
AcDbDictionary
280
     1
281
     1
  3
ACAD_XREC_ROUNDTRIP
360
141
  0
DICTIONARY
  5
10B
330
65
100
AcDbDictionary
280
     1
281
     1
  3
ACAD_ROUNDTRIP_2008_TABLESTYLE_CELLSTYLEMAP
360
10C
  0
DICTIONARY
  5
118
330
2F
100
AcDbDictionary
280
     1
281
     1
  3
ACAD_XREC_ROUNDTRIP
360
119
  0
DICTIONARY
  5
116
330
2E
100
AcDbDictionary
280
     1
281
     1
  3
ACAD_XREC_ROUNDTRIP
360
117
  0
DICTIONARY
  5
124
330
35
100
AcDbDictionary
280
     1
281
     1
  3
ACAD_XREC_ROUNDTRIP
360
125
  0
DICTIONARY
  5
12C
330
39
100
AcDbDictionary
280
     1
281
     1
  3
ACAD_XREC_ROUNDTRIP
360
12D
  0
DICTIONARY
  5
11E
330
32
100
AcDbDictionary
280
     1
281
     1
  3
ACAD_XREC_ROUNDTRIP
360
11F
  0
DICTIONARY
  5
122
330
34
100
AcDbDictionary
280
     1
281
     1
  3
ACAD_XREC_ROUNDTRIP
360
123
  0
DICTIONARY
  5
13C
330
41
100
AcDbDictionary
280
     1
281
     1
  3
ACAD_XREC_ROUNDTRIP
360
13D
  0
DICTIONARY
  5
12A
330
38
100
AcDbDictionary
280
     1
281
     1
  3
ACAD_XREC_ROUNDTRIP
360
12B
  0
DICTIONARY
  5
10E
330
2A
100
AcDbDictionary
280
     1
281
     1
  3
ACAD_XREC_ROUNDTRIP
360
10F
  0
DICTIONARY
  5
110
330
2B
100
AcDbDictionary
280
     1
281
     1
  3
ACAD_XREC_ROUNDTRIP
360
111
  0
DICTIONARY
  5
112
330
2C
100
AcDbDictionary
280
     1
281
     1
  3
ACAD_XREC_ROUNDTRIP
360
113
  0
DICTIONARY
  5
114
330
2D
100
AcDbDictionary
280
     1
281
     1
  3
ACAD_XREC_ROUNDTRIP
360
115
  0
DICTIONARY
  5
11C
330
31
100
AcDbDictionary
280
     1
281
     1
  3
ACAD_XREC_ROUNDTRIP
360
11D
  0
DICTIONARY
  5
138
330
3F
100
AcDbDictionary
280
     1
281
     1
  3
ACAD_XREC_ROUNDTRIP
360
139
  0
DICTIONARY
  5
128
330
37
100
AcDbDictionary
280
     1
281
     1
  3
ACAD_XREC_ROUNDTRIP
360
129
  0
DICTIONARY
  5
13A
330
40
100
AcDbDictionary
280
     1
281
     1
  3
ACAD_XREC_ROUNDTRIP
360
13B
  0
DICTIONARY
  5
120
330
33
100
AcDbDictionary
280
     1
281
     1
  3
ACAD_XREC_ROUNDTRIP
360
121
  0
DICTIONARY
  5
136
330
3E
100
AcDbDictionary
280
     1
281
     1
  3
ACAD_XREC_ROUNDTRIP
360
137
  0
DICTIONARY
  5
134
330
3D
100
AcDbDictionary
280
     1
281
     1
  3
ACAD_XREC_ROUNDTRIP
360
135
  0
DICTIONARY
  5
12E
330
3A
100
AcDbDictionary
280
     1
281
     1
  3
ACAD_XREC_ROUNDTRIP
360
12F
  0
DICTIONARY
  5
130
330
3B
100
AcDbDictionary
280
     1
281
     1
  3
ACAD_XREC_ROUNDTRIP
360
131
  0
DICTIONARY
  5
126
330
36
100
AcDbDictionary
280
     1
281
     1
  3
ACAD_XREC_ROUNDTRIP
360
127
  0
DICTIONARY
  5
11A
330
30
100
AcDbDictionary
280
     1
281
     1
  3
ACAD_XREC_ROUNDTRIP
360
11B
  0
DICTIONARY
  5
132
330
3C
100
AcDbDictionary
280
     1
281
     1
  3
ACAD_XREC_ROUNDTRIP
360
133
  0
XRECORD
  5
143
102
{ACAD_REACTORS
330
142
102
}
330
142
100
AcDbXrecord
280
     1
102
DISPLAYNAME
  1
Imperial24
102
FLAGS
 90
        0
  0
XRECORD
  5
1C
102
{ACAD_REACTORS
330
1A
102
}
330
1A
100
AcDbXrecord
280
     1
270
     1
271
     1
  0
XRECORD
  5
1B
102
{ACAD_REACTORS
330
1A
102
}
330
1A
100
AcDbXrecord
280
     1
270
     1
271
     1
  0
XRECORD
  5
1F
102
{ACAD_REACTORS
330
1A
102
}
330
1A
100
AcDbXrecord
280
     1
270
     1
271
     1
  0
XRECORD
  5
1E
102
{ACAD_REACTORS
330
1A
102
}
330
1A
100
AcDbXrecord
280
     1
270
     1
271
     1
  0
XRECORD
  5
20
102
{ACAD_REACTORS
330
1A
102
}
330
1A
100
AcDbXrecord
280
     1
270
     1
271
     1
  0
XRECORD
  5
1D
102
{ACAD_REACTORS
330
1A
102
}
330
1A
100
AcDbXrecord
280
     1
270
     1
271
     1
  0
XRECORD
  5
14
102
{ACAD_REACTORS
330
12
102
}
330
12
100
AcDbXrecord
280
     1
270
     1
271
     1
  0
XRECORD
  5
13
102
{ACAD_REACTORS
330
12
102
}
330
12
100
AcDbXrecord
280
     1
270
     1
271
     1
  0
XRECORD
  5
17
102
{ACAD_REACTORS
330
12
102
}
330
12
100
AcDbXrecord
280
     1
270
     1
271
     1
  0
XRECORD
  5
16
102
{ACAD_REACTORS
330
12
102
}
330
12
100
AcDbXrecord
280
     1
270
     1
271
     1
  0
XRECORD
  5
18
102
{ACAD_REACTORS
330
12
102
}
330
12
100
AcDbXrecord
280
     1
270
     1
271
     1
  0
XRECORD
  5
15
102
{ACAD_REACTORS
330
12
102
}
330
12
100
AcDbXrecord
280
     1
270
     1
271
     1
  0
XRECORD
  5
24
102
{ACAD_REACTORS
330
22
102
}
330
22
100
AcDbXrecord
280
     1
270
     1
271
     1
  0
XRECORD
  5
23
102
{ACAD_REACTORS
330
22
102
}
330
22
100
AcDbXrecord
280
     1
270
     1
271
     1
  0
XRECORD
  5
27
102
{ACAD_REACTORS
330
22
102
}
330
22
100
AcDbXrecord
280
     1
270
     1
271
     1
  0
XRECORD
  5
26
102
{ACAD_REACTORS
330
22
102
}
330
22
100
AcDbXrecord
280
     1
270
     1
271
     1
  0
XRECORD
  5
28
102
{ACAD_REACTORS
330
22
102
}
330
22
100
AcDbXrecord
280
     1
270
     1
271
     1
  0
XRECORD
  5
25
102
{ACAD_REACTORS
330
22
102
}
330
22
100
AcDbXrecord
280
     1
270
     1
271
     1
  0
XRECORD
  5
13F
102
{ACAD_REACTORS
330
13E
102
}
330
13E
100
AcDbXrecord
280
     1
102
ACAD_ROUNDTRIP_2012_MLEADER_STYLE
298
     1
  0
XRECORD
  5
141
102
{ACAD_REACTORS
330
140
102
}
330
140
100
AcDbXrecord
280
     1
102
DISPLAYNAME
  1
Imperial24
102
FLAGS
 90
        0
  0
CELLSTYLEMAP
  5
10C
102
{ACAD_REACTORS
330
10B
102
}
330
10B
100
AcDbCellStyleMap
 90
        3
300
CELLSTYLE
  1
TABLEFORMAT_BEGIN
 90
        5
170
     1
 91
        0
 92
    32768
 62
   257
 93
        1
300
CONTENTFORMAT
  1
CONTENTFORMAT_BEGIN
 90
        0
 91
        0
 92
      512
 93
        0
300

 40
0.0
140
1.0
 94
        5
 62
     0
340
55
144
0.25
309
CONTENTFORMAT_END
171
     0
 94
        0
309
TABLEFORMAT_END
  1
CELLSTYLE_BEGIN
 90
        1
 91
        1
300
_TITLE
309
CELLSTYLE_END
300
CELLSTYLE
  1
TABLEFORMAT_BEGIN
 90
        5
170
     1
 91
        0
 92
        0
 62
   257
 93
        1
300
CONTENTFORMAT
  1
CONTENTFORMAT_BEGIN
 90
        0
 91
        0
 92
      512
 93
        0
300

 40
0.0
140
1.0
 94
        5
 62
     0
340
55
144
0.18
309
CONTENTFORMAT_END
171
     0
 94
        0
309
TABLEFORMAT_END
  1
CELLSTYLE_BEGIN
 90
        2
 91
        1
300
_HEADER
309
CELLSTYLE_END
300
CELLSTYLE
  1
TABLEFORMAT_BEGIN
 90
        5
170
     1
 91
        0
 92
        0
 62
   257
 93
        1
300
CONTENTFORMAT
  1
CONTENTFORMAT_BEGIN
 90
        0
 91
        0
 92
      512
 93
        0
300

 40
0.0
140
1.0
 94
        2
 62
     0
340
55
144
0.18
309
CONTENTFORMAT_END
171
     0
 94
        0
309
TABLEFORMAT_END
  1
CELLSTYLE_BEGIN
 90
        3
 91
        2
300
_DATA
309
CELLSTYLE_END
  0
XRECORD
  5
119
102
{ACAD_REACTORS
330
118
102
}
330
118
100
AcDbXrecord
280
     1
102
RTVSPost2010Prop28
280
     1
102
RTVSPost2010PropOp28
 70
     1
102
RTVSPost2010Prop29
280
     1
102
RTVSPost2010PropOp29
 70
     1
102
RTVSPost2010Prop30
280
     0
102
RTVSPost2010PropOp30
 70
     1
102
RTVSPost2010Prop31
280
     0
102
RTVSPost2010PropOp31
 70
     1
102
RTVSPost2010Prop32
280
     0
102
RTVSPost2010PropOp32
 70
     1
102
RTVSPost2010Prop33
280
     0
102
RTVSPost2010PropOp33
 70
     1
102
RTVSPost2010Prop34
280
     0
102
RTVSPost2010PropOp34
 70
     1
102
RTVSPost2010Prop35
280
     0
102
RTVSPost2010PropOp35
 70
     1
102
RTVSPost2010Prop36
280
     0
102
RTVSPost2010PropOp36
 70
     1
102
RTVSPost2010Prop37
 90
       50
102
RTVSPost2010PropOp37
 70
     1
102
RTVSPost2010Prop38
140
0.0
102
RTVSPost2010PropOp38
 70
     1
102
RTVSPost2010Prop39
140
1.0
102
RTVSPost2010PropOp39
 70
     1
102
RTVSPost2010Prop40
 90
        0
102
RTVSPost2010PropOp40
 70
     1
102
RTVSPost2010Prop41ColorIndex
 90
       18
102
RTVSPost2010Prop41ColorRGB
 90
        0
102
RTVSPost2010PropOp41
 70
     1
102
RTVSPost2010Prop42
 90
       50
102
RTVSPost2010PropOp42
 70
     1
102
RTVSPost2010Prop43
 90
        3
102
RTVSPost2010PropOp43
 70
     1
102
RTVSPost2010Prop44ColorIndex
 90
        5
102
RTVSPost2010Prop44ColorRGB
 90
      255
102
RTVSPost2010PropOp44
 70
     1
102
RTVSPost2010Prop45
280
     0
102
RTVSPost2010PropOp45
 70
     1
102
RTVSPost2010Prop46
 90
       50
102
RTVSPost2010PropOp46
 70
     1
102
RTVSPost2010Prop47
 90
       50
102
RTVSPost2010PropOp47
 70
     1
102
RTVSPost2010Prop48
 90
       50
102
RTVSPost2010PropOp48
 70
     1
102
RTVSPost2010Prop49
280
     0
102
RTVSPost2010PropOp49
 70
     1
102
RTVSPost2010Prop50
 90
       50
102
RTVSPost2010PropOp50
 70
     1
102
RTVSPost2010Prop51ColorIndex
 90
      256
102
RTVSPost2010Prop51ColorRGB
 90
-16777216
102
RTVSPost2010PropOp51
 70
     0
102
RTVSPost2010Prop52
140
1.0
102
RTVSPost2010PropOp52
 70
     0
102
RTVSPost2010Prop53
 90
        2
102
RTVSPost2010PropOp53
 70
     1
102
RTVSPost2010Prop54
  1
strokes_ogs.tif
102
RTVSPost2010PropOp54
 70
     1
102
RTVSPost2010Prop55
280
     0
102
RTVSPost2010PropOp55
 70
     1
102
RTVSPost2010Prop56
140
1.0
102
RTVSPost2010PropOp56
 70
     1
102
RTVSPost2010Prop57
140
1.0
102
RTVSPost2010PropOp57
 70
     1
  0
XRECORD
  5
117
102
{ACAD_REACTORS
330
116
102
}
330
116
100
AcDbXrecord
280
     1
102
RTVSPost2010Prop28
280
     0
102
RTVSPost2010PropOp28
 70
     1
102
RTVSPost2010Prop29
280
     1
102
RTVSPost2010PropOp29
 70
     1
102
RTVSPost2010Prop30
280
     1
102
RTVSPost2010PropOp30
 70
     1
102
RTVSPost2010Prop31
280
     0
102
RTVSPost2010PropOp31
 70
     1
102
RTVSPost2010Prop32
280
     0
102
RTVSPost2010PropOp32
 70
     1
102
RTVSPost2010Prop33
280
     0
102
RTVSPost2010PropOp33
 70
     1
102
RTVSPost2010Prop34
280
     0
102
RTVSPost2010PropOp34
 70
     1
102
RTVSPost2010Prop35
280
     0
102
RTVSPost2010PropOp35
 70
     1
102
RTVSPost2010Prop36
280
     0
102
RTVSPost2010PropOp36
 70
     1
102
RTVSPost2010Prop37
 90
       50
102
RTVSPost2010PropOp37
 70
     1
102
RTVSPost2010Prop38
140
0.0
102
RTVSPost2010PropOp38
 70
     1
102
RTVSPost2010Prop39
140
1.0
102
RTVSPost2010PropOp39
 70
     1
102
RTVSPost2010Prop40
 90
        0
102
RTVSPost2010PropOp40
 70
     1
102
RTVSPost2010Prop41ColorIndex
 90
       18
102
RTVSPost2010Prop41ColorRGB
 90
        0
102
RTVSPost2010PropOp41
 70
     1
102
RTVSPost2010Prop42
 90
       50
102
RTVSPost2010PropOp42
 70
     1
102
RTVSPost2010Prop43
 90
        3
102
RTVSPost2010PropOp43
 70
     1
102
RTVSPost2010Prop44ColorIndex
 90
        5
102
RTVSPost2010Prop44ColorRGB
 90
      255
102
RTVSPost2010PropOp44
 70
     1
102
RTVSPost2010Prop45
280
     0
102
RTVSPost2010PropOp45
 70
     1
102
RTVSPost2010Prop46
 90
       50
102
RTVSPost2010PropOp46
 70
     1
102
RTVSPost2010Prop47
 90
       50
102
RTVSPost2010PropOp47
 70
     1
102
RTVSPost2010Prop48
 90
       50
102
RTVSPost2010PropOp48
 70
     1
102
RTVSPost2010Prop49
280
     0
102
RTVSPost2010PropOp49
 70
     1
102
RTVSPost2010Prop50
 90
       50
102
RTVSPost2010PropOp50
 70
     1
102
RTVSPost2010Prop51ColorIndex
 90
      256
102
RTVSPost2010Prop51ColorRGB
 90
-16777216
102
RTVSPost2010PropOp51
 70
     0
102
RTVSPost2010Prop52
140
1.0
102
RTVSPost2010PropOp52
 70
     0
102
RTVSPost2010Prop53
 90
        2
102
RTVSPost2010PropOp53
 70
     1
102
RTVSPost2010Prop54
  1
strokes_ogs.tif
102
RTVSPost2010PropOp54
 70
     1
102
RTVSPost2010Prop55
280
     0
102
RTVSPost2010PropOp55
 70
     1
102
RTVSPost2010Prop56
140
1.0
102
RTVSPost2010PropOp56
 70
     1
102
RTVSPost2010Prop57
140
1.0
102
RTVSPost2010PropOp57
 70
     1
  0
XRECORD
  5
125
102
{ACAD_REACTORS
330
124
102
}
330
124
100
AcDbXrecord
280
     1
102
RTVSPost2010Prop28
280
     0
102
RTVSPost2010PropOp28
 70
     1
102
RTVSPost2010Prop29
280
     1
102
RTVSPost2010PropOp29
 70
     1
102
RTVSPost2010Prop30
280
     1
102
RTVSPost2010PropOp30
 70
     1
102
RTVSPost2010Prop31
280
     0
102
RTVSPost2010PropOp31
 70
     1
102
RTVSPost2010Prop32
280
     0
102
RTVSPost2010PropOp32
 70
     1
102
RTVSPost2010Prop33
280
     0
102
RTVSPost2010PropOp33
 70
     1
102
RTVSPost2010Prop34
280
     0
102
RTVSPost2010PropOp34
 70
     1
102
RTVSPost2010Prop35
280
     0
102
RTVSPost2010PropOp35
 70
     1
102
RTVSPost2010Prop36
280
     0
102
RTVSPost2010PropOp36
 70
     1
102
RTVSPost2010Prop37
 90
       50
102
RTVSPost2010PropOp37
 70
     1
102
RTVSPost2010Prop38
140
0.0
102
RTVSPost2010PropOp38
 70
     1
102
RTVSPost2010Prop39
140
1.0
102
RTVSPost2010PropOp39
 70
     1
102
RTVSPost2010Prop40
 90
        0
102
RTVSPost2010PropOp40
 70
     1
102
RTVSPost2010Prop41ColorIndex
 90
       18
102
RTVSPost2010Prop41ColorRGB
 90
        0
102
RTVSPost2010PropOp41
 70
     1
102
RTVSPost2010Prop42
 90
       50
102
RTVSPost2010PropOp42
 70
     1
102
RTVSPost2010Prop43
 90
        3
102
RTVSPost2010PropOp43
 70
     1
102
RTVSPost2010Prop44ColorIndex
 90
        5
102
RTVSPost2010Prop44ColorRGB
 90
      255
102
RTVSPost2010PropOp44
 70
     1
102
RTVSPost2010Prop45
280
     0
102
RTVSPost2010PropOp45
 70
     1
102
RTVSPost2010Prop46
 90
       50
102
RTVSPost2010PropOp46
 70
     1
102
RTVSPost2010Prop47
 90
       50
102
RTVSPost2010PropOp47
 70
     1
102
RTVSPost2010Prop48
 90
       50
102
RTVSPost2010PropOp48
 70
     1
102
RTVSPost2010Prop49
280
     0
102
RTVSPost2010PropOp49
 70
     1
102
RTVSPost2010Prop50
 90
       50
102
RTVSPost2010PropOp50
 70
     1
102
RTVSPost2010Prop51ColorIndex
 90
      256
102
RTVSPost2010Prop51ColorRGB
 90
-16777216
102
RTVSPost2010PropOp51
 70
     0
102
RTVSPost2010Prop52
140
1.0
102
RTVSPost2010PropOp52
 70
     0
102
RTVSPost2010Prop53
 90
        2
102
RTVSPost2010PropOp53
 70
     1
102
RTVSPost2010Prop54
  1
strokes_ogs.tif
102
RTVSPost2010PropOp54
 70
     1
102
RTVSPost2010Prop55
280
     0
102
RTVSPost2010PropOp55
 70
     1
102
RTVSPost2010Prop56
140
1.0
102
RTVSPost2010PropOp56
 70
     1
102
RTVSPost2010Prop57
140
1.0
102
RTVSPost2010PropOp57
 70
     1
  0
XRECORD
  5
12D
102
{ACAD_REACTORS
330
12C
102
}
330
12C
100
AcDbXrecord
280
     1
102
RTVSPost2010Prop28
280
     0
102
RTVSPost2010PropOp28
 70
     1
102
RTVSPost2010Prop29
280
     1
102
RTVSPost2010PropOp29
 70
     1
102
RTVSPost2010Prop30
280
     1
102
RTVSPost2010PropOp30
 70
     1
102
RTVSPost2010Prop31
280
     0
102
RTVSPost2010PropOp31
 70
     1
102
RTVSPost2010Prop32
280
     0
102
RTVSPost2010PropOp32
 70
     1
102
RTVSPost2010Prop33
280
     0
102
RTVSPost2010PropOp33
 70
     1
102
RTVSPost2010Prop34
280
     0
102
RTVSPost2010PropOp34
 70
     1
102
RTVSPost2010Prop35
280
     0
102
RTVSPost2010PropOp35
 70
     1
102
RTVSPost2010Prop36
280
     0
102
RTVSPost2010PropOp36
 70
     1
102
RTVSPost2010Prop37
 90
       50
102
RTVSPost2010PropOp37
 70
     1
102
RTVSPost2010Prop38
140
0.0
102
RTVSPost2010PropOp38
 70
     1
102
RTVSPost2010Prop39
140
1.0
102
RTVSPost2010PropOp39
 70
     1
102
RTVSPost2010Prop40
 90
        0
102
RTVSPost2010PropOp40
 70
     1
102
RTVSPost2010Prop41ColorIndex
 90
       18
102
RTVSPost2010Prop41ColorRGB
 90
        0
102
RTVSPost2010PropOp41
 70
     1
102
RTVSPost2010Prop42
 90
       50
102
RTVSPost2010PropOp42
 70
     1
102
RTVSPost2010Prop43
 90
        3
102
RTVSPost2010PropOp43
 70
     1
102
RTVSPost2010Prop44ColorIndex
 90
        5
102
RTVSPost2010Prop44ColorRGB
 90
      255
102
RTVSPost2010PropOp44
 70
     1
102
RTVSPost2010Prop45
280
     0
102
RTVSPost2010PropOp45
 70
     1
102
RTVSPost2010Prop46
 90
       50
102
RTVSPost2010PropOp46
 70
     1
102
RTVSPost2010Prop47
 90
       50
102
RTVSPost2010PropOp47
 70
     1
102
RTVSPost2010Prop48
 90
       50
102
RTVSPost2010PropOp48
 70
     1
102
RTVSPost2010Prop49
280
     0
102
RTVSPost2010PropOp49
 70
     1
102
RTVSPost2010Prop50
 90
       50
102
RTVSPost2010PropOp50
 70
     1
102
RTVSPost2010Prop51ColorIndex
 90
      256
102
RTVSPost2010Prop51ColorRGB
 90
-16777216
102
RTVSPost2010PropOp51
 70
     0
102
RTVSPost2010Prop52
140
1.0
102
RTVSPost2010PropOp52
 70
     0
102
RTVSPost2010Prop53
 90
        2
102
RTVSPost2010PropOp53
 70
     1
102
RTVSPost2010Prop54
  1
strokes_ogs.tif
102
RTVSPost2010PropOp54
 70
     1
102
RTVSPost2010Prop55
280
     0
102
RTVSPost2010PropOp55
 70
     1
102
RTVSPost2010Prop56
140
1.0
102
RTVSPost2010PropOp56
 70
     1
102
RTVSPost2010Prop57
140
1.0
102
RTVSPost2010PropOp57
 70
     1
  0
XRECORD
  5
11F
102
{ACAD_REACTORS
330
11E
102
}
330
11E
100
AcDbXrecord
280
     1
102
RTVSPost2010Prop28
280
     0
102
RTVSPost2010PropOp28
 70
     1
102
RTVSPost2010Prop29
280
     1
102
RTVSPost2010PropOp29
 70
     1
102
RTVSPost2010Prop30
280
     1
102
RTVSPost2010PropOp30
 70
     1
102
RTVSPost2010Prop31
280
     0
102
RTVSPost2010PropOp31
 70
     1
102
RTVSPost2010Prop32
280
     0
102
RTVSPost2010PropOp32
 70
     1
102
RTVSPost2010Prop33
280
     0
102
RTVSPost2010PropOp33
 70
     1
102
RTVSPost2010Prop34
280
     0
102
RTVSPost2010PropOp34
 70
     1
102
RTVSPost2010Prop35
280
     0
102
RTVSPost2010PropOp35
 70
     1
102
RTVSPost2010Prop36
280
     0
102
RTVSPost2010PropOp36
 70
     1
102
RTVSPost2010Prop37
 90
       50
102
RTVSPost2010PropOp37
 70
     1
102
RTVSPost2010Prop38
140
0.0
102
RTVSPost2010PropOp38
 70
     1
102
RTVSPost2010Prop39
140
1.0
102
RTVSPost2010PropOp39
 70
     1
102
RTVSPost2010Prop40
 90
        0
102
RTVSPost2010PropOp40
 70
     1
102
RTVSPost2010Prop41ColorIndex
 90
       18
102
RTVSPost2010Prop41ColorRGB
 90
        0
102
RTVSPost2010PropOp41
 70
     1
102
RTVSPost2010Prop42
 90
       50
102
RTVSPost2010PropOp42
 70
     1
102
RTVSPost2010Prop43
 90
        3
102
RTVSPost2010PropOp43
 70
     1
102
RTVSPost2010Prop44ColorIndex
 90
        5
102
RTVSPost2010Prop44ColorRGB
 90
      255
102
RTVSPost2010PropOp44
 70
     1
102
RTVSPost2010Prop45
280
     0
102
RTVSPost2010PropOp45
 70
     1
102
RTVSPost2010Prop46
 90
       50
102
RTVSPost2010PropOp46
 70
     1
102
RTVSPost2010Prop47
 90
       50
102
RTVSPost2010PropOp47
 70
     1
102
RTVSPost2010Prop48
 90
       50
102
RTVSPost2010PropOp48
 70
     1
102
RTVSPost2010Prop49
280
     0
102
RTVSPost2010PropOp49
 70
     1
102
RTVSPost2010Prop50
 90
       50
102
RTVSPost2010PropOp50
 70
     1
102
RTVSPost2010Prop51ColorIndex
 90
      256
102
RTVSPost2010Prop51ColorRGB
 90
-16777216
102
RTVSPost2010PropOp51
 70
     0
102
RTVSPost2010Prop52
140
1.0
102
RTVSPost2010PropOp52
 70
     0
102
RTVSPost2010Prop53
 90
        2
102
RTVSPost2010PropOp53
 70
     1
102
RTVSPost2010Prop54
  1
strokes_ogs.tif
102
RTVSPost2010PropOp54
 70
     1
102
RTVSPost2010Prop55
280
     0
102
RTVSPost2010PropOp55
 70
     1
102
RTVSPost2010Prop56
140
1.0
102
RTVSPost2010PropOp56
 70
     1
102
RTVSPost2010Prop57
140
1.0
102
RTVSPost2010PropOp57
 70
     1
  0
XRECORD
  5
123
102
{ACAD_REACTORS
330
122
102
}
330
122
100
AcDbXrecord
280
     1
102
RTVSPost2010Prop28
280
     0
102
RTVSPost2010PropOp28
 70
     1
102
RTVSPost2010Prop29
280
     1
102
RTVSPost2010PropOp29
 70
     1
102
RTVSPost2010Prop30
280
     1
102
RTVSPost2010PropOp30
 70
     1
102
RTVSPost2010Prop31
280
     0
102
RTVSPost2010PropOp31
 70
     1
102
RTVSPost2010Prop32
280
     0
102
RTVSPost2010PropOp32
 70
     1
102
RTVSPost2010Prop33
280
     0
102
RTVSPost2010PropOp33
 70
     1
102
RTVSPost2010Prop34
280
     0
102
RTVSPost2010PropOp34
 70
     1
102
RTVSPost2010Prop35
280
     0
102
RTVSPost2010PropOp35
 70
     1
102
RTVSPost2010Prop36
280
     0
102
RTVSPost2010PropOp36
 70
     1
102
RTVSPost2010Prop37
 90
       50
102
RTVSPost2010PropOp37
 70
     1
102
RTVSPost2010Prop38
140
0.0
102
RTVSPost2010PropOp38
 70
     1
102
RTVSPost2010Prop39
140
1.0
102
RTVSPost2010PropOp39
 70
     1
102
RTVSPost2010Prop40
 90
        0
102
RTVSPost2010PropOp40
 70
     1
102
RTVSPost2010Prop41ColorIndex
 90
       18
102
RTVSPost2010Prop41ColorRGB
 90
        0
102
RTVSPost2010PropOp41
 70
     1
102
RTVSPost2010Prop42
 90
       50
102
RTVSPost2010PropOp42
 70
     1
102
RTVSPost2010Prop43
 90
        3
102
RTVSPost2010PropOp43
 70
     1
102
RTVSPost2010Prop44ColorIndex
 90
        5
102
RTVSPost2010Prop44ColorRGB
 90
      255
102
RTVSPost2010PropOp44
 70
     1
102
RTVSPost2010Prop45
280
     0
102
RTVSPost2010PropOp45
 70
     1
102
RTVSPost2010Prop46
 90
       50
102
RTVSPost2010PropOp46
 70
     1
102
RTVSPost2010Prop47
 90
       50
102
RTVSPost2010PropOp47
 70
     1
102
RTVSPost2010Prop48
 90
       50
102
RTVSPost2010PropOp48
 70
     1
102
RTVSPost2010Prop49
280
     0
102
RTVSPost2010PropOp49
 70
     1
102
RTVSPost2010Prop50
 90
       50
102
RTVSPost2010PropOp50
 70
     1
102
RTVSPost2010Prop51ColorIndex
 90
      256
102
RTVSPost2010Prop51ColorRGB
 90
-16777216
102
RTVSPost2010PropOp51
 70
     0
102
RTVSPost2010Prop52
140
1.0
102
RTVSPost2010PropOp52
 70
     0
102
RTVSPost2010Prop53
 90
        2
102
RTVSPost2010PropOp53
 70
     1
102
RTVSPost2010Prop54
  1
strokes_ogs.tif
102
RTVSPost2010PropOp54
 70
     1
102
RTVSPost2010Prop55
280
     0
102
RTVSPost2010PropOp55
 70
     1
102
RTVSPost2010Prop56
140
1.0
102
RTVSPost2010PropOp56
 70
     1
102
RTVSPost2010Prop57
140
1.0
102
RTVSPost2010PropOp57
 70
     1
  0
XRECORD
  5
13D
102
{ACAD_REACTORS
330
13C
102
}
330
13C
100
AcDbXrecord
280
     1
102
RTVSPost2010Prop28
280
     0
102
RTVSPost2010PropOp28
 70
     0
102
RTVSPost2010Prop29
280
     1
102
RTVSPost2010PropOp29
 70
     0
102
RTVSPost2010Prop30
280
     1
102
RTVSPost2010PropOp30
 70
     0
102
RTVSPost2010Prop31
280
     0
102
RTVSPost2010PropOp31
 70
     0
102
RTVSPost2010Prop32
280
     0
102
RTVSPost2010PropOp32
 70
     0
102
RTVSPost2010Prop33
280
     0
102
RTVSPost2010PropOp33
 70
     0
102
RTVSPost2010Prop34
280
     0
102
RTVSPost2010PropOp34
 70
     0
102
RTVSPost2010Prop35
280
     0
102
RTVSPost2010PropOp35
 70
     0
102
RTVSPost2010Prop36
280
     0
102
RTVSPost2010PropOp36
 70
     0
102
RTVSPost2010Prop37
 90
       50
102
RTVSPost2010PropOp37
 70
     0
102
RTVSPost2010Prop38
140
0.0
102
RTVSPost2010PropOp38
 70
     0
102
RTVSPost2010Prop39
140
1.0
102
RTVSPost2010PropOp39
 70
     0
102
RTVSPost2010Prop40
 90
        0
102
RTVSPost2010PropOp40
 70
     0
102
RTVSPost2010Prop41ColorIndex
 90
       18
102
RTVSPost2010Prop41ColorRGB
 90
        0
102
RTVSPost2010PropOp41
 70
     0
102
RTVSPost2010Prop42
 90
       50
102
RTVSPost2010PropOp42
 70
     0
102
RTVSPost2010Prop43
 90
        3
102
RTVSPost2010PropOp43
 70
     0
102
RTVSPost2010Prop44ColorIndex
 90
        5
102
RTVSPost2010Prop44ColorRGB
 90
      255
102
RTVSPost2010PropOp44
 70
     0
102
RTVSPost2010Prop45
280
     0
102
RTVSPost2010PropOp45
 70
     0
102
RTVSPost2010Prop46
 90
       50
102
RTVSPost2010PropOp46
 70
     0
102
RTVSPost2010Prop47
 90
       50
102
RTVSPost2010PropOp47
 70
     0
102
RTVSPost2010Prop48
 90
       50
102
RTVSPost2010PropOp48
 70
     0
102
RTVSPost2010Prop49
280
     0
102
RTVSPost2010PropOp49
 70
     0
102
RTVSPost2010Prop50
 90
       50
102
RTVSPost2010PropOp50
 70
     0
102
RTVSPost2010Prop51ColorIndex
 90
      256
102
RTVSPost2010Prop51ColorRGB
 90
-16777216
102
RTVSPost2010PropOp51
 70
     0
102
RTVSPost2010Prop52
140
1.0
102
RTVSPost2010PropOp52
 70
     0
102
RTVSPost2010Prop53
 90
        2
102
RTVSPost2010PropOp53
 70
     0
102
RTVSPost2010Prop54
  1
strokes_ogs.tif
102
RTVSPost2010PropOp54
 70
     0
102
RTVSPost2010Prop55
280
     0
102
RTVSPost2010PropOp55
 70
     0
102
RTVSPost2010Prop56
140
1.0
102
RTVSPost2010PropOp56
 70
     0
102
RTVSPost2010Prop57
140
1.0
102
RTVSPost2010PropOp57
 70
     0
  0
XRECORD
  5
12B
102
{ACAD_REACTORS
330
12A
102
}
330
12A
100
AcDbXrecord
280
     1
102
RTVSPost2010Prop28
280
     0
102
RTVSPost2010PropOp28
 70
     1
102
RTVSPost2010Prop29
280
     1
102
RTVSPost2010PropOp29
 70
     1
102
RTVSPost2010Prop30
280
     1
102
RTVSPost2010PropOp30
 70
     1
102
RTVSPost2010Prop31
280
     0
102
RTVSPost2010PropOp31
 70
     1
102
RTVSPost2010Prop32
280
     0
102
RTVSPost2010PropOp32
 70
     1
102
RTVSPost2010Prop33
280
     0
102
RTVSPost2010PropOp33
 70
     1
102
RTVSPost2010Prop34
280
     0
102
RTVSPost2010PropOp34
 70
     1
102
RTVSPost2010Prop35
280
     0
102
RTVSPost2010PropOp35
 70
     1
102
RTVSPost2010Prop36
280
     0
102
RTVSPost2010PropOp36
 70
     1
102
RTVSPost2010Prop37
 90
       50
102
RTVSPost2010PropOp37
 70
     1
102
RTVSPost2010Prop38
140
0.0
102
RTVSPost2010PropOp38
 70
     1
102
RTVSPost2010Prop39
140
1.0
102
RTVSPost2010PropOp39
 70
     1
102
RTVSPost2010Prop40
 90
        0
102
RTVSPost2010PropOp40
 70
     1
102
RTVSPost2010Prop41ColorIndex
 90
       18
102
RTVSPost2010Prop41ColorRGB
 90
        0
102
RTVSPost2010PropOp41
 70
     1
102
RTVSPost2010Prop42
 90
       50
102
RTVSPost2010PropOp42
 70
     1
102
RTVSPost2010Prop43
 90
        3
102
RTVSPost2010PropOp43
 70
     1
102
RTVSPost2010Prop44ColorIndex
 90
        5
102
RTVSPost2010Prop44ColorRGB
 90
      255
102
RTVSPost2010PropOp44
 70
     1
102
RTVSPost2010Prop45
280
     0
102
RTVSPost2010PropOp45
 70
     1
102
RTVSPost2010Prop46
 90
       50
102
RTVSPost2010PropOp46
 70
     1
102
RTVSPost2010Prop47
 90
       50
102
RTVSPost2010PropOp47
 70
     1
102
RTVSPost2010Prop48
 90
       50
102
RTVSPost2010PropOp48
 70
     1
102
RTVSPost2010Prop49
280
     0
102
RTVSPost2010PropOp49
 70
     1
102
RTVSPost2010Prop50
 90
       50
102
RTVSPost2010PropOp50
 70
     1
102
RTVSPost2010Prop51ColorIndex
 90
      256
102
RTVSPost2010Prop51ColorRGB
 90
-16777216
102
RTVSPost2010PropOp51
 70
     0
102
RTVSPost2010Prop52
140
1.0
102
RTVSPost2010PropOp52
 70
     0
102
RTVSPost2010Prop53
 90
        2
102
RTVSPost2010PropOp53
 70
     1
102
RTVSPost2010Prop54
  1
strokes_ogs.tif
102
RTVSPost2010PropOp54
 70
     1
102
RTVSPost2010Prop55
280
     0
102
RTVSPost2010PropOp55
 70
     1
102
RTVSPost2010Prop56
140
1.0
102
RTVSPost2010PropOp56
 70
     1
102
RTVSPost2010Prop57
140
1.0
102
RTVSPost2010PropOp57
 70
     1
  0
XRECORD
  5
10F
102
{ACAD_REACTORS
330
10E
102
}
330
10E
100
AcDbXrecord
280
     1
102
RTVSPost2010Prop28
280
     0
102
RTVSPost2010PropOp28
 70
     1
102
RTVSPost2010Prop29
280
     1
102
RTVSPost2010PropOp29
 70
     1
102
RTVSPost2010Prop30
280
     1
102
RTVSPost2010PropOp30
 70
     1
102
RTVSPost2010Prop31
280
     0
102
RTVSPost2010PropOp31
 70
     1
102
RTVSPost2010Prop32
280
     0
102
RTVSPost2010PropOp32
 70
     1
102
RTVSPost2010Prop33
280
     0
102
RTVSPost2010PropOp33
 70
     1
102
RTVSPost2010Prop34
280
     0
102
RTVSPost2010PropOp34
 70
     1
102
RTVSPost2010Prop35
280
     0
102
RTVSPost2010PropOp35
 70
     1
102
RTVSPost2010Prop36
280
     0
102
RTVSPost2010PropOp36
 70
     1
102
RTVSPost2010Prop37
 90
       50
102
RTVSPost2010PropOp37
 70
     1
102
RTVSPost2010Prop38
140
0.0
102
RTVSPost2010PropOp38
 70
     1
102
RTVSPost2010Prop39
140
1.0
102
RTVSPost2010PropOp39
 70
     1
102
RTVSPost2010Prop40
 90
        0
102
RTVSPost2010PropOp40
 70
     1
102
RTVSPost2010Prop41ColorIndex
 90
       18
102
RTVSPost2010Prop41ColorRGB
 90
        0
102
RTVSPost2010PropOp41
 70
     1
102
RTVSPost2010Prop42
 90
       50
102
RTVSPost2010PropOp42
 70
     1
102
RTVSPost2010Prop43
 90
        3
102
RTVSPost2010PropOp43
 70
     1
102
RTVSPost2010Prop44ColorIndex
 90
        5
102
RTVSPost2010Prop44ColorRGB
 90
      255
102
RTVSPost2010PropOp44
 70
     1
102
RTVSPost2010Prop45
280
     0
102
RTVSPost2010PropOp45
 70
     1
102
RTVSPost2010Prop46
 90
       50
102
RTVSPost2010PropOp46
 70
     1
102
RTVSPost2010Prop47
 90
       50
102
RTVSPost2010PropOp47
 70
     1
102
RTVSPost2010Prop48
 90
       50
102
RTVSPost2010PropOp48
 70
     1
102
RTVSPost2010Prop49
280
     0
102
RTVSPost2010PropOp49
 70
     1
102
RTVSPost2010Prop50
 90
       50
102
RTVSPost2010PropOp50
 70
     1
102
RTVSPost2010Prop51ColorIndex
 90
      256
102
RTVSPost2010Prop51ColorRGB
 90
-16777216
102
RTVSPost2010PropOp51
 70
     0
102
RTVSPost2010Prop52
140
1.0
102
RTVSPost2010PropOp52
 70
     0
102
RTVSPost2010Prop53
 90
        2
102
RTVSPost2010PropOp53
 70
     1
102
RTVSPost2010Prop54
  1
strokes_ogs.tif
102
RTVSPost2010PropOp54
 70
     1
102
RTVSPost2010Prop55
280
     0
102
RTVSPost2010PropOp55
 70
     1
102
RTVSPost2010Prop56
140
1.0
102
RTVSPost2010PropOp56
 70
     1
102
RTVSPost2010Prop57
140
1.0
102
RTVSPost2010PropOp57
 70
     1
  0
XRECORD
  5
111
102
{ACAD_REACTORS
330
110
102
}
330
110
100
AcDbXrecord
280
     1
102
RTVSPost2010Prop28
280
     0
102
RTVSPost2010PropOp28
 70
     1
102
RTVSPost2010Prop29
280
     1
102
RTVSPost2010PropOp29
 70
     1
102
RTVSPost2010Prop30
280
     1
102
RTVSPost2010PropOp30
 70
     1
102
RTVSPost2010Prop31
280
     0
102
RTVSPost2010PropOp31
 70
     1
102
RTVSPost2010Prop32
280
     0
102
RTVSPost2010PropOp32
 70
     1
102
RTVSPost2010Prop33
280
     0
102
RTVSPost2010PropOp33
 70
     1
102
RTVSPost2010Prop34
280
     0
102
RTVSPost2010PropOp34
 70
     1
102
RTVSPost2010Prop35
280
     0
102
RTVSPost2010PropOp35
 70
     1
102
RTVSPost2010Prop36
280
     0
102
RTVSPost2010PropOp36
 70
     1
102
RTVSPost2010Prop37
 90
       50
102
RTVSPost2010PropOp37
 70
     1
102
RTVSPost2010Prop38
140
0.0
102
RTVSPost2010PropOp38
 70
     1
102
RTVSPost2010Prop39
140
1.0
102
RTVSPost2010PropOp39
 70
     1
102
RTVSPost2010Prop40
 90
        0
102
RTVSPost2010PropOp40
 70
     1
102
RTVSPost2010Prop41ColorIndex
 90
       18
102
RTVSPost2010Prop41ColorRGB
 90
        0
102
RTVSPost2010PropOp41
 70
     1
102
RTVSPost2010Prop42
 90
       50
102
RTVSPost2010PropOp42
 70
     1
102
RTVSPost2010Prop43
 90
        3
102
RTVSPost2010PropOp43
 70
     1
102
RTVSPost2010Prop44ColorIndex
 90
        5
102
RTVSPost2010Prop44ColorRGB
 90
      255
102
RTVSPost2010PropOp44
 70
     1
102
RTVSPost2010Prop45
280
     0
102
RTVSPost2010PropOp45
 70
     1
102
RTVSPost2010Prop46
 90
       50
102
RTVSPost2010PropOp46
 70
     1
102
RTVSPost2010Prop47
 90
       50
102
RTVSPost2010PropOp47
 70
     1
102
RTVSPost2010Prop48
 90
       50
102
RTVSPost2010PropOp48
 70
     1
102
RTVSPost2010Prop49
280
     0
102
RTVSPost2010PropOp49
 70
     1
102
RTVSPost2010Prop50
 90
       50
102
RTVSPost2010PropOp50
 70
     1
102
RTVSPost2010Prop51ColorIndex
 90
      256
102
RTVSPost2010Prop51ColorRGB
 90
-16777216
102
RTVSPost2010PropOp51
 70
     0
102
RTVSPost2010Prop52
140
1.0
102
RTVSPost2010PropOp52
 70
     0
102
RTVSPost2010Prop53
 90
        2
102
RTVSPost2010PropOp53
 70
     1
102
RTVSPost2010Prop54
  1
strokes_ogs.tif
102
RTVSPost2010PropOp54
 70
     1
102
RTVSPost2010Prop55
280
     0
102
RTVSPost2010PropOp55
 70
     1
102
RTVSPost2010Prop56
140
1.0
102
RTVSPost2010PropOp56
 70
     1
102
RTVSPost2010Prop57
140
1.0
102
RTVSPost2010PropOp57
 70
     1
  0
XRECORD
  5
113
102
{ACAD_REACTORS
330
112
102
}
330
112
100
AcDbXrecord
280
     1
102
RTVSPost2010Prop28
280
     0
102
RTVSPost2010PropOp28
 70
     1
102
RTVSPost2010Prop29
280
     1
102
RTVSPost2010PropOp29
 70
     1
102
RTVSPost2010Prop30
280
     1
102
RTVSPost2010PropOp30
 70
     1
102
RTVSPost2010Prop31
280
     0
102
RTVSPost2010PropOp31
 70
     1
102
RTVSPost2010Prop32
280
     0
102
RTVSPost2010PropOp32
 70
     1
102
RTVSPost2010Prop33
280
     0
102
RTVSPost2010PropOp33
 70
     1
102
RTVSPost2010Prop34
280
     0
102
RTVSPost2010PropOp34
 70
     1
102
RTVSPost2010Prop35
280
     0
102
RTVSPost2010PropOp35
 70
     1
102
RTVSPost2010Prop36
280
     0
102
RTVSPost2010PropOp36
 70
     1
102
RTVSPost2010Prop37
 90
       50
102
RTVSPost2010PropOp37
 70
     1
102
RTVSPost2010Prop38
140
0.0
102
RTVSPost2010PropOp38
 70
     1
102
RTVSPost2010Prop39
140
1.0
102
RTVSPost2010PropOp39
 70
     1
102
RTVSPost2010Prop40
 90
        0
102
RTVSPost2010PropOp40
 70
     1
102
RTVSPost2010Prop41ColorIndex
 90
       18
102
RTVSPost2010Prop41ColorRGB
 90
        0
102
RTVSPost2010PropOp41
 70
     1
102
RTVSPost2010Prop42
 90
       50
102
RTVSPost2010PropOp42
 70
     1
102
RTVSPost2010Prop43
 90
        3
102
RTVSPost2010PropOp43
 70
     1
102
RTVSPost2010Prop44ColorIndex
 90
        5
102
RTVSPost2010Prop44ColorRGB
 90
      255
102
RTVSPost2010PropOp44
 70
     1
102
RTVSPost2010Prop45
280
     0
102
RTVSPost2010PropOp45
 70
     1
102
RTVSPost2010Prop46
 90
       50
102
RTVSPost2010PropOp46
 70
     1
102
RTVSPost2010Prop47
 90
       50
102
RTVSPost2010PropOp47
 70
     1
102
RTVSPost2010Prop48
 90
       50
102
RTVSPost2010PropOp48
 70
     1
102
RTVSPost2010Prop49
280
     0
102
RTVSPost2010PropOp49
 70
     1
102
RTVSPost2010Prop50
 90
       50
102
RTVSPost2010PropOp50
 70
     1
102
RTVSPost2010Prop51ColorIndex
 90
      256
102
RTVSPost2010Prop51ColorRGB
 90
-16777216
102
RTVSPost2010PropOp51
 70
     0
102
RTVSPost2010Prop52
140
1.0
102
RTVSPost2010PropOp52
 70
     0
102
RTVSPost2010Prop53
 90
        2
102
RTVSPost2010PropOp53
 70
     1
102
RTVSPost2010Prop54
  1
strokes_ogs.tif
102
RTVSPost2010PropOp54
 70
     1
102
RTVSPost2010Prop55
280
     0
102
RTVSPost2010PropOp55
 70
     1
102
RTVSPost2010Prop56
140
1.0
102
RTVSPost2010PropOp56
 70
     1
102
RTVSPost2010Prop57
140
1.0
102
RTVSPost2010PropOp57
 70
     1
  0
XRECORD
  5
115
102
{ACAD_REACTORS
330
114
102
}
330
114
100
AcDbXrecord
280
     1
102
RTVSPost2010Prop28
280
     0
102
RTVSPost2010PropOp28
 70
     1
102
RTVSPost2010Prop29
280
     1
102
RTVSPost2010PropOp29
 70
     1
102
RTVSPost2010Prop30
280
     1
102
RTVSPost2010PropOp30
 70
     1
102
RTVSPost2010Prop31
280
     0
102
RTVSPost2010PropOp31
 70
     1
102
RTVSPost2010Prop32
280
     0
102
RTVSPost2010PropOp32
 70
     1
102
RTVSPost2010Prop33
280
     0
102
RTVSPost2010PropOp33
 70
     1
102
RTVSPost2010Prop34
280
     0
102
RTVSPost2010PropOp34
 70
     1
102
RTVSPost2010Prop35
280
     0
102
RTVSPost2010PropOp35
 70
     1
102
RTVSPost2010Prop36
280
     0
102
RTVSPost2010PropOp36
 70
     1
102
RTVSPost2010Prop37
 90
       50
102
RTVSPost2010PropOp37
 70
     1
102
RTVSPost2010Prop38
140
0.0
102
RTVSPost2010PropOp38
 70
     1
102
RTVSPost2010Prop39
140
1.0
102
RTVSPost2010PropOp39
 70
     1
102
RTVSPost2010Prop40
 90
        0
102
RTVSPost2010PropOp40
 70
     1
102
RTVSPost2010Prop41ColorIndex
 90
       18
102
RTVSPost2010Prop41ColorRGB
 90
        0
102
RTVSPost2010PropOp41
 70
     1
102
RTVSPost2010Prop42
 90
       50
102
RTVSPost2010PropOp42
 70
     1
102
RTVSPost2010Prop43
 90
        3
102
RTVSPost2010PropOp43
 70
     1
102
RTVSPost2010Prop44ColorIndex
 90
        5
102
RTVSPost2010Prop44ColorRGB
 90
      255
102
RTVSPost2010PropOp44
 70
     1
102
RTVSPost2010Prop45
280
     0
102
RTVSPost2010PropOp45
 70
     1
102
RTVSPost2010Prop46
 90
       50
102
RTVSPost2010PropOp46
 70
     1
102
RTVSPost2010Prop47
 90
       50
102
RTVSPost2010PropOp47
 70
     1
102
RTVSPost2010Prop48
 90
       50
102
RTVSPost2010PropOp48
 70
     1
102
RTVSPost2010Prop49
280
     0
102
RTVSPost2010PropOp49
 70
     1
102
RTVSPost2010Prop50
 90
       50
102
RTVSPost2010PropOp50
 70
     1
102
RTVSPost2010Prop51ColorIndex
 90
      256
102
RTVSPost2010Prop51ColorRGB
 90
-16777216
102
RTVSPost2010PropOp51
 70
     0
102
RTVSPost2010Prop52
140
1.0
102
RTVSPost2010PropOp52
 70
     0
102
RTVSPost2010Prop53
 90
        2
102
RTVSPost2010PropOp53
 70
     1
102
RTVSPost2010Prop54
  1
strokes_ogs.tif
102
RTVSPost2010PropOp54
 70
     1
102
RTVSPost2010Prop55
280
     0
102
RTVSPost2010PropOp55
 70
     1
102
RTVSPost2010Prop56
140
1.0
102
RTVSPost2010PropOp56
 70
     1
102
RTVSPost2010Prop57
140
1.0
102
RTVSPost2010PropOp57
 70
     1
  0
XRECORD
  5
11D
102
{ACAD_REACTORS
330
11C
102
}
330
11C
100
AcDbXrecord
280
     1
102
RTVSPost2010Prop28
280
     0
102
RTVSPost2010PropOp28
 70
     1
102
RTVSPost2010Prop29
280
     1
102
RTVSPost2010PropOp29
 70
     1
102
RTVSPost2010Prop30
280
     1
102
RTVSPost2010PropOp30
 70
     1
102
RTVSPost2010Prop31
280
     0
102
RTVSPost2010PropOp31
 70
     1
102
RTVSPost2010Prop32
280
     0
102
RTVSPost2010PropOp32
 70
     1
102
RTVSPost2010Prop33
280
     0
102
RTVSPost2010PropOp33
 70
     1
102
RTVSPost2010Prop34
280
     0
102
RTVSPost2010PropOp34
 70
     1
102
RTVSPost2010Prop35
280
     0
102
RTVSPost2010PropOp35
 70
     1
102
RTVSPost2010Prop36
280
     0
102
RTVSPost2010PropOp36
 70
     1
102
RTVSPost2010Prop37
 90
       50
102
RTVSPost2010PropOp37
 70
     1
102
RTVSPost2010Prop38
140
0.0
102
RTVSPost2010PropOp38
 70
     1
102
RTVSPost2010Prop39
140
1.0
102
RTVSPost2010PropOp39
 70
     1
102
RTVSPost2010Prop40
 90
        0
102
RTVSPost2010PropOp40
 70
     1
102
RTVSPost2010Prop41ColorIndex
 90
       18
102
RTVSPost2010Prop41ColorRGB
 90
        0
102
RTVSPost2010PropOp41
 70
     1
102
RTVSPost2010Prop42
 90
       50
102
RTVSPost2010PropOp42
 70
     1
102
RTVSPost2010Prop43
 90
        3
102
RTVSPost2010PropOp43
 70
     1
102
RTVSPost2010Prop44ColorIndex
 90
        5
102
RTVSPost2010Prop44ColorRGB
 90
      255
102
RTVSPost2010PropOp44
 70
     1
102
RTVSPost2010Prop45
280
     0
102
RTVSPost2010PropOp45
 70
     1
102
RTVSPost2010Prop46
 90
       50
102
RTVSPost2010PropOp46
 70
     1
102
RTVSPost2010Prop47
 90
       50
102
RTVSPost2010PropOp47
 70
     1
102
RTVSPost2010Prop48
 90
       50
102
RTVSPost2010PropOp48
 70
     1
102
RTVSPost2010Prop49
280
     0
102
RTVSPost2010PropOp49
 70
     1
102
RTVSPost2010Prop50
 90
       50
102
RTVSPost2010PropOp50
 70
     1
102
RTVSPost2010Prop51ColorIndex
 90
      256
102
RTVSPost2010Prop51ColorRGB
 90
-16777216
102
RTVSPost2010PropOp51
 70
     0
102
RTVSPost2010Prop52
140
1.0
102
RTVSPost2010PropOp52
 70
     0
102
RTVSPost2010Prop53
 90
        2
102
RTVSPost2010PropOp53
 70
     1
102
RTVSPost2010Prop54
  1
strokes_ogs.tif
102
RTVSPost2010PropOp54
 70
     1
102
RTVSPost2010Prop55
280
     0
102
RTVSPost2010PropOp55
 70
     1
102
RTVSPost2010Prop56
140
1.0
102
RTVSPost2010PropOp56
 70
     1
102
RTVSPost2010Prop57
140
1.0
102
RTVSPost2010PropOp57
 70
     1
  0
XRECORD
  5
139
102
{ACAD_REACTORS
330
138
102
}
330
138
100
AcDbXrecord
280
     1
102
RTVSPost2010Prop28
280
     0
102
RTVSPost2010PropOp28
 70
     0
102
RTVSPost2010Prop29
280
     1
102
RTVSPost2010PropOp29
 70
     0
102
RTVSPost2010Prop30
280
     1
102
RTVSPost2010PropOp30
 70
     0
102
RTVSPost2010Prop31
280
     0
102
RTVSPost2010PropOp31
 70
     0
102
RTVSPost2010Prop32
280
     0
102
RTVSPost2010PropOp32
 70
     0
102
RTVSPost2010Prop33
280
     0
102
RTVSPost2010PropOp33
 70
     0
102
RTVSPost2010Prop34
280
     0
102
RTVSPost2010PropOp34
 70
     0
102
RTVSPost2010Prop35
280
     0
102
RTVSPost2010PropOp35
 70
     0
102
RTVSPost2010Prop36
280
     0
102
RTVSPost2010PropOp36
 70
     0
102
RTVSPost2010Prop37
 90
       50
102
RTVSPost2010PropOp37
 70
     0
102
RTVSPost2010Prop38
140
0.0
102
RTVSPost2010PropOp38
 70
     0
102
RTVSPost2010Prop39
140
1.0
102
RTVSPost2010PropOp39
 70
     0
102
RTVSPost2010Prop40
 90
        0
102
RTVSPost2010PropOp40
 70
     0
102
RTVSPost2010Prop41ColorIndex
 90
       18
102
RTVSPost2010Prop41ColorRGB
 90
        0
102
RTVSPost2010PropOp41
 70
     0
102
RTVSPost2010Prop42
 90
       50
102
RTVSPost2010PropOp42
 70
     0
102
RTVSPost2010Prop43
 90
        3
102
RTVSPost2010PropOp43
 70
     0
102
RTVSPost2010Prop44ColorIndex
 90
        5
102
RTVSPost2010Prop44ColorRGB
 90
      255
102
RTVSPost2010PropOp44
 70
     0
102
RTVSPost2010Prop45
280
     0
102
RTVSPost2010PropOp45
 70
     0
102
RTVSPost2010Prop46
 90
       50
102
RTVSPost2010PropOp46
 70
     0
102
RTVSPost2010Prop47
 90
       50
102
RTVSPost2010PropOp47
 70
     0
102
RTVSPost2010Prop48
 90
       50
102
RTVSPost2010PropOp48
 70
     0
102
RTVSPost2010Prop49
280
     0
102
RTVSPost2010PropOp49
 70
     0
102
RTVSPost2010Prop50
 90
       50
102
RTVSPost2010PropOp50
 70
     0
102
RTVSPost2010Prop51ColorIndex
 90
      256
102
RTVSPost2010Prop51ColorRGB
 90
-16777216
102
RTVSPost2010PropOp51
 70
     0
102
RTVSPost2010Prop52
140
1.0
102
RTVSPost2010PropOp52
 70
     0
102
RTVSPost2010Prop53
 90
        2
102
RTVSPost2010PropOp53
 70
     0
102
RTVSPost2010Prop54
  1
strokes_ogs.tif
102
RTVSPost2010PropOp54
 70
     0
102
RTVSPost2010Prop55
280
     0
102
RTVSPost2010PropOp55
 70
     0
102
RTVSPost2010Prop56
140
1.0
102
RTVSPost2010PropOp56
 70
     0
102
RTVSPost2010Prop57
140
1.0
102
RTVSPost2010PropOp57
 70
     0
  0
XRECORD
  5
129
102
{ACAD_REACTORS
330
128
102
}
330
128
100
AcDbXrecord
280
     1
102
RTVSPost2010Prop28
280
     0
102
RTVSPost2010PropOp28
 70
     1
102
RTVSPost2010Prop29
280
     1
102
RTVSPost2010PropOp29
 70
     1
102
RTVSPost2010Prop30
280
     1
102
RTVSPost2010PropOp30
 70
     1
102
RTVSPost2010Prop31
280
     0
102
RTVSPost2010PropOp31
 70
     1
102
RTVSPost2010Prop32
280
     0
102
RTVSPost2010PropOp32
 70
     1
102
RTVSPost2010Prop33
280
     0
102
RTVSPost2010PropOp33
 70
     1
102
RTVSPost2010Prop34
280
     0
102
RTVSPost2010PropOp34
 70
     1
102
RTVSPost2010Prop35
280
     0
102
RTVSPost2010PropOp35
 70
     1
102
RTVSPost2010Prop36
280
     0
102
RTVSPost2010PropOp36
 70
     1
102
RTVSPost2010Prop37
 90
       50
102
RTVSPost2010PropOp37
 70
     1
102
RTVSPost2010Prop38
140
0.0
102
RTVSPost2010PropOp38
 70
     1
102
RTVSPost2010Prop39
140
1.0
102
RTVSPost2010PropOp39
 70
     1
102
RTVSPost2010Prop40
 90
        0
102
RTVSPost2010PropOp40
 70
     1
102
RTVSPost2010Prop41ColorIndex
 90
       18
102
RTVSPost2010Prop41ColorRGB
 90
        0
102
RTVSPost2010PropOp41
 70
     1
102
RTVSPost2010Prop42
 90
       50
102
RTVSPost2010PropOp42
 70
     1
102
RTVSPost2010Prop43
 90
        3
102
RTVSPost2010PropOp43
 70
     1
102
RTVSPost2010Prop44ColorIndex
 90
        5
102
RTVSPost2010Prop44ColorRGB
 90
      255
102
RTVSPost2010PropOp44
 70
     1
102
RTVSPost2010Prop45
280
     0
102
RTVSPost2010PropOp45
 70
     1
102
RTVSPost2010Prop46
 90
       50
102
RTVSPost2010PropOp46
 70
     1
102
RTVSPost2010Prop47
 90
       50
102
RTVSPost2010PropOp47
 70
     1
102
RTVSPost2010Prop48
 90
       50
102
RTVSPost2010PropOp48
 70
     1
102
RTVSPost2010Prop49
280
     0
102
RTVSPost2010PropOp49
 70
     1
102
RTVSPost2010Prop50
 90
       50
102
RTVSPost2010PropOp50
 70
     1
102
RTVSPost2010Prop51ColorIndex
 90
      256
102
RTVSPost2010Prop51ColorRGB
 90
-16777216
102
RTVSPost2010PropOp51
 70
     0
102
RTVSPost2010Prop52
140
1.0
102
RTVSPost2010PropOp52
 70
     0
102
RTVSPost2010Prop53
 90
        2
102
RTVSPost2010PropOp53
 70
     1
102
RTVSPost2010Prop54
  1
strokes_ogs.tif
102
RTVSPost2010PropOp54
 70
     1
102
RTVSPost2010Prop55
280
     0
102
RTVSPost2010PropOp55
 70
     1
102
RTVSPost2010Prop56
140
1.0
102
RTVSPost2010PropOp56
 70
     1
102
RTVSPost2010Prop57
140
1.0
102
RTVSPost2010PropOp57
 70
     1
  0
XRECORD
  5
13B
102
{ACAD_REACTORS
330
13A
102
}
330
13A
100
AcDbXrecord
280
     1
102
RTVSPost2010Prop28
280
     0
102
RTVSPost2010PropOp28
 70
     0
102
RTVSPost2010Prop29
280
     1
102
RTVSPost2010PropOp29
 70
     0
102
RTVSPost2010Prop30
280
     1
102
RTVSPost2010PropOp30
 70
     0
102
RTVSPost2010Prop31
280
     0
102
RTVSPost2010PropOp31
 70
     0
102
RTVSPost2010Prop32
280
     0
102
RTVSPost2010PropOp32
 70
     0
102
RTVSPost2010Prop33
280
     0
102
RTVSPost2010PropOp33
 70
     0
102
RTVSPost2010Prop34
280
     0
102
RTVSPost2010PropOp34
 70
     0
102
RTVSPost2010Prop35
280
     0
102
RTVSPost2010PropOp35
 70
     0
102
RTVSPost2010Prop36
280
     0
102
RTVSPost2010PropOp36
 70
     0
102
RTVSPost2010Prop37
 90
       50
102
RTVSPost2010PropOp37
 70
     0
102
RTVSPost2010Prop38
140
0.0
102
RTVSPost2010PropOp38
 70
     0
102
RTVSPost2010Prop39
140
1.0
102
RTVSPost2010PropOp39
 70
     0
102
RTVSPost2010Prop40
 90
        0
102
RTVSPost2010PropOp40
 70
     0
102
RTVSPost2010Prop41ColorIndex
 90
       18
102
RTVSPost2010Prop41ColorRGB
 90
        0
102
RTVSPost2010PropOp41
 70
     0
102
RTVSPost2010Prop42
 90
       50
102
RTVSPost2010PropOp42
 70
     0
102
RTVSPost2010Prop43
 90
        3
102
RTVSPost2010PropOp43
 70
     0
102
RTVSPost2010Prop44ColorIndex
 90
        5
102
RTVSPost2010Prop44ColorRGB
 90
      255
102
RTVSPost2010PropOp44
 70
     0
102
RTVSPost2010Prop45
280
     0
102
RTVSPost2010PropOp45
 70
     0
102
RTVSPost2010Prop46
 90
       50
102
RTVSPost2010PropOp46
 70
     0
102
RTVSPost2010Prop47
 90
       50
102
RTVSPost2010PropOp47
 70
     0
102
RTVSPost2010Prop48
 90
       50
102
RTVSPost2010PropOp48
 70
     0
102
RTVSPost2010Prop49
280
     0
102
RTVSPost2010PropOp49
 70
     0
102
RTVSPost2010Prop50
 90
       50
102
RTVSPost2010PropOp50
 70
     0
102
RTVSPost2010Prop51ColorIndex
 90
      256
102
RTVSPost2010Prop51ColorRGB
 90
-16777216
102
RTVSPost2010PropOp51
 70
     0
102
RTVSPost2010Prop52
140
1.0
102
RTVSPost2010PropOp52
 70
     0
102
RTVSPost2010Prop53
 90
        2
102
RTVSPost2010PropOp53
 70
     0
102
RTVSPost2010Prop54
  1
strokes_ogs.tif
102
RTVSPost2010PropOp54
 70
     0
102
RTVSPost2010Prop55
280
     0
102
RTVSPost2010PropOp55
 70
     0
102
RTVSPost2010Prop56
140
1.0
102
RTVSPost2010PropOp56
 70
     0
102
RTVSPost2010Prop57
140
1.0
102
RTVSPost2010PropOp57
 70
     0
  0
XRECORD
  5
121
102
{ACAD_REACTORS
330
120
102
}
330
120
100
AcDbXrecord
280
     1
102
RTVSPost2010Prop28
280
     0
102
RTVSPost2010PropOp28
 70
     1
102
RTVSPost2010Prop29
280
     1
102
RTVSPost2010PropOp29
 70
     1
102
RTVSPost2010Prop30
280
     1
102
RTVSPost2010PropOp30
 70
     1
102
RTVSPost2010Prop31
280
     0
102
RTVSPost2010PropOp31
 70
     1
102
RTVSPost2010Prop32
280
     0
102
RTVSPost2010PropOp32
 70
     1
102
RTVSPost2010Prop33
280
     0
102
RTVSPost2010PropOp33
 70
     1
102
RTVSPost2010Prop34
280
     0
102
RTVSPost2010PropOp34
 70
     1
102
RTVSPost2010Prop35
280
     0
102
RTVSPost2010PropOp35
 70
     1
102
RTVSPost2010Prop36
280
     0
102
RTVSPost2010PropOp36
 70
     1
102
RTVSPost2010Prop37
 90
       50
102
RTVSPost2010PropOp37
 70
     1
102
RTVSPost2010Prop38
140
0.0
102
RTVSPost2010PropOp38
 70
     1
102
RTVSPost2010Prop39
140
1.0
102
RTVSPost2010PropOp39
 70
     1
102
RTVSPost2010Prop40
 90
        0
102
RTVSPost2010PropOp40
 70
     1
102
RTVSPost2010Prop41ColorIndex
 90
       18
102
RTVSPost2010Prop41ColorRGB
 90
        0
102
RTVSPost2010PropOp41
 70
     1
102
RTVSPost2010Prop42
 90
       50
102
RTVSPost2010PropOp42
 70
     1
102
RTVSPost2010Prop43
 90
        3
102
RTVSPost2010PropOp43
 70
     1
102
RTVSPost2010Prop44ColorIndex
 90
        5
102
RTVSPost2010Prop44ColorRGB
 90
      255
102
RTVSPost2010PropOp44
 70
     1
102
RTVSPost2010Prop45
280
     0
102
RTVSPost2010PropOp45
 70
     1
102
RTVSPost2010Prop46
 90
       50
102
RTVSPost2010PropOp46
 70
     1
102
RTVSPost2010Prop47
 90
       50
102
RTVSPost2010PropOp47
 70
     1
102
RTVSPost2010Prop48
 90
       50
102
RTVSPost2010PropOp48
 70
     1
102
RTVSPost2010Prop49
280
     0
102
RTVSPost2010PropOp49
 70
     1
102
RTVSPost2010Prop50
 90
       50
102
RTVSPost2010PropOp50
 70
     1
102
RTVSPost2010Prop51ColorIndex
 90
      256
102
RTVSPost2010Prop51ColorRGB
 90
-16777216
102
RTVSPost2010PropOp51
 70
     0
102
RTVSPost2010Prop52
140
1.0
102
RTVSPost2010PropOp52
 70
     0
102
RTVSPost2010Prop53
 90
        2
102
RTVSPost2010PropOp53
 70
     1
102
RTVSPost2010Prop54
  1
strokes_ogs.tif
102
RTVSPost2010PropOp54
 70
     1
102
RTVSPost2010Prop55
280
     0
102
RTVSPost2010PropOp55
 70
     1
102
RTVSPost2010Prop56
140
1.0
102
RTVSPost2010PropOp56
 70
     1
102
RTVSPost2010Prop57
140
1.0
102
RTVSPost2010PropOp57
 70
     1
  0
XRECORD
  5
137
102
{ACAD_REACTORS
330
136
102
}
330
136
100
AcDbXrecord
280
     1
102
RTVSPost2010Prop28
280
     0
102
RTVSPost2010PropOp28
 70
     1
102
RTVSPost2010Prop29
280
     1
102
RTVSPost2010PropOp29
 70
     1
102
RTVSPost2010Prop30
280
     1
102
RTVSPost2010PropOp30
 70
     1
102
RTVSPost2010Prop31
280
     0
102
RTVSPost2010PropOp31
 70
     1
102
RTVSPost2010Prop32
280
     0
102
RTVSPost2010PropOp32
 70
     1
102
RTVSPost2010Prop33
280
     0
102
RTVSPost2010PropOp33
 70
     1
102
RTVSPost2010Prop34
280
     0
102
RTVSPost2010PropOp34
 70
     1
102
RTVSPost2010Prop35
280
     0
102
RTVSPost2010PropOp35
 70
     1
102
RTVSPost2010Prop36
280
     0
102
RTVSPost2010PropOp36
 70
     1
102
RTVSPost2010Prop37
 90
       50
102
RTVSPost2010PropOp37
 70
     1
102
RTVSPost2010Prop38
140
0.0
102
RTVSPost2010PropOp38
 70
     1
102
RTVSPost2010Prop39
140
1.0
102
RTVSPost2010PropOp39
 70
     1
102
RTVSPost2010Prop40
 90
        0
102
RTVSPost2010PropOp40
 70
     1
102
RTVSPost2010Prop41ColorIndex
 90
       18
102
RTVSPost2010Prop41ColorRGB
 90
        0
102
RTVSPost2010PropOp41
 70
     1
102
RTVSPost2010Prop42
 90
       50
102
RTVSPost2010PropOp42
 70
     1
102
RTVSPost2010Prop43
 90
        3
102
RTVSPost2010PropOp43
 70
     1
102
RTVSPost2010Prop44ColorIndex
 90
        5
102
RTVSPost2010Prop44ColorRGB
 90
      255
102
RTVSPost2010PropOp44
 70
     1
102
RTVSPost2010Prop45
280
     0
102
RTVSPost2010PropOp45
 70
     1
102
RTVSPost2010Prop46
 90
       50
102
RTVSPost2010PropOp46
 70
     1
102
RTVSPost2010Prop47
 90
       50
102
RTVSPost2010PropOp47
 70
     1
102
RTVSPost2010Prop48
 90
       50
102
RTVSPost2010PropOp48
 70
     1
102
RTVSPost2010Prop49
280
     0
102
RTVSPost2010PropOp49
 70
     1
102
RTVSPost2010Prop50
 90
       50
102
RTVSPost2010PropOp50
 70
     1
102
RTVSPost2010Prop51ColorIndex
 90
      256
102
RTVSPost2010Prop51ColorRGB
 90
-16777216
102
RTVSPost2010PropOp51
 70
     0
102
RTVSPost2010Prop52
140
1.0
102
RTVSPost2010PropOp52
 70
     0
102
RTVSPost2010Prop53
 90
        2
102
RTVSPost2010PropOp53
 70
     1
102
RTVSPost2010Prop54
  1
strokes_ogs.tif
102
RTVSPost2010PropOp54
 70
     1
102
RTVSPost2010Prop55
280
     0
102
RTVSPost2010PropOp55
 70
     1
102
RTVSPost2010Prop56
140
1.0
102
RTVSPost2010PropOp56
 70
     1
102
RTVSPost2010Prop57
140
1.0
102
RTVSPost2010PropOp57
 70
     1
  0
XRECORD
  5
135
102
{ACAD_REACTORS
330
134
102
}
330
134
100
AcDbXrecord
280
     1
102
RTVSPost2010Prop28
280
     0
102
RTVSPost2010PropOp28
 70
     1
102
RTVSPost2010Prop29
280
     1
102
RTVSPost2010PropOp29
 70
     1
102
RTVSPost2010Prop30
280
     1
102
RTVSPost2010PropOp30
 70
     1
102
RTVSPost2010Prop31
280
     0
102
RTVSPost2010PropOp31
 70
     1
102
RTVSPost2010Prop32
280
     0
102
RTVSPost2010PropOp32
 70
     1
102
RTVSPost2010Prop33
280
     0
102
RTVSPost2010PropOp33
 70
     1
102
RTVSPost2010Prop34
280
     0
102
RTVSPost2010PropOp34
 70
     1
102
RTVSPost2010Prop35
280
     0
102
RTVSPost2010PropOp35
 70
     1
102
RTVSPost2010Prop36
280
     0
102
RTVSPost2010PropOp36
 70
     1
102
RTVSPost2010Prop37
 90
       50
102
RTVSPost2010PropOp37
 70
     1
102
RTVSPost2010Prop38
140
0.0
102
RTVSPost2010PropOp38
 70
     1
102
RTVSPost2010Prop39
140
1.0
102
RTVSPost2010PropOp39
 70
     1
102
RTVSPost2010Prop40
 90
        0
102
RTVSPost2010PropOp40
 70
     1
102
RTVSPost2010Prop41ColorIndex
 90
       18
102
RTVSPost2010Prop41ColorRGB
 90
        0
102
RTVSPost2010PropOp41
 70
     1
102
RTVSPost2010Prop42
 90
       50
102
RTVSPost2010PropOp42
 70
     1
102
RTVSPost2010Prop43
 90
        3
102
RTVSPost2010PropOp43
 70
     1
102
RTVSPost2010Prop44ColorIndex
 90
        5
102
RTVSPost2010Prop44ColorRGB
 90
      255
102
RTVSPost2010PropOp44
 70
     1
102
RTVSPost2010Prop45
280
     0
102
RTVSPost2010PropOp45
 70
     1
102
RTVSPost2010Prop46
 90
       50
102
RTVSPost2010PropOp46
 70
     1
102
RTVSPost2010Prop47
 90
       50
102
RTVSPost2010PropOp47
 70
     1
102
RTVSPost2010Prop48
 90
       50
102
RTVSPost2010PropOp48
 70
     1
102
RTVSPost2010Prop49
280
     0
102
RTVSPost2010PropOp49
 70
     1
102
RTVSPost2010Prop50
 90
       50
102
RTVSPost2010PropOp50
 70
     1
102
RTVSPost2010Prop51ColorIndex
 90
      256
102
RTVSPost2010Prop51ColorRGB
 90
-16777216
102
RTVSPost2010PropOp51
 70
     0
102
RTVSPost2010Prop52
140
1.0
102
RTVSPost2010PropOp52
 70
     0
102
RTVSPost2010Prop53
 90
        2
102
RTVSPost2010PropOp53
 70
     1
102
RTVSPost2010Prop54
  1
strokes_ogs.tif
102
RTVSPost2010PropOp54
 70
     1
102
RTVSPost2010Prop55
280
     0
102
RTVSPost2010PropOp55
 70
     1
102
RTVSPost2010Prop56
140
1.0
102
RTVSPost2010PropOp56
 70
     1
102
RTVSPost2010Prop57
140
1.0
102
RTVSPost2010PropOp57
 70
     1
  0
XRECORD
  5
12F
102
{ACAD_REACTORS
330
12E
102
}
330
12E
100
AcDbXrecord
280
     1
102
RTVSPost2010Prop28
280
     0
102
RTVSPost2010PropOp28
 70
     1
102
RTVSPost2010Prop29
280
     1
102
RTVSPost2010PropOp29
 70
     1
102
RTVSPost2010Prop30
280
     1
102
RTVSPost2010PropOp30
 70
     1
102
RTVSPost2010Prop31
280
     0
102
RTVSPost2010PropOp31
 70
     1
102
RTVSPost2010Prop32
280
     0
102
RTVSPost2010PropOp32
 70
     1
102
RTVSPost2010Prop33
280
     0
102
RTVSPost2010PropOp33
 70
     1
102
RTVSPost2010Prop34
280
     0
102
RTVSPost2010PropOp34
 70
     1
102
RTVSPost2010Prop35
280
     0
102
RTVSPost2010PropOp35
 70
     1
102
RTVSPost2010Prop36
280
     0
102
RTVSPost2010PropOp36
 70
     1
102
RTVSPost2010Prop37
 90
       50
102
RTVSPost2010PropOp37
 70
     1
102
RTVSPost2010Prop38
140
0.0
102
RTVSPost2010PropOp38
 70
     1
102
RTVSPost2010Prop39
140
1.0
102
RTVSPost2010PropOp39
 70
     1
102
RTVSPost2010Prop40
 90
        0
102
RTVSPost2010PropOp40
 70
     1
102
RTVSPost2010Prop41ColorIndex
 90
       18
102
RTVSPost2010Prop41ColorRGB
 90
        0
102
RTVSPost2010PropOp41
 70
     1
102
RTVSPost2010Prop42
 90
       50
102
RTVSPost2010PropOp42
 70
     1
102
RTVSPost2010Prop43
 90
        3
102
RTVSPost2010PropOp43
 70
     1
102
RTVSPost2010Prop44ColorIndex
 90
        5
102
RTVSPost2010Prop44ColorRGB
 90
      255
102
RTVSPost2010PropOp44
 70
     1
102
RTVSPost2010Prop45
280
     0
102
RTVSPost2010PropOp45
 70
     1
102
RTVSPost2010Prop46
 90
       50
102
RTVSPost2010PropOp46
 70
     1
102
RTVSPost2010Prop47
 90
       50
102
RTVSPost2010PropOp47
 70
     1
102
RTVSPost2010Prop48
 90
       50
102
RTVSPost2010PropOp48
 70
     1
102
RTVSPost2010Prop49
280
     0
102
RTVSPost2010PropOp49
 70
     1
102
RTVSPost2010Prop50
 90
       50
102
RTVSPost2010PropOp50
 70
     1
102
RTVSPost2010Prop51ColorIndex
 90
      256
102
RTVSPost2010Prop51ColorRGB
 90
-16777216
102
RTVSPost2010PropOp51
 70
     0
102
RTVSPost2010Prop52
140
1.0
102
RTVSPost2010PropOp52
 70
     0
102
RTVSPost2010Prop53
 90
        2
102
RTVSPost2010PropOp53
 70
     1
102
RTVSPost2010Prop54
  1
strokes_ogs.tif
102
RTVSPost2010PropOp54
 70
     1
102
RTVSPost2010Prop55
280
     0
102
RTVSPost2010PropOp55
 70
     1
102
RTVSPost2010Prop56
140
1.0
102
RTVSPost2010PropOp56
 70
     1
102
RTVSPost2010Prop57
140
1.0
102
RTVSPost2010PropOp57
 70
     1
  0
XRECORD
  5
131
102
{ACAD_REACTORS
330
130
102
}
330
130
100
AcDbXrecord
280
     1
102
RTVSPost2010Prop28
280
     0
102
RTVSPost2010PropOp28
 70
     1
102
RTVSPost2010Prop29
280
     1
102
RTVSPost2010PropOp29
 70
     1
102
RTVSPost2010Prop30
280
     1
102
RTVSPost2010PropOp30
 70
     1
102
RTVSPost2010Prop31
280
     0
102
RTVSPost2010PropOp31
 70
     1
102
RTVSPost2010Prop32
280
     0
102
RTVSPost2010PropOp32
 70
     1
102
RTVSPost2010Prop33
280
     0
102
RTVSPost2010PropOp33
 70
     1
102
RTVSPost2010Prop34
280
     0
102
RTVSPost2010PropOp34
 70
     1
102
RTVSPost2010Prop35
280
     0
102
RTVSPost2010PropOp35
 70
     1
102
RTVSPost2010Prop36
280
     0
102
RTVSPost2010PropOp36
 70
     1
102
RTVSPost2010Prop37
 90
       50
102
RTVSPost2010PropOp37
 70
     1
102
RTVSPost2010Prop38
140
0.0
102
RTVSPost2010PropOp38
 70
     1
102
RTVSPost2010Prop39
140
1.0
102
RTVSPost2010PropOp39
 70
     1
102
RTVSPost2010Prop40
 90
        0
102
RTVSPost2010PropOp40
 70
     1
102
RTVSPost2010Prop41ColorIndex
 90
       18
102
RTVSPost2010Prop41ColorRGB
 90
        0
102
RTVSPost2010PropOp41
 70
     1
102
RTVSPost2010Prop42
 90
       50
102
RTVSPost2010PropOp42
 70
     1
102
RTVSPost2010Prop43
 90
        3
102
RTVSPost2010PropOp43
 70
     1
102
RTVSPost2010Prop44ColorIndex
 90
        5
102
RTVSPost2010Prop44ColorRGB
 90
      255
102
RTVSPost2010PropOp44
 70
     1
102
RTVSPost2010Prop45
280
     0
102
RTVSPost2010PropOp45
 70
     1
102
RTVSPost2010Prop46
 90
       50
102
RTVSPost2010PropOp46
 70
     1
102
RTVSPost2010Prop47
 90
       50
102
RTVSPost2010PropOp47
 70
     1
102
RTVSPost2010Prop48
 90
       50
102
RTVSPost2010PropOp48
 70
     1
102
RTVSPost2010Prop49
280
     0
102
RTVSPost2010PropOp49
 70
     1
102
RTVSPost2010Prop50
 90
       50
102
RTVSPost2010PropOp50
 70
     1
102
RTVSPost2010Prop51ColorIndex
 90
      256
102
RTVSPost2010Prop51ColorRGB
 90
-16777216
102
RTVSPost2010PropOp51
 70
     0
102
RTVSPost2010Prop52
140
1.0
102
RTVSPost2010PropOp52
 70
     0
102
RTVSPost2010Prop53
 90
        2
102
RTVSPost2010PropOp53
 70
     1
102
RTVSPost2010Prop54
  1
strokes_ogs.tif
102
RTVSPost2010PropOp54
 70
     1
102
RTVSPost2010Prop55
280
     0
102
RTVSPost2010PropOp55
 70
     1
102
RTVSPost2010Prop56
140
1.0
102
RTVSPost2010PropOp56
 70
     1
102
RTVSPost2010Prop57
140
1.0
102
RTVSPost2010PropOp57
 70
     1
  0
XRECORD
  5
127
102
{ACAD_REACTORS
330
126
102
}
330
126
100
AcDbXrecord
280
     1
102
RTVSPost2010Prop28
280
     0
102
RTVSPost2010PropOp28
 70
     1
102
RTVSPost2010Prop29
280
     1
102
RTVSPost2010PropOp29
 70
     1
102
RTVSPost2010Prop30
280
     1
102
RTVSPost2010PropOp30
 70
     1
102
RTVSPost2010Prop31
280
     0
102
RTVSPost2010PropOp31
 70
     1
102
RTVSPost2010Prop32
280
     0
102
RTVSPost2010PropOp32
 70
     1
102
RTVSPost2010Prop33
280
     0
102
RTVSPost2010PropOp33
 70
     1
102
RTVSPost2010Prop34
280
     0
102
RTVSPost2010PropOp34
 70
     1
102
RTVSPost2010Prop35
280
     0
102
RTVSPost2010PropOp35
 70
     1
102
RTVSPost2010Prop36
280
     0
102
RTVSPost2010PropOp36
 70
     1
102
RTVSPost2010Prop37
 90
       50
102
RTVSPost2010PropOp37
 70
     1
102
RTVSPost2010Prop38
140
0.0
102
RTVSPost2010PropOp38
 70
     1
102
RTVSPost2010Prop39
140
1.0
102
RTVSPost2010PropOp39
 70
     1
102
RTVSPost2010Prop40
 90
        0
102
RTVSPost2010PropOp40
 70
     1
102
RTVSPost2010Prop41ColorIndex
 90
       18
102
RTVSPost2010Prop41ColorRGB
 90
        0
102
RTVSPost2010PropOp41
 70
     1
102
RTVSPost2010Prop42
 90
       50
102
RTVSPost2010PropOp42
 70
     1
102
RTVSPost2010Prop43
 90
        3
102
RTVSPost2010PropOp43
 70
     1
102
RTVSPost2010Prop44ColorIndex
 90
        5
102
RTVSPost2010Prop44ColorRGB
 90
      255
102
RTVSPost2010PropOp44
 70
     1
102
RTVSPost2010Prop45
280
     0
102
RTVSPost2010PropOp45
 70
     1
102
RTVSPost2010Prop46
 90
       50
102
RTVSPost2010PropOp46
 70
     1
102
RTVSPost2010Prop47
 90
       50
102
RTVSPost2010PropOp47
 70
     1
102
RTVSPost2010Prop48
 90
       50
102
RTVSPost2010PropOp48
 70
     1
102
RTVSPost2010Prop49
280
     0
102
RTVSPost2010PropOp49
 70
     1
102
RTVSPost2010Prop50
 90
       50
102
RTVSPost2010PropOp50
 70
     1
102
RTVSPost2010Prop51ColorIndex
 90
      256
102
RTVSPost2010Prop51ColorRGB
 90
-16777216
102
RTVSPost2010PropOp51
 70
     0
102
RTVSPost2010Prop52
140
1.0
102
RTVSPost2010PropOp52
 70
     0
102
RTVSPost2010Prop53
 90
        2
102
RTVSPost2010PropOp53
 70
     1
102
RTVSPost2010Prop54
  1
strokes_ogs.tif
102
RTVSPost2010PropOp54
 70
     1
102
RTVSPost2010Prop55
280
     0
102
RTVSPost2010PropOp55
 70
     1
102
RTVSPost2010Prop56
140
1.0
102
RTVSPost2010PropOp56
 70
     1
102
RTVSPost2010Prop57
140
1.0
102
RTVSPost2010PropOp57
 70
     1
  0
XRECORD
  5
11B
102
{ACAD_REACTORS
330
11A
102
}
330
11A
100
AcDbXrecord
280
     1
102
RTVSPost2010Prop28
280
     0
102
RTVSPost2010PropOp28
 70
     1
102
RTVSPost2010Prop29
280
     1
102
RTVSPost2010PropOp29
 70
     1
102
RTVSPost2010Prop30
280
     1
102
RTVSPost2010PropOp30
 70
     1
102
RTVSPost2010Prop31
280
     0
102
RTVSPost2010PropOp31
 70
     1
102
RTVSPost2010Prop32
280
     0
102
RTVSPost2010PropOp32
 70
     1
102
RTVSPost2010Prop33
280
     0
102
RTVSPost2010PropOp33
 70
     1
102
RTVSPost2010Prop34
280
     0
102
RTVSPost2010PropOp34
 70
     1
102
RTVSPost2010Prop35
280
     0
102
RTVSPost2010PropOp35
 70
     1
102
RTVSPost2010Prop36
280
     0
102
RTVSPost2010PropOp36
 70
     1
102
RTVSPost2010Prop37
 90
       50
102
RTVSPost2010PropOp37
 70
     1
102
RTVSPost2010Prop38
140
0.0
102
RTVSPost2010PropOp38
 70
     1
102
RTVSPost2010Prop39
140
1.0
102
RTVSPost2010PropOp39
 70
     1
102
RTVSPost2010Prop40
 90
        0
102
RTVSPost2010PropOp40
 70
     1
102
RTVSPost2010Prop41ColorIndex
 90
       18
102
RTVSPost2010Prop41ColorRGB
 90
        0
102
RTVSPost2010PropOp41
 70
     1
102
RTVSPost2010Prop42
 90
       50
102
RTVSPost2010PropOp42
 70
     1
102
RTVSPost2010Prop43
 90
        3
102
RTVSPost2010PropOp43
 70
     1
102
RTVSPost2010Prop44ColorIndex
 90
        5
102
RTVSPost2010Prop44ColorRGB
 90
      255
102
RTVSPost2010PropOp44
 70
     1
102
RTVSPost2010Prop45
280
     0
102
RTVSPost2010PropOp45
 70
     1
102
RTVSPost2010Prop46
 90
       50
102
RTVSPost2010PropOp46
 70
     1
102
RTVSPost2010Prop47
 90
       50
102
RTVSPost2010PropOp47
 70
     1
102
RTVSPost2010Prop48
 90
       50
102
RTVSPost2010PropOp48
 70
     1
102
RTVSPost2010Prop49
280
     0
102
RTVSPost2010PropOp49
 70
     1
102
RTVSPost2010Prop50
 90
       50
102
RTVSPost2010PropOp50
 70
     1
102
RTVSPost2010Prop51ColorIndex
 90
      256
102
RTVSPost2010Prop51ColorRGB
 90
-16777216
102
RTVSPost2010PropOp51
 70
     0
102
RTVSPost2010Prop52
140
1.0
102
RTVSPost2010PropOp52
 70
     0
102
RTVSPost2010Prop53
 90
        2
102
RTVSPost2010PropOp53
 70
     1
102
RTVSPost2010Prop54
  1
strokes_ogs.tif
102
RTVSPost2010PropOp54
 70
     1
102
RTVSPost2010Prop55
280
     0
102
RTVSPost2010PropOp55
 70
     1
102
RTVSPost2010Prop56
140
1.0
102
RTVSPost2010PropOp56
 70
     1
102
RTVSPost2010Prop57
140
1.0
102
RTVSPost2010PropOp57
 70
     1
  0
XRECORD
  5
133
102
{ACAD_REACTORS
330
132
102
}
330
132
100
AcDbXrecord
280
     1
102
RTVSPost2010Prop28
280
     0
102
RTVSPost2010PropOp28
 70
     1
102
RTVSPost2010Prop29
280
     1
102
RTVSPost2010PropOp29
 70
     1
102
RTVSPost2010Prop30
280
     1
102
RTVSPost2010PropOp30
 70
     1
102
RTVSPost2010Prop31
280
     0
102
RTVSPost2010PropOp31
 70
     1
102
RTVSPost2010Prop32
280
     0
102
RTVSPost2010PropOp32
 70
     1
102
RTVSPost2010Prop33
280
     0
102
RTVSPost2010PropOp33
 70
     1
102
RTVSPost2010Prop34
280
     0
102
RTVSPost2010PropOp34
 70
     1
102
RTVSPost2010Prop35
280
     0
102
RTVSPost2010PropOp35
 70
     1
102
RTVSPost2010Prop36
280
     0
102
RTVSPost2010PropOp36
 70
     1
102
RTVSPost2010Prop37
 90
       50
102
RTVSPost2010PropOp37
 70
     1
102
RTVSPost2010Prop38
140
0.0
102
RTVSPost2010PropOp38
 70
     1
102
RTVSPost2010Prop39
140
1.0
102
RTVSPost2010PropOp39
 70
     1
102
RTVSPost2010Prop40
 90
        0
102
RTVSPost2010PropOp40
 70
     1
102
RTVSPost2010Prop41ColorIndex
 90
       18
102
RTVSPost2010Prop41ColorRGB
 90
        0
102
RTVSPost2010PropOp41
 70
     1
102
RTVSPost2010Prop42
 90
       50
102
RTVSPost2010PropOp42
 70
     1
102
RTVSPost2010Prop43
 90
        3
102
RTVSPost2010PropOp43
 70
     1
102
RTVSPost2010Prop44ColorIndex
 90
        5
102
RTVSPost2010Prop44ColorRGB
 90
      255
102
RTVSPost2010PropOp44
 70
     1
102
RTVSPost2010Prop45
280
     0
102
RTVSPost2010PropOp45
 70
     1
102
RTVSPost2010Prop46
 90
       50
102
RTVSPost2010PropOp46
 70
     1
102
RTVSPost2010Prop47
 90
       50
102
RTVSPost2010PropOp47
 70
     1
102
RTVSPost2010Prop48
 90
       50
102
RTVSPost2010PropOp48
 70
     1
102
RTVSPost2010Prop49
280
     0
102
RTVSPost2010PropOp49
 70
     1
102
RTVSPost2010Prop50
 90
       50
102
RTVSPost2010PropOp50
 70
     1
102
RTVSPost2010Prop51ColorIndex
 90
      256
102
RTVSPost2010Prop51ColorRGB
 90
-16777216
102
RTVSPost2010PropOp51
 70
     0
102
RTVSPost2010Prop52
140
1.0
102
RTVSPost2010PropOp52
 70
     0
102
RTVSPost2010Prop53
 90
        2
102
RTVSPost2010PropOp53
 70
     1
102
RTVSPost2010Prop54
  1
strokes_ogs.tif
102
RTVSPost2010PropOp54
 70
     1
102
RTVSPost2010Prop55
280
     0
102
RTVSPost2010PropOp55
 70
     1
102
RTVSPost2010Prop56
140
1.0
102
RTVSPost2010PropOp56
 70
     1
102
RTVSPost2010Prop57
140
1.0
102
RTVSPost2010PropOp57
 70
     1
  0
ENDSEC
  0
EOF
