  0
SECTION
  2
HEADER
  9
$ACADVER
  1
AC1024
  9
$ACADMAINTVER
 70
     6
  9
$DWGCODEPAGE
  3
UNDEFINED
  9
$INSBASE
 10
0.0
 20
0.0
 30
0.0
  9
$EXTMIN
 10
1.000000000000000E+20
 20
1.000000000000000E+20
 30
1.000000000000000E+20
  9
$EXTMAX
 10
-1.000000000000000E+20
 20
-1.000000000000000E+20
 30
-1.000000000000000E+20
  9
$LIMMIN
 10
0.0
 20
0.0
  9
$LIMMAX
 10
12.0
 20
9.0
  9
$ORTHOMODE
 70
     0
  9
$REGENMODE
 70
     1
  9
$FILLMODE
 70
     1
  9
$QTEXTMODE
 70
     0
  9
$MIRRTEXT
 70
     1
  9
$LTSCALE
 40
1.0
  9
$ATTMODE
 70
     1
  9
$TEXTSIZE
 40
0.2
  9
$TRACEWID
 40
0.05
  9
$TEXTSTYLE
  7
Standard
  9
$CLAYER
  8
0
  9
$CELTYPE
  6
ByLayer
  9
$CECOLOR
 62
   256
  9
$CELTSCALE
 40
1.0
  9
$DISPSILH
 70
     0
  9
$DIMSCALE
 40
1.0
  9
$DIMASZ
 40
0.18
  9
$DIMEXO
 40
0.0625
  9
$DIMDLI
 40
0.38
  9
$DIMRND
 40
0.0
  9
$DIMDLE
 40
0.0
  9
$DIMEXE
 40
0.18
  9
$DIMTP
 40
0.0
  9
$DIMTM
 40
0.0
  9
$DIMTXT
 40
0.18
  9
$DIMCEN
 40
0.09
  9
$DIMTSZ
 40
0.0
  9
$DIMTOL
 70
     0
  9
$DIMLIM
 70
     0
  9
$DIMTIH
 70
     1
  9
$DIMTOH
 70
     1
  9
$DIMSE1
 70
     0
  9
$DIMSE2
 70
     0
  9
$DIMTAD
 70
     0
  9
$DIMZIN
 70
     0
  9
$DIMBLK
  1

  9
$DIMASO
 70
     1
  9
$DIMSHO
 70
     1
  9
$DIMPOST
  1

  9
$DIMAPOST
  1

  9
$DIMALT
 70
     0
  9
$DIMALTD
 70
     2
  9
$DIMALTF
 40
25.4
  9
$DIMLFAC
 40
1.0
  9
$DIMTOFL
 70
     0
  9
$DIMTVP
 40
0.0
  9
$DIMTIX
 70
     0
  9
$DIMSOXD
 70
     0
  9
$DIMSAH
 70
     0
  9
$DIMBLK1
  1

  9
$DIMBLK2
  1

  9
$DIMSTYLE
  2
Standard
  9
$DIMCLRD
 70
     0
  9
$DIMCLRE
 70
     0
  9
$DIMCLRT
 70
     0
  9
$DIMTFAC
 40
1.0
  9
$DIMGAP
 40
0.09
  9
$DIMJUST
 70
     0
  9
$DIMSD1
 70
     0
  9
$DIMSD2
 70
     0
  9
$DIMTOLJ
 70
     1
  9
$DIMTZIN
 70
     0
  9
$DIMALTZ
 70
     0
  9
$DIMALTTZ
 70
     0
  9
$DIMUPT
 70
     0
  9
$DIMDEC
 70
     4
  9
$DIMTDEC
 70
     4
  9
$DIMALTU
 70
     2
  9
$DIMALTTD
 70
     2
  9
$DIMTXSTY
  7
Standard
  9
$DIMAUNIT
 70
     0
  9
$DIMADEC
 70
     0
  9
$DIMALTRND
 40
0.0
  9
$DIMAZIN
 70
     0
  9
$DIMDSEP
 70
    46
  9
$DIMATFIT
 70
     3
  9
$DIMFRAC
 70
     0
  9
$DIMLDRBLK
  1

  9
$DIMLUNIT
 70
     2
  9
$DIMLWD
 70
    -2
  9
$DIMLWE
 70
    -2
  9
$DIMTMOVE
 70
     0
  9
$DIMFXL
 40
1.0
  9
$DIMFXLON
 70
     0
  9
$DIMJOGANG
 40
0.7853981633974483
  9
$DIMTFILL
 70
     0
  9
$DIMTFILLCLR
 70
     0
  9
$DIMARCSYM
 70
     0
  9
$DIMLTYPE
  6

  9
$DIMLTEX1
  6

  9
$DIMLTEX2
  6

  9
$DIMTXTDIRECTION
 70
     0
  9
$LUNITS
 70
     2
  9
$LUPREC
 70
     4
  9
$SKETCHINC
 40
0.1
  9
$FILLETRAD
 40
0.5
  9
$AUNITS
 70
     0
  9
$AUPREC
 70
     0
  9
$MENU
  1
.
  9
$ELEVATION
 40
0.0
  9
$PELEVATION
 40
0.0
  9
$THICKNESS
 40
0.0
  9
$LIMCHECK
 70
     0
  9
$CHAMFERA
 40
0.5
  9
$CHAMFERB
 40
0.5
  9
$CHAMFERC
 40
1.0
  9
$CHAMFERD
 40
0.0
  9
$SKPOLY
 70
     0
  9
$TDCREATE
 40
2457917.636053241
  9
$TDUCREATE
 40
2457917.261053241
  9
$TDUPDATE
 40
2457917.636053241
  9
$TDUUPDATE
 40
2457917.261053241
  9
$TDINDWG
 40
0.0000000116
  9
$TDUSRTIMER
 40
0.0000000116
  9
$USRTIMER
 70
     1
  9
$ANGBASE
 50
0.0
  9
$ANGDIR
 70
     0
  9
$PDMODE
 70
     0
  9
$PDSIZE
 40
0.0
  9
$PLINEWID
 40
0.0
  9
$SPLFRAME
 70
     0
  9
$SPLINETYPE
 70
     6
  9
$SPLINESEGS
 70
     8
  9
$HANDSEED
  5
BC
  9
$SURFTAB1
 70
     6
  9
$SURFTAB2
 70
     6
  9
$SURFTYPE
 70
     6
  9
$SURFU
 70
     6
  9
$SURFV
 70
     6
  9
$UCSBASE
  2

  9
$UCSNAME
  2

  9
$UCSORG
 10
0.0
 20
0.0
 30
0.0
  9
$UCSXDIR
 10
1.0
 20
0.0
 30
0.0
  9
$UCSYDIR
 10
0.0
 20
1.0
 30
0.0
  9
$UCSORTHOREF
  2

  9
$UCSORTHOVIEW
 70
     0
  9
$UCSORGTOP
 10
0.0
 20
0.0
 30
0.0
  9
$UCSORGBOTTOM
 10
0.0
 20
0.0
 30
0.0
  9
$UCSORGLEFT
 10
0.0
 20
0.0
 30
0.0
  9
$UCSORGRIGHT
 10
0.0
 20
0.0
 30
0.0
  9
$UCSORGFRONT
 10
0.0
 20
0.0
 30
0.0
  9
$UCSORGBACK
 10
0.0
 20
0.0
 30
0.0
  9
$PUCSBASE
  2

  9
$PUCSNAME
  2

  9
$PUCSORG
 10
0.0
 20
0.0
 30
0.0
  9
$PUCSXDIR
 10
1.0
 20
0.0
 30
0.0
  9
$PUCSYDIR
 10
0.0
 20
1.0
 30
0.0
  9
$PUCSORTHOREF
  2

  9
$PUCSORTHOVIEW
 70
     0
  9
$PUCSORGTOP
 10
0.0
 20
0.0
 30
0.0
  9
$PUCSORGBOTTOM
 10
0.0
 20
0.0
 30
0.0
  9
$PUCSORGLEFT
 10
0.0
 20
0.0
 30
0.0
  9
$PUCSORGRIGHT
 10
0.0
 20
0.0
 30
0.0
  9
$PUCSORGFRONT
 10
0.0
 20
0.0
 30
0.0
  9
$PUCSORGBACK
 10
0.0
 20
0.0
 30
0.0
  9
$USERI1
 70
     0
  9
$USERI2
 70
     0
  9
$USERI3
 70
     0
  9
$USERI4
 70
     0
  9
$USERI5
 70
     0
  9
$USERR1
 40
0.0
  9
$USERR2
 40
0.0
  9
$USERR3
 40
0.0
  9
$USERR4
 40
0.0
  9
$USERR5
 40
0.0
  9
$WORLDVIEW
 70
     1
  9
$SHADEDGE
 70
     3
  9
$SHADEDIF
 70
    70
  9
$TILEMODE
 70
     1
  9
$MAXACTVP
 70
    64
  9
$PINSBASE
 10
0.0
 20
0.0
 30
0.0
  9
$PLIMCHECK
 70
     0
  9
$PEXTMIN
 10
1.000000000000000E+20
 20
1.000000000000000E+20
 30
1.000000000000000E+20
  9
$PEXTMAX
 10
-1.000000000000000E+20
 20
-1.000000000000000E+20
 30
-1.000000000000000E+20
  9
$PLIMMIN
 10
0.0
 20
0.0
  9
$PLIMMAX
 10
12.0
 20
9.0
  9
$UNITMODE
 70
     0
  9
$VISRETAIN
 70
     1
  9
$PLINEGEN
 70
     0
  9
$PSLTSCALE
 70
     1
  9
$TREEDEPTH
 70
  3020
  9
$CMLSTYLE
  2
Standard
  9
$CMLJUST
 70
     0
  9
$CMLSCALE
 40
1.0
  9
$PROXYGRAPHICS
 70
     1
  9
$MEASUREMENT
 70
     0
  9
$CELWEIGHT
370
    -1
  9
$ENDCAPS
280
     0
  9
$JOINSTYLE
280
     0
  9
$LWDISPLAY
290
     1
  9
$INSUNITS
 70
     1
  9
$HYPERLINKBASE
  1

  9
$STYLESHEET
  1

  9
$XEDIT
290
     1
  9
$CEPSNTYPE
380
     0
  9
$PSTYLEMODE
290
     1
  9
$FINGERPRINTGUID
  2
{2F0B46BC-D8BF-0DEB-6C76-203C396C28FD}
  9
$VERSIONGUID
  2
{FAEB1C32-E019-11D5-929B-00C0DF256EC4}
  9
$EXTNAMES
290
     1
  9
$PSVPSCALE
 40
0.0
  9
$OLESTARTUP
290
     0
  9
$SORTENTS
280
   127
  9
$INDEXCTL
280
     0
  9
$HIDETEXT
280
     1
  9
$XCLIPFRAME
280
     2
  9
$HALOGAP
280
     0
  9
$OBSCOLOR
 70
   257
  9
$OBSLTYPE
280
     0
  9
$INTERSECTIONDISPLAY
280
     0
  9
$INTERSECTIONCOLOR
 70
   257
  9
$DIMASSOC
280
     2
  9
$PROJECTNAME
  1

  9
$CAMERADISPLAY
290
     0
  9
$LENSLENGTH
 40
50.0
  9
$CAMERAHEIGHT
 40
0.0
  9
$STEPSPERSEC
 40
2.0
  9
$STEPSIZE
 40
6.0
  9
$3DDWFPREC
 40
2.0
  9
$PSOLWIDTH
 40
0.25
  9
$PSOLHEIGHT
 40
4.0
  9
$LOFTANG1
 40
1.570796326794897
  9
$LOFTANG2
 40
1.570796326794897
  9
$LOFTMAG1
 40
0.0
  9
$LOFTMAG2
 40
0.0
  9
$LOFTPARAM
 70
     7
  9
$LOFTNORMALS
280
     1
  9
$LATITUDE
 40
37.795
  9
$LONGITUDE
 40
-122.394
  9
$NORTHDIRECTION
 40
0.0
  9
$TIMEZONE
 70
 -8000
  9
$LIGHTGLYPHDISPLAY
280
     1
  9
$TILEMODELIGHTSYNCH
280
     1
  9
$CMATERIAL
347
3C
  9
$SOLIDHIST
280
     1
  9
$SHOWHIST
280
     1
  9
$DWFFRAME
280
     2
  9
$DGNFRAME
280
     2
  9
$REALWORLDSCALE
290
     1
  9
$INTERFERECOLOR
 62
   256
  9
$CSHADOW
280
     0
  9
$SHADOWPLANELOCATION
 40
0.0
  0
ENDSEC
  0
SECTION
  2
CLASSES
  0
CLASS
  1
ACDBDICTIONARYWDFLT
  2
AcDbDictionaryWithDefault
  3
ObjectDBX Classes
 90
        0
 91
        4
280
     0
281
     0
  0
CLASS
  1
VISUALSTYLE
  2
AcDbVisualStyle
  3
ObjectDBX Classes
 90
     4095
 91
        4
280
     0
281
     0
  0
CLASS
  1
MATERIAL
  2
AcDbMaterial
  3
ObjectDBX Classes
 90
     1153
 91
        4
280
     0
281
     0
  0
CLASS
  1
SUN
  2
AcDbSun
  3
SCENEOE
 90
     1024
 91
        4
280
     0
281
     0
  0
ENDSEC
  0
SECTION
  2
TABLES
  0
TABLE
  2
VPORT
  5
8
330
0
100
AcDbSymbolTable
 70
     1
  0
VPORT
  5
29
330
8
100
AcDbSymbolTableRecord
100
AcDbViewportTableRecord
  2
*Active
 70
     0
 10
0.0
 20
0.0
 11
1.0
 21
1.0
 12
0.0
 22
0.0
 13
0.0
 23
0.0
 14
0.5
 24
0.5
 15
0.5
 25
0.5
 16
0.0
 26
0.0
 36
1.0
 17
91.00082462281999
 27
-128.4993055234307
 37
0.0
 40
256.9986110468615
 41
0.7081814508812795
 42
50.0
 43
0.0
 44
0.0
 50
0.0
 51
0.0
 71
     0
 72
   100
 73
     1
 74
     3
 75
     0
 76
     0
 77
     0
 78
     0
281
     0
 65
     1
110
0.0
120
0.0
130
0.0
111
1.0
121
0.0
131
0.0
112
0.0
122
1.0
132
0.0
 79
     0
146
0.0
 60
     3
 61
     5
292
     1
282
     1
141
0.0
142
0.0
 63
   250
361
3F
  0
ENDTAB
  0
TABLE
  2
LTYPE
  5
5
330
0
100
AcDbSymbolTable
 70
     1
  0
LTYPE
  5
14
330
5
100
AcDbSymbolTableRecord
100
AcDbLinetypeTableRecord
  2
ByBlock
 70
     0
  3

 72
    65
 73
     0
 40
0.0
  0
LTYPE
  5
15
330
5
100
AcDbSymbolTableRecord
100
AcDbLinetypeTableRecord
  2
ByLayer
 70
     0
  3

 72
    65
 73
     0
 40
0.0
  0
LTYPE
  5
16
330
5
100
AcDbSymbolTableRecord
100
AcDbLinetypeTableRecord
  2
Continuous
 70
     0
  3
Solid line
 72
    65
 73
     0
 40
0.0
  0
ENDTAB
  0
TABLE
  2
LAYER
  5
2
330
0
100
AcDbSymbolTable
 70
     2
  0
LAYER
  5
10
330
2
100
AcDbSymbolTableRecord
100
AcDbLayerTableRecord
  2
0
 70
     0
 62
     7
  6
Continuous
370
    -3
390
F
347
3E
  0
LAYER
  5
40
330
2
100
AcDbSymbolTableRecord
100
AcDbLayerTableRecord
  2
_U+30EC_U+30A4_U+30E4_U+30FC 1
 70
     0
 62
     7
  6
Continuous
370
    -3
390
F
347
3E
  0
ENDTAB
  0
TABLE
  2
STYLE
  5
3
330
0
100
AcDbSymbolTable
 70
     1
  0
STYLE
  5
11
330
3
100
AcDbSymbolTableRecord
100
AcDbTextStyleTableRecord
  2
Standard
 70
     0
 40
0.0
 41
1.0
 50
0.0
 71
     0
 42
0.2
  3
txt
  4

  0
ENDTAB
  0
TABLE
  2
VIEW
  5
6
330
0
100
AcDbSymbolTable
 70
     0
  0
ENDTAB
  0
TABLE
  2
UCS
  5
7
330
0
100
AcDbSymbolTable
 70
     0
  0
ENDTAB
  0
TABLE
  2
APPID
  5
9
330
0
100
AcDbSymbolTable
 70
     1
  0
APPID
  5
12
330
9
100
AcDbSymbolTableRecord
100
AcDbRegAppTableRecord
  2
ACAD
 70
     0
  0
ENDTAB
  0
TABLE
  2
DIMSTYLE
  5
A
330
0
100
AcDbSymbolTable
 70
     1
100
AcDbDimStyleTable
  0
DIMSTYLE
105
27
330
A
100
AcDbSymbolTableRecord
100
AcDbDimStyleTableRecord
  2
Standard
 70
     0
178
     0
340
11
  0
ENDTAB
  0
TABLE
  2
BLOCK_RECORD
  5
1
330
0
100
AcDbSymbolTable
 70
     4
  0
BLOCK_RECORD
  5
1F
330
1
100
AcDbSymbolTableRecord
100
AcDbBlockTableRecord
  2
*Model_Space
340
22
 70
     0
280
     1
281
     0
  0
BLOCK_RECORD
  5
1B
330
1
100
AcDbSymbolTableRecord
100
AcDbBlockTableRecord
  2
*Paper_Space
340
1E
 70
     0
280
     1
281
     0
  0
BLOCK_RECORD
  5
23
330
1
100
AcDbSymbolTableRecord
100
AcDbBlockTableRecord
  2
*Paper_Space0
340
26
 70
     0
280
     1
281
     0
  0
BLOCK_RECORD
  5
85
330
1
100
AcDbSymbolTableRecord
100
AcDbBlockTableRecord
  2
block 2
340
0
102
{BLKREFS
331
86
102
}
 70
     0
280
     1
281
     0
  0
BLOCK_RECORD
  5
9A
330
1
100
AcDbSymbolTableRecord
100
AcDbBlockTableRecord
  2
block 3
340
0
102
{BLKREFS
331
9B
102
}
 70
     0
280
     1
281
     0
  0
BLOCK_RECORD
  5
AF
330
1
100
AcDbSymbolTableRecord
100
AcDbBlockTableRecord
  2
block 4
340
0
102
{BLKREFS
331
B0
102
}
 70
     0
280
     1
281
     0
  0
ENDTAB
  0
ENDSEC
  0
SECTION
  2
BLOCKS
  0
BLOCK
  5
20
330
1F
100
AcDbEntity
  8
0
100
AcDbBlockBegin
  2
*Model_Space
 70
     0
 10
0.0
 20
0.0
 30
0.0
  3
*Model_Space
  1

  0
ENDBLK
  5
21
330
1F
100
AcDbEntity
  8
0
100
AcDbBlockEnd
  0
BLOCK
  5
1C
330
1B
100
AcDbEntity
 67
     1
  8
0
100
AcDbBlockBegin
  2
*Paper_Space
 70
     0
 10
0.0
 20
0.0
 30
0.0
  3
*Paper_Space
  1

  0
ENDBLK
  5
1D
330
1B
100
AcDbEntity
 67
     1
  8
0
100
AcDbBlockEnd
  0
BLOCK
  5
24
330
23
100
AcDbEntity
  8
0
100
AcDbBlockBegin
  2
*Paper_Space0
 70
     0
 10
0.0
 20
0.0
 30
0.0
  3
*Paper_Space0
  1

  0
ENDBLK
  5
25
330
23
100
AcDbEntity
  8
0
100
AcDbBlockEnd
  0
BLOCK
  5
87
330
85
100
AcDbEntity
  8
0
100
AcDbBlockBegin
  2
block 2
 70
     0
 10
0.0
 20
0.0
 30
0.0
  3
block 2
  1

  0
SPLINE
  5
89
330
85
100
AcDbEntity
  8
_U+30EC_U+30A4_U+30E4_U+30FC 1
370
     0
100
AcDbSpline
210
0.0
220
0.0
230
1.0
 70
    11
 71
     3
 72
    62
 73
    58
 74
     0
 42
0.0000000001
 43
0.0000000001
 12
1.0
 22
0.0
 32
0.0
 13
1.0
 23
0.0
 33
0.0
 40
0.0
 40
0.0
 40
0.0
 40
0.0
 40
1.0
 40
1.0
 40
1.0
 40
2.0
 40
2.0
 40
2.0
 40
3.0
 40
3.0
 40
3.0
 40
4.0
 40
4.0
 40
4.0
 40
5.0
 40
5.0
 40
5.0
 40
6.0
 40
6.0
 40
6.0
 40
7.0
 40
7.0
 40
7.0
 40
8.0
 40
8.0
 40
8.0
 40
9.0
 40
9.0
 40
9.0
 40
10.0
 40
10.0
 40
10.0
 40
11.0
 40
11.0
 40
11.0
 40
12.0
 40
12.0
 40
12.0
 40
13.0
 40
13.0
 40
13.0
 40
14.0
 40
14.0
 40
14.0
 40
15.0
 40
15.0
 40
15.0
 40
16.0
 40
16.0
 40
16.0
 40
17.0
 40
17.0
 40
17.0
 40
18.0
 40
18.0
 40
18.0
 40
19.0
 40
19.0
 40
19.0
 40
19.0
 10
91.96372339280768
 20
-122.2064941100734
 30
0.0
 10
91.86863875741479
 20
-122.2064941100734
 30
0.0
 10
91.65056421319848
 20
-122.1853067728391
 30
0.0
 10
91.52585175663243
 20
-121.9990993618613
 30
0.0
 10
91.45178220369957
 20
-121.8869615038165
 30
0.0
 10
91.44764808911727
 20
-121.787570499067
 30
0.0
 10
91.44351397453497
 20
-121.7029934049041
 30
0.0
 10
91.44351397453497
 20
-121.7029934049041
 30
0.0
 10
91.6633110664939
 20
-121.7029934049041
 30
0.0
 10
91.6633110664939
 20
-121.7029934049041
 30
0.0
 10
91.66537812378505
 20
-121.777062957837
 30
0.0
 10
91.67605791978933
 20
-122.0118462151568
 30
0.0
 10
91.95958927822538
 20
-122.0118462151568
 30
0.0
 10
92.09704858808685
 20
-122.0118462151568
 30
0.0
 10
92.2493218085349
 20
-121.9420830315805
 30
0.0
 10
92.2493218085349
 20
-121.7135009461341
 30
0.0
 10
92.2493218085349
 20
-121.5972289735069
 30
0.0
 10
92.21142575819715
 20
-121.5484808723907
 30
0.0
 10
92.17973087973284
 20
-121.5167859939264
 30
0.0
 10
92.10566132679998
 20
-121.4427164409935
 30
0.0
 10
91.98921709939853
 20
-121.4301418424723
 30
0.0
 10
91.93409557163453
 20
-121.4301418424723
 30
0.0
 10
91.91514754646566
 20
-121.4301418424723
 30
0.0
 10
91.87931855341907
 20
-121.4322088997635
 30
0.0
 10
91.85175778953706
 20
-121.43651526912
 30
0.0
 10
91.85175778953706
 20
-121.43651526912
 30
0.0
 10
91.85175778953706
 20
-121.2418673742034
 30
0.0
 10
91.85175778953706
 20
-121.2418673742034
 30
0.0
 10
91.88965383987481
 20
-121.2482408008511
 30
0.0
 10
91.93202851434339
 20
-121.2503078581423
 30
0.0
 10
91.93857419576536
 20
-121.2503078581423
 30
0.0
 10
92.00403100998511
 20
-121.2503078581423
 30
0.0
 10
92.20281301948403
 20
-121.229120520908
 30
0.0
 10
92.20281301948403
 20
-120.9920979515228
 30
0.0
 10
92.20281301948403
 20
-120.8145032792582
 30
0.0
 10
92.071554881496
 20
-120.7595540062684
 30
0.0
 10
91.96165633551654
 20
-120.7595540062684
 30
0.0
 10
91.69741751179787
 20
-120.7595540062684
 30
0.0
 10
91.68880477308474
 20
-120.9920979515228
 30
0.0
 10
91.68467065850244
 20
-121.0641004471645
 30
0.0
 10
91.68467065850244
 20
-121.0641004471645
 30
0.0
 10
91.4814100248727
 20
-121.0641004471645
 30
0.0
 10
91.4814100248727
 20
-121.0641004471645
 30
0.0
 10
91.49002276358583
 20
-120.9392157358242
 30
0.0
 10
91.51758352746783
 20
-120.5626667992864
 30
0.0
 10
91.97440318881196
 20
-120.5626667992864
 30
0.0
 10
92.19867890490173
 20
-120.5626667992864
 30
0.0
 10
92.43983558886922
 20
-120.6896185679179
 30
0.0
 10
92.43983558886922
 20
-120.9858967796494
 30
0.0
 10
92.43983558886922
 20
-121.1719319358529
 30
0.0
 10
92.34475095347632
 20
-121.2544419727246
 30
0.0
 10
92.2451876939526
 20
-121.3159369271363
 30
0.0
 10
92.30651039359005
 20
-121.343325436244
 30
0.0
 10
92.48841143521123
 20
-121.4237684158246
 30
0.0
 10
92.48841143521123
 20
-121.700926347613
 30
0.0
 10
92.48841143521123
 20
-122.0394069790388
 30
0.0
 10
92.2410535793703
 20
-122.2064941100734
 30
0.0
 10
91.96372339280768
 20
-122.2064941100734
 30
0.0
  0
HATCH
  5
8A
330
85
100
AcDbEntity
  8
_U+30EC_U+30A4_U+30E4_U+30FC 1
 62
   179
420
  2234388
100
AcDbHatch
 10
0.0
 20
0.0
 30
0.0
210
0.0
220
0.0
230
1.0
  2
SOLID
 70
     1
 71
     0
 91
        1
 92
        1
 93
        1
 72
     4
 94
        3
 73
     0
 74
     1
 95
       62
 96
       58
 40
0.0
 40
0.0
 40
0.0
 40
0.0
 40
1.0
 40
1.0
 40
1.0
 40
2.0
 40
2.0
 40
2.0
 40
3.0
 40
3.0
 40
3.0
 40
4.0
 40
4.0
 40
4.0
 40
5.0
 40
5.0
 40
5.0
 40
6.0
 40
6.0
 40
6.0
 40
7.0
 40
7.0
 40
7.0
 40
8.0
 40
8.0
 40
8.0
 40
9.0
 40
9.0
 40
9.0
 40
10.0
 40
10.0
 40
10.0
 40
11.0
 40
11.0
 40
11.0
 40
12.0
 40
12.0
 40
12.0
 40
13.0
 40
13.0
 40
13.0
 40
14.0
 40
14.0
 40
14.0
 40
15.0
 40
15.0
 40
15.0
 40
16.0
 40
16.0
 40
16.0
 40
17.0
 40
17.0
 40
17.0
 40
18.0
 40
18.0
 40
18.0
 40
19.0
 40
19.0
 40
19.0
 40
19.0
 10
91.96372339280768
 20
-122.2064941100734
 10
91.86863875741479
 20
-122.2064941100734
 10
91.65056421319848
 20
-122.1853067728391
 10
91.52585175663243
 20
-121.9990993618613
 10
91.45178220369957
 20
-121.8869615038165
 10
91.44764808911727
 20
-121.787570499067
 10
91.44351397453497
 20
-121.7029934049041
 10
91.44351397453497
 20
-121.7029934049041
 10
91.6633110664939
 20
-121.7029934049041
 10
91.6633110664939
 20
-121.7029934049041
 10
91.66537812378505
 20
-121.777062957837
 10
91.67605791978933
 20
-122.0118462151568
 10
91.95958927822538
 20
-122.0118462151568
 10
92.09704858808685
 20
-122.0118462151568
 10
92.2493218085349
 20
-121.9420830315805
 10
92.2493218085349
 20
-121.7135009461341
 10
92.2493218085349
 20
-121.5972289735069
 10
92.21142575819715
 20
-121.5484808723907
 10
92.17973087973284
 20
-121.5167859939264
 10
92.10566132679998
 20
-121.4427164409935
 10
91.98921709939853
 20
-121.4301418424723
 10
91.93409557163453
 20
-121.4301418424723
 10
91.91514754646566
 20
-121.4301418424723
 10
91.87931855341907
 20
-121.4322088997635
 10
91.85175778953706
 20
-121.43651526912
 10
91.85175778953706
 20
-121.43651526912
 10
91.85175778953706
 20
-121.2418673742034
 10
91.85175778953706
 20
-121.2418673742034
 10
91.88965383987481
 20
-121.2482408008511
 10
91.93202851434339
 20
-121.2503078581423
 10
91.93857419576536
 20
-121.2503078581423
 10
92.00403100998511
 20
-121.2503078581423
 10
92.20281301948403
 20
-121.229120520908
 10
92.20281301948403
 20
-120.9920979515228
 10
92.20281301948403
 20
-120.8145032792582
 10
92.071554881496
 20
-120.7595540062684
 10
91.96165633551654
 20
-120.7595540062684
 10
91.69741751179787
 20
-120.7595540062684
 10
91.68880477308474
 20
-120.9920979515228
 10
91.68467065850244
 20
-121.0641004471645
 10
91.68467065850244
 20
-121.0641004471645
 10
91.4814100248727
 20
-121.0641004471645
 10
91.4814100248727
 20
-121.0641004471645
 10
91.49002276358583
 20
-120.9392157358242
 10
91.51758352746783
 20
-120.5626667992864
 10
91.97440318881196
 20
-120.5626667992864
 10
92.19867890490173
 20
-120.5626667992864
 10
92.43983558886922
 20
-120.6896185679179
 10
92.43983558886922
 20
-120.9858967796494
 10
92.43983558886922
 20
-121.1719319358529
 10
92.34475095347632
 20
-121.2544419727246
 10
92.2451876939526
 20
-121.3159369271363
 10
92.30651039359005
 20
-121.343325436244
 10
92.48841143521123
 20
-121.4237684158246
 10
92.48841143521123
 20
-121.700926347613
 10
92.48841143521123
 20
-122.0394069790388
 10
92.2410535793703
 20
-122.2064941100734
 10
91.96372339280768
 20
-122.2064941100734
 97
        0
 97
        0
 75
     2
 76
     1
 98
        0
  0
ENDBLK
  5
88
330
85
100
AcDbEntity
  8
0
100
AcDbBlockEnd
  0
BLOCK
  5
9C
330
9A
100
AcDbEntity
  8
0
100
AcDbBlockBegin
  2
block 3
 70
     0
 10
0.0
 20
0.0
 30
0.0
  3
block 3
  1

  0
SPLINE
  5
9E
330
9A
100
AcDbEntity
  8
_U+30EC_U+30A4_U+30E4_U+30FC 1
370
     0
100
AcDbSpline
210
0.0
220
0.0
230
1.0
 70
    11
 71
     3
 72
    62
 73
    58
 74
     0
 42
0.0000000001
 43
0.0000000001
 12
1.0
 22
0.0
 32
0.0
 13
1.0
 23
0.0
 33
0.0
 40
0.0
 40
0.0
 40
0.0
 40
0.0
 40
1.0
 40
1.0
 40
1.0
 40
2.0
 40
2.0
 40
2.0
 40
3.0
 40
3.0
 40
3.0
 40
4.0
 40
4.0
 40
4.0
 40
5.0
 40
5.0
 40
5.0
 40
6.0
 40
6.0
 40
6.0
 40
7.0
 40
7.0
 40
7.0
 40
8.0
 40
8.0
 40
8.0
 40
9.0
 40
9.0
 40
9.0
 40
10.0
 40
10.0
 40
10.0
 40
11.0
 40
11.0
 40
11.0
 40
12.0
 40
12.0
 40
12.0
 40
13.0
 40
13.0
 40
13.0
 40
14.0
 40
14.0
 40
14.0
 40
15.0
 40
15.0
 40
15.0
 40
16.0
 40
16.0
 40
16.0
 40
17.0
 40
17.0
 40
17.0
 40
18.0
 40
18.0
 40
18.0
 40
19.0
 40
19.0
 40
19.0
 40
19.0
 10
86.15029701622285
 20
-128.0371459640845
 30
0.0
 10
86.15029701622285
 20
-128.1324028542516
 30
0.0
 10
86.12910967898856
 20
-128.3503051436937
 30
0.0
 10
85.94290226801081
 20
-128.4750176002597
 30
0.0
 10
85.83076440996592
 20
-128.5490871531926
 30
0.0
 10
85.73137340521646
 20
-128.5533935225492
 30
0.0
 10
85.64679631105358
 20
-128.5575276371315
 30
0.0
 10
85.64679631105358
 20
-128.5575276371315
 30
0.0
 10
85.64679631105358
 20
-128.3375582903982
 30
0.0
 10
85.64679631105358
 20
-128.3375582903982
 30
0.0
 10
85.72086586398646
 20
-128.3354912331071
 30
0.0
 10
85.95564912130624
 20
-128.3248114371028
 30
0.0
 10
85.95564912130624
 20
-128.041452333441
 30
0.0
 10
85.95564912130624
 20
-127.9038207688053
 30
0.0
 10
85.88588593772992
 20
-127.7515475483573
 30
0.0
 10
85.65730385228359
 20
-127.7515475483573
 30
0.0
 10
85.54103187965642
 20
-127.7515475483573
 30
0.0
 10
85.49228377854013
 20
-127.7896158534693
 30
0.0
 10
85.46058890007583
 20
-127.8213107319336
 30
0.0
 10
85.38651934714295
 20
-127.8953802848664
 30
0.0
 10
85.3739447486218
 20
-128.0118245122679
 30
0.0
 10
85.3739447486218
 20
-128.0667737852576
 30
0.0
 10
85.3739447486218
 20
-128.0857218104265
 30
0.0
 10
85.37601180591295
 20
-128.1217230582473
 30
0.0
 10
85.38031817526951
 20
-128.1492838221293
 30
0.0
 10
85.38031817526951
 20
-128.1492838221293
 30
0.0
 10
85.1856702803529
 20
-128.1492838221293
 30
0.0
 10
85.1856702803529
 20
-128.1492838221293
 30
0.0
 10
85.19204370700061
 20
-128.1112155170173
 30
0.0
 10
85.19411076429175
 20
-128.0688408425488
 30
0.0
 10
85.19411076429175
 20
-128.0624674159011
 30
0.0
 10
85.19411076429175
 20
-127.9970106016813
 30
0.0
 10
85.17292342705747
 20
-127.7980563374081
 30
0.0
 10
84.93607311244654
 20
-127.7980563374081
 30
0.0
 10
84.75830618540765
 20
-127.7980563374081
 30
0.0
 10
84.70335691241792
 20
-127.9293144753962
 30
0.0
 10
84.70335691241792
 20
-128.0392130213756
 30
0.0
 10
84.70335691241792
 20
-128.3036240998686
 30
0.0
 10
84.93607311244654
 20
-128.3122368385817
 30
0.0
 10
85.007903353314
 20
-128.316370953164
 30
0.0
 10
85.007903353314
 20
-128.316370953164
 30
0.0
 10
85.007903353314
 20
-128.5194593320194
 30
0.0
 10
85.007903353314
 20
-128.5194593320194
 30
0.0
 10
84.88301864197369
 20
-128.5110188480806
 30
0.0
 10
84.50646970543589
 20
-128.4834580841986
 30
0.0
 10
84.50646970543589
 20
-128.0266384228545
 30
0.0
 10
84.50646970543589
 20
-127.8023627067647
 30
0.0
 10
84.63342147406735
 20
-127.5612060227972
 30
0.0
 10
84.92969968579882
 20
-127.5612060227972
 30
0.0
 10
85.11573484200233
 20
-127.5612060227972
 30
0.0
 10
85.19824487887405
 20
-127.6562906581901
 30
0.0
 10
85.25973983328576
 20
-127.7558539177138
 30
0.0
 10
85.2871283423935
 20
-127.6943589633021
 30
0.0
 10
85.36757132197408
 20
-127.5124579216809
 30
0.0
 10
85.64472925376243
 20
-127.5124579216809
 30
0.0
 10
85.98320988518823
 20
-127.5124579216809
 30
0.0
 10
86.15029701622285
 20
-127.7599880322961
 30
0.0
 10
86.15029701622285
 20
-128.0371459640845
 30
0.0
  0
HATCH
  5
9F
330
9A
100
AcDbEntity
  8
_U+30EC_U+30A4_U+30E4_U+30FC 1
 62
   179
420
  2234388
100
AcDbHatch
 10
0.0
 20
0.0
 30
0.0
210
0.0
220
0.0
230
1.0
  2
SOLID
 70
     1
 71
     0
 91
        1
 92
        1
 93
        1
 72
     4
 94
        3
 73
     0
 74
     1
 95
       62
 96
       58
 40
0.0
 40
0.0
 40
0.0
 40
0.0
 40
1.0
 40
1.0
 40
1.0
 40
2.0
 40
2.0
 40
2.0
 40
3.0
 40
3.0
 40
3.0
 40
4.0
 40
4.0
 40
4.0
 40
5.0
 40
5.0
 40
5.0
 40
6.0
 40
6.0
 40
6.0
 40
7.0
 40
7.0
 40
7.0
 40
8.0
 40
8.0
 40
8.0
 40
9.0
 40
9.0
 40
9.0
 40
10.0
 40
10.0
 40
10.0
 40
11.0
 40
11.0
 40
11.0
 40
12.0
 40
12.0
 40
12.0
 40
13.0
 40
13.0
 40
13.0
 40
14.0
 40
14.0
 40
14.0
 40
15.0
 40
15.0
 40
15.0
 40
16.0
 40
16.0
 40
16.0
 40
17.0
 40
17.0
 40
17.0
 40
18.0
 40
18.0
 40
18.0
 40
19.0
 40
19.0
 40
19.0
 40
19.0
 10
86.15029701622285
 20
-128.0371459640845
 10
86.15029701622285
 20
-128.1324028542516
 10
86.12910967898856
 20
-128.3503051436937
 10
85.94290226801081
 20
-128.4750176002597
 10
85.83076440996592
 20
-128.5490871531926
 10
85.73137340521646
 20
-128.5533935225492
 10
85.64679631105358
 20
-128.5575276371315
 10
85.64679631105358
 20
-128.5575276371315
 10
85.64679631105358
 20
-128.3375582903982
 10
85.64679631105358
 20
-128.3375582903982
 10
85.72086586398646
 20
-128.3354912331071
 10
85.95564912130624
 20
-128.3248114371028
 10
85.95564912130624
 20
-128.041452333441
 10
85.95564912130624
 20
-127.9038207688053
 10
85.88588593772992
 20
-127.7515475483573
 10
85.65730385228359
 20
-127.7515475483573
 10
85.54103187965642
 20
-127.7515475483573
 10
85.49228377854013
 20
-127.7896158534693
 10
85.46058890007583
 20
-127.8213107319336
 10
85.38651934714295
 20
-127.8953802848664
 10
85.3739447486218
 20
-128.0118245122679
 10
85.3739447486218
 20
-128.0667737852576
 10
85.3739447486218
 20
-128.0857218104265
 10
85.37601180591295
 20
-128.1217230582473
 10
85.38031817526951
 20
-128.1492838221293
 10
85.38031817526951
 20
-128.1492838221293
 10
85.1856702803529
 20
-128.1492838221293
 10
85.1856702803529
 20
-128.1492838221293
 10
85.19204370700061
 20
-128.1112155170173
 10
85.19411076429175
 20
-128.0688408425488
 10
85.19411076429175
 20
-128.0624674159011
 10
85.19411076429175
 20
-127.9970106016813
 10
85.17292342705747
 20
-127.7980563374081
 10
84.93607311244654
 20
-127.7980563374081
 10
84.75830618540765
 20
-127.7980563374081
 10
84.70335691241792
 20
-127.9293144753962
 10
84.70335691241792
 20
-128.0392130213756
 10
84.70335691241792
 20
-128.3036240998686
 10
84.93607311244654
 20
-128.3122368385817
 10
85.007903353314
 20
-128.316370953164
 10
85.007903353314
 20
-128.316370953164
 10
85.007903353314
 20
-128.5194593320194
 10
85.007903353314
 20
-128.5194593320194
 10
84.88301864197369
 20
-128.5110188480806
 10
84.50646970543589
 20
-128.4834580841986
 10
84.50646970543589
 20
-128.0266384228545
 10
84.50646970543589
 20
-127.8023627067647
 10
84.63342147406735
 20
-127.5612060227972
 10
84.92969968579882
 20
-127.5612060227972
 10
85.11573484200233
 20
-127.5612060227972
 10
85.19824487887405
 20
-127.6562906581901
 10
85.25973983328576
 20
-127.7558539177138
 10
85.2871283423935
 20
-127.6943589633021
 10
85.36757132197408
 20
-127.5124579216809
 10
85.64472925376243
 20
-127.5124579216809
 10
85.98320988518823
 20
-127.5124579216809
 10
86.15029701622285
 20
-127.7599880322961
 10
86.15029701622285
 20
-128.0371459640845
 97
        0
 97
        0
 75
     2
 76
     1
 98
        0
  0
ENDBLK
  5
9D
330
9A
100
AcDbEntity
  8
0
100
AcDbBlockEnd
  0
BLOCK
  5
B1
330
AF
100
AcDbEntity
  8
0
100
AcDbBlockBegin
  2
block 4
 70
     0
 10
0.0
 20
0.0
 30
0.0
  3
block 4
  1

  0
SPLINE
  5
B3
330
AF
100
AcDbEntity
  8
_U+30EC_U+30A4_U+30E4_U+30FC 1
370
     0
100
AcDbSpline
210
0.0
220
0.0
230
1.0
 70
    11
 71
     3
 72
    26
 73
    22
 74
     0
 42
0.0000000001
 43
0.0000000001
 12
1.0
 22
0.0
 32
0.0
 13
1.0
 23
0.0
 33
0.0
 40
0.0
 40
0.0
 40
0.0
 40
0.0
 40
1.0
 40
1.0
 40
1.0
 40
2.0
 40
2.0
 40
2.0
 40
3.0
 40
3.0
 40
3.0
 40
4.0
 40
4.0
 40
4.0
 40
5.0
 40
5.0
 40
5.0
 40
6.0
 40
6.0
 40
6.0
 40
7.0
 40
7.0
 40
7.0
 40
7.0
 10
97.09932723266962
 20
-133.1656873582016
 30
0.0
 10
97.09932723266962
 20
-133.1656873582016
 30
0.0
 10
95.99482962009851
 20
-133.1656873582016
 30
0.0
 10
95.99482962009851
 20
-133.1656873582016
 30
0.0
 10
95.99482962009851
 20
-133.1656873582016
 30
0.0
 10
95.99482962009851
 20
-133.4957275056886
 30
0.0
 10
95.99482962009851
 20
-133.4957275056886
 30
0.0
 10
95.99482962009851
 20
-133.4957275056886
 30
0.0
 10
95.84669051423278
 20
-133.4957275056886
 30
0.0
 10
95.84669051423278
 20
-133.4957275056886
 30
0.0
 10
95.83187660364621
 20
-133.1636203009105
 30
0.0
 10
95.66926809674241
 20
-133.1171115118596
 30
0.0
 10
95.55489092663211
 20
-133.0874836906865
 30
0.0
 10
95.55489092663211
 20
-133.0874836906865
 30
0.0
 10
95.55489092663211
 20
-132.9414116421119
 30
0.0
 10
95.55489092663211
 20
-132.9414116421119
 30
0.0
 10
95.55489092663211
 20
-132.9414116421119
 30
0.0
 10
97.09932723266962
 20
-132.9414116421119
 30
0.0
 10
97.09932723266962
 20
-132.9414116421119
 30
0.0
 10
97.09932723266962
 20
-132.9414116421119
 30
0.0
 10
97.09932723266962
 20
-133.1656873582016
 30
0.0
 10
97.09932723266962
 20
-133.1656873582016
 30
0.0
  0
HATCH
  5
B4
330
AF
100
AcDbEntity
  8
_U+30EC_U+30A4_U+30E4_U+30FC 1
 62
   179
420
  2234388
100
AcDbHatch
 10
0.0
 20
0.0
 30
0.0
210
0.0
220
0.0
230
1.0
  2
SOLID
 70
     1
 71
     0
 91
        1
 92
        1
 93
        1
 72
     4
 94
        3
 73
     0
 74
     1
 95
       26
 96
       22
 40
0.0
 40
0.0
 40
0.0
 40
0.0
 40
1.0
 40
1.0
 40
1.0
 40
2.0
 40
2.0
 40
2.0
 40
3.0
 40
3.0
 40
3.0
 40
4.0
 40
4.0
 40
4.0
 40
5.0
 40
5.0
 40
5.0
 40
6.0
 40
6.0
 40
6.0
 40
7.0
 40
7.0
 40
7.0
 40
7.0
 10
97.09932723266962
 20
-133.1656873582016
 10
97.09932723266962
 20
-133.1656873582016
 10
95.99482962009851
 20
-133.1656873582016
 10
95.99482962009851
 20
-133.1656873582016
 10
95.99482962009851
 20
-133.1656873582016
 10
95.99482962009851
 20
-133.4957275056886
 10
95.99482962009851
 20
-133.4957275056886
 10
95.99482962009851
 20
-133.4957275056886
 10
95.84669051423278
 20
-133.4957275056886
 10
95.84669051423278
 20
-133.4957275056886
 10
95.83187660364621
 20
-133.1636203009105
 10
95.66926809674241
 20
-133.1171115118596
 10
95.55489092663211
 20
-133.0874836906865
 10
95.55489092663211
 20
-133.0874836906865
 10
95.55489092663211
 20
-132.9414116421119
 10
95.55489092663211
 20
-132.9414116421119
 10
95.55489092663211
 20
-132.9414116421119
 10
97.09932723266962
 20
-132.9414116421119
 10
97.09932723266962
 20
-132.9414116421119
 10
97.09932723266962
 20
-132.9414116421119
 10
97.09932723266962
 20
-133.1656873582016
 10
97.09932723266962
 20
-133.1656873582016
 97
        0
 97
        0
 75
     2
 76
     1
 98
        0
  0
SPLINE
  5
B5
330
AF
100
AcDbEntity
  8
_U+30EC_U+30A4_U+30E4_U+30FC 1
370
     0
100
AcDbSpline
210
0.0
220
0.0
230
1.0
 70
    11
 71
     3
 72
    44
 73
    40
 74
     0
 42
0.0000000001
 43
0.0000000001
 12
1.0
 22
0.0
 32
0.0
 13
1.0
 23
0.0
 33
0.0
 40
0.0
 40
0.0
 40
0.0
 40
0.0
 40
1.0
 40
1.0
 40
1.0
 40
2.0
 40
2.0
 40
2.0
 40
3.0
 40
3.0
 40
3.0
 40
4.0
 40
4.0
 40
4.0
 40
5.0
 40
5.0
 40
5.0
 40
6.0
 40
6.0
 40
6.0
 40
7.0
 40
7.0
 40
7.0
 40
8.0
 40
8.0
 40
8.0
 40
9.0
 40
9.0
 40
9.0
 40
10.0
 40
10.0
 40
10.0
 40
11.0
 40
11.0
 40
11.0
 40
12.0
 40
12.0
 40
12.0
 40
13.0
 40
13.0
 40
13.0
 40
13.0
 10
96.51745060521093
 20
-131.8472493159965
 30
0.0
 10
96.6759249975324
 20
-132.0649793506643
 30
0.0
 10
96.74999455046529
 20
-132.1579969287661
 30
0.0
 10
96.89399954174873
 20
-132.2065727751081
 30
0.0
 10
96.89399954174873
 20
-132.2065727751081
 30
0.0
 10
96.89399954174873
 20
-131.4283257049902
 30
0.0
 10
96.89399954174873
 20
-131.4283257049902
 30
0.0
 10
96.89399954174873
 20
-131.4283257049902
 30
0.0
 10
97.09932723266962
 20
-131.4283257049902
 30
0.0
 10
97.09932723266962
 20
-131.4283257049902
 30
0.0
 10
97.09932723266962
 20
-131.4283257049902
 30
0.0
 10
97.09932723266962
 20
-132.4563421977887
 30
0.0
 10
97.09932723266962
 20
-132.4563421977887
 30
0.0
 10
96.74172632130069
 20
-132.4246473193244
 30
0.0
 10
96.6635226537855
 20
-132.3591905051047
 30
0.0
 10
96.36517738476287
 20
-131.9740288298537
 30
0.0
 10
96.16639537526396
 20
-131.7180582352997
 30
0.0
 10
96.09852699420453
 20
-131.6526014210799
 30
0.0
 10
95.96106768434306
 20
-131.6526014210799
 30
0.0
 10
95.84255639965048
 20
-131.6526014210799
 30
0.0
 10
95.71129826166246
 20
-131.7242594071731
 30
0.0
 10
95.71129826166246
 20
-131.9209743593809
 30
0.0
 10
95.71129826166246
 20
-132.1814235780658
 30
0.0
 10
95.9421196591742
 20
-132.1896918072304
 30
0.0
 10
96.05821937702711
 20
-132.1941704313612
 30
0.0
 10
96.05821937702711
 20
-132.1941704313612
 30
0.0
 10
96.05821937702711
 20
-132.4181016379024
 30
0.0
 10
96.05821937702711
 20
-132.4181016379024
 30
0.0
 10
95.93143986316993
 20
-132.4098334087378
 30
0.0
 10
95.81947425989931
 20
-132.3991536127336
 30
0.0
 10
95.7009629752067
 20
-132.3188828879272
 30
0.0
 10
95.54007701604554
 20
-132.2089843419478
 30
0.0
 10
95.5063150802901
 20
-132.0226046761958
 30
0.0
 10
95.5063150802901
 20
-131.9061604487943
 30
0.0
 10
95.5063150802901
 20
-131.6291747717802
 30
0.0
 10
95.69028317920244
 20
-131.4217800235682
 30
0.0
 10
95.96313474163422
 20
-131.4217800235682
 30
0.0
 10
96.19154457230628
 20
-131.4217800235682
 30
0.0
 10
96.29110783183
 20
-131.5382242509696
 30
0.0
 10
96.51745060521093
 20
-131.8472493159965
 30
0.0
  0
HATCH
  5
B6
330
AF
100
AcDbEntity
  8
_U+30EC_U+30A4_U+30E4_U+30FC 1
 62
   179
420
  2234388
100
AcDbHatch
 10
0.0
 20
0.0
 30
0.0
210
0.0
220
0.0
230
1.0
  2
SOLID
 70
     1
 71
     0
 91
        1
 92
        1
 93
        1
 72
     4
 94
        3
 73
     0
 74
     1
 95
       44
 96
       40
 40
0.0
 40
0.0
 40
0.0
 40
0.0
 40
1.0
 40
1.0
 40
1.0
 40
2.0
 40
2.0
 40
2.0
 40
3.0
 40
3.0
 40
3.0
 40
4.0
 40
4.0
 40
4.0
 40
5.0
 40
5.0
 40
5.0
 40
6.0
 40
6.0
 40
6.0
 40
7.0
 40
7.0
 40
7.0
 40
8.0
 40
8.0
 40
8.0
 40
9.0
 40
9.0
 40
9.0
 40
10.0
 40
10.0
 40
10.0
 40
11.0
 40
11.0
 40
11.0
 40
12.0
 40
12.0
 40
12.0
 40
13.0
 40
13.0
 40
13.0
 40
13.0
 10
96.51745060521093
 20
-131.8472493159965
 10
96.6759249975324
 20
-132.0649793506643
 10
96.74999455046529
 20
-132.1579969287661
 10
96.89399954174873
 20
-132.2065727751081
 10
96.89399954174873
 20
-132.2065727751081
 10
96.89399954174873
 20
-131.4283257049902
 10
96.89399954174873
 20
-131.4283257049902
 10
96.89399954174873
 20
-131.4283257049902
 10
97.09932723266962
 20
-131.4283257049902
 10
97.09932723266962
 20
-131.4283257049902
 10
97.09932723266962
 20
-131.4283257049902
 10
97.09932723266962
 20
-132.4563421977887
 10
97.09932723266962
 20
-132.4563421977887
 10
96.74172632130069
 20
-132.4246473193244
 10
96.6635226537855
 20
-132.3591905051047
 10
96.36517738476287
 20
-131.9740288298537
 10
96.16639537526396
 20
-131.7180582352997
 10
96.09852699420453
 20
-131.6526014210799
 10
95.96106768434306
 20
-131.6526014210799
 10
95.84255639965048
 20
-131.6526014210799
 10
95.71129826166246
 20
-131.7242594071731
 10
95.71129826166246
 20
-131.9209743593809
 10
95.71129826166246
 20
-132.1814235780658
 10
95.9421196591742
 20
-132.1896918072304
 10
96.05821937702711
 20
-132.1941704313612
 10
96.05821937702711
 20
-132.1941704313612
 10
96.05821937702711
 20
-132.4181016379024
 10
96.05821937702711
 20
-132.4181016379024
 10
95.93143986316993
 20
-132.4098334087378
 10
95.81947425989931
 20
-132.3991536127336
 10
95.7009629752067
 20
-132.3188828879272
 10
95.54007701604554
 20
-132.2089843419478
 10
95.5063150802901
 20
-132.0226046761958
 10
95.5063150802901
 20
-131.9061604487943
 10
95.5063150802901
 20
-131.6291747717802
 10
95.69028317920244
 20
-131.4217800235682
 10
95.96313474163422
 20
-131.4217800235682
 10
96.19154457230628
 20
-131.4217800235682
 10
96.29110783183
 20
-131.5382242509696
 10
96.51745060521093
 20
-131.8472493159965
 97
        0
 97
        0
 75
     2
 76
     1
 98
        0
  0
ENDBLK
  5
B2
330
AF
100
AcDbEntity
  8
0
100
AcDbBlockEnd
  0
ENDSEC
  0
SECTION
  2
ENTITIES
  0
SPLINE
  5
41
330
1F
100
AcDbEntity
  8
_U+30EC_U+30A4_U+30E4_U+30FC 1
370
     0
100
AcDbSpline
210
0.0
220
0.0
230
1.0
 70
    11
 71
     3
 72
    53
 73
    49
 74
     0
 42
0.0000000001
 43
0.0000000001
 12
1.0
 22
0.0
 32
0.0
 13
1.0
 23
0.0
 33
0.0
 40
0.0
 40
0.0
 40
0.0
 40
0.0
 40
1.0
 40
1.0
 40
1.0
 40
2.0
 40
2.0
 40
2.0
 40
3.0
 40
3.0
 40
3.0
 40
4.0
 40
4.0
 40
4.0
 40
5.0
 40
5.0
 40
5.0
 40
6.0
 40
6.0
 40
6.0
 40
7.0
 40
7.0
 40
7.0
 40
8.0
 40
8.0
 40
8.0
 40
9.0
 40
9.0
 40
9.0
 40
10.0
 40
10.0
 40
10.0
 40
11.0
 40
11.0
 40
11.0
 40
12.0
 40
12.0
 40
12.0
 40
13.0
 40
13.0
 40
13.0
 40
14.0
 40
14.0
 40
14.0
 40
15.0
 40
15.0
 40
15.0
 40
16.0
 40
16.0
 40
16.0
 40
16.0
 10
93.43717844955232
 20
-126.5283713572567
 30
0.0
 10
93.43717844955232
 20
-126.5283713572567
 30
0.0
 10
90.5078176909532
 20
-126.5283713572567
 30
0.0
 10
90.5078176909532
 20
-126.5283713572567
 30
0.0
 10
90.5078176909532
 20
-126.5476683016965
 30
0.0
 10
90.49197796913508
 20
-126.5635080239148
 30
0.0
 10
90.47250463629855
 20
-126.5635080239148
 30
0.0
 10
90.47250463629855
 20
-126.5635080239148
 30
0.0
 10
90.47250463629855
 20
-129.4928688565156
 30
0.0
 10
90.47250463629855
 20
-129.4928688565156
 30
0.0
 10
90.49197796913508
 20
-129.4928688565156
 30
0.0
 10
90.5078176909532
 20
-129.5087085787341
 30
0.0
 10
90.5078176909532
 20
-129.5283583009511
 30
0.0
 10
90.5078176909532
 20
-129.5283583009511
 30
0.0
 10
91.47245553268725
 20
-129.5283583009511
 30
0.0
 10
91.47245553268725
 20
-129.5283583009511
 30
0.0
 10
91.47245553268725
 20
-129.5283583009511
 30
0.0
 10
91.47245553268725
 20
-137.028343299076
 30
0.0
 10
91.47245553268725
 20
-137.028343299076
 30
0.0
 10
91.47245553268725
 20
-137.028343299076
 30
0.0
 10
90.97239073465651
 20
-137.028343299076
 30
0.0
 10
90.97239073465651
 20
-137.028343299076
 30
0.0
 10
90.97239073465651
 20
-137.028343299076
 30
0.0
 10
90.97239073465651
 20
-138.5283191320347
 30
0.0
 10
90.97239073465651
 20
-138.5283191320347
 30
0.0
 10
90.97239073465651
 20
-138.5283191320347
 30
0.0
 10
92.93697485120246
 20
-138.5283191320347
 30
0.0
 10
92.93697485120246
 20
-138.5283191320347
 30
0.0
 10
92.93697485120246
 20
-138.5086694098171
 30
0.0
 10
92.95281457302058
 20
-138.4928296875993
 30
0.0
 10
92.97211386564575
 20
-138.4928296875993
 30
0.0
 10
92.97211386564575
 20
-138.4928296875993
 30
0.0
 10
92.97211386564575
 20
-137.028343299076
 30
0.0
 10
92.97211386564575
 20
-137.028343299076
 30
0.0
 10
92.97211386564575
 20
-137.028343299076
 30
0.0
 10
92.47258053243756
 20
-137.028343299076
 30
0.0
 10
92.47258053243756
 20
-137.028343299076
 30
0.0
 10
92.47258053243756
 20
-137.028343299076
 30
0.0
 10
92.47258053243756
 20
-129.5283583009511
 30
0.0
 10
92.47258053243756
 20
-129.5283583009511
 30
0.0
 10
92.47258053243756
 20
-129.5283583009511
 30
0.0
 10
93.47231511532257
 20
-129.5283583009511
 30
0.0
 10
93.47231511532257
 20
-129.5283583009511
 30
0.0
 10
93.47231511532257
 20
-129.5283583009511
 30
0.0
 10
93.47231511532257
 20
-126.5635080239148
 30
0.0
 10
93.47231511532257
 20
-126.5635080239148
 30
0.0
 10
93.4530534491473
 20
-126.5635080239148
 30
0.0
 10
93.43717844955232
 20
-126.5476683016965
 30
0.0
 10
93.43717844955232
 20
-126.5283713572567
 30
0.0
  0
HATCH
  5
42
330
1F
100
AcDbEntity
  8
_U+30EC_U+30A4_U+30E4_U+30FC 1
 62
     8
420
  8355711
100
AcDbHatch
 10
0.0
 20
0.0
 30
0.0
210
0.0
220
0.0
230
1.0
  2
SOLID
 70
     1
 71
     0
 91
        1
 92
        1
 93
        1
 72
     4
 94
        3
 73
     0
 74
     1
 95
       53
 96
       49
 40
0.0
 40
0.0
 40
0.0
 40
0.0
 40
1.0
 40
1.0
 40
1.0
 40
2.0
 40
2.0
 40
2.0
 40
3.0
 40
3.0
 40
3.0
 40
4.0
 40
4.0
 40
4.0
 40
5.0
 40
5.0
 40
5.0
 40
6.0
 40
6.0
 40
6.0
 40
7.0
 40
7.0
 40
7.0
 40
8.0
 40
8.0
 40
8.0
 40
9.0
 40
9.0
 40
9.0
 40
10.0
 40
10.0
 40
10.0
 40
11.0
 40
11.0
 40
11.0
 40
12.0
 40
12.0
 40
12.0
 40
13.0
 40
13.0
 40
13.0
 40
14.0
 40
14.0
 40
14.0
 40
15.0
 40
15.0
 40
15.0
 40
16.0
 40
16.0
 40
16.0
 40
16.0
 10
93.43717844955232
 20
-126.5283713572567
 10
93.43717844955232
 20
-126.5283713572567
 10
90.5078176909532
 20
-126.5283713572567
 10
90.5078176909532
 20
-126.5283713572567
 10
90.5078176909532
 20
-126.5476683016965
 10
90.49197796913508
 20
-126.5635080239148
 10
90.47250463629855
 20
-126.5635080239148
 10
90.47250463629855
 20
-126.5635080239148
 10
90.47250463629855
 20
-129.4928688565156
 10
90.47250463629855
 20
-129.4928688565156
 10
90.49197796913508
 20
-129.4928688565156
 10
90.5078176909532
 20
-129.5087085787341
 10
90.5078176909532
 20
-129.5283583009511
 10
90.5078176909532
 20
-129.5283583009511
 10
91.47245553268725
 20
-129.5283583009511
 10
91.47245553268725
 20
-129.5283583009511
 10
91.47245553268725
 20
-129.5283583009511
 10
91.47245553268725
 20
-137.028343299076
 10
91.47245553268725
 20
-137.028343299076
 10
91.47245553268725
 20
-137.028343299076
 10
90.97239073465651
 20
-137.028343299076
 10
90.97239073465651
 20
-137.028343299076
 10
90.97239073465651
 20
-137.028343299076
 10
90.97239073465651
 20
-138.5283191320347
 10
90.97239073465651
 20
-138.5283191320347
 10
90.97239073465651
 20
-138.5283191320347
 10
92.93697485120246
 20
-138.5283191320347
 10
92.93697485120246
 20
-138.5283191320347
 10
92.93697485120246
 20
-138.5086694098171
 10
92.95281457302058
 20
-138.4928296875993
 10
92.97211386564575
 20
-138.4928296875993
 10
92.97211386564575
 20
-138.4928296875993
 10
92.97211386564575
 20
-137.028343299076
 10
92.97211386564575
 20
-137.028343299076
 10
92.97211386564575
 20
-137.028343299076
 10
92.47258053243756
 20
-137.028343299076
 10
92.47258053243756
 20
-137.028343299076
 10
92.47258053243756
 20
-137.028343299076
 10
92.47258053243756
 20
-129.5283583009511
 10
92.47258053243756
 20
-129.5283583009511
 10
92.47258053243756
 20
-129.5283583009511
 10
93.47231511532257
 20
-129.5283583009511
 10
93.47231511532257
 20
-129.5283583009511
 10
93.47231511532257
 20
-129.5283583009511
 10
93.47231511532257
 20
-126.5635080239148
 10
93.47231511532257
 20
-126.5635080239148
 10
93.4530534491473
 20
-126.5635080239148
 10
93.43717844955232
 20
-126.5476683016965
 10
93.43717844955232
 20
-126.5283713572567
 97
        0
 97
        0
 75
     2
 76
     1
 98
        0
  0
POLYLINE
  5
43
330
1F
100
AcDbEntity
  8
_U+30EC_U+30A4_U+30E4_U+30FC 1
 62
   179
420
  2234388
370
    25
100
AcDb2dPolyline
 66
     1
 10
0.0
 20
0.0
 30
0.0
  0
VERTEX
  5
44
330
43
100
AcDbEntity
  8
_U+30EC_U+30A4_U+30E4_U+30FC 1
 62
   179
420
  2234388
370
    25
100
AcDbVertex
100
AcDb2dVertex
 10
90.97239073465651
 20
-138.5283191320347
 30
0.0
  0
VERTEX
  5
45
330
43
100
AcDbEntity
  8
_U+30EC_U+30A4_U+30E4_U+30FC 1
 62
   179
420
  2234388
370
    25
100
AcDbVertex
100
AcDb2dVertex
 10
92.97211386564575
 20
-138.5283191320347
 30
0.0
  0
SEQEND
  5
46
330
43
100
AcDbEntity
  8
_U+30EC_U+30A4_U+30E4_U+30FC 1
 62
   179
420
  2234388
370
    25
  0
POLYLINE
  5
47
330
1F
100
AcDbEntity
  8
_U+30EC_U+30A4_U+30E4_U+30FC 1
 62
   179
420
  2234388
370
    25
100
AcDb2dPolyline
 66
     1
 10
0.0
 20
0.0
 30
0.0
  0
VERTEX
  5
48
330
47
100
AcDbEntity
  8
_U+30EC_U+30A4_U+30E4_U+30FC 1
 62
   179
420
  2234388
370
    25
100
AcDbVertex
100
AcDb2dVertex
 10
90.47250463629855
 20
-126.5283713572567
 30
0.0
  0
VERTEX
  5
49
330
47
100
AcDbEntity
  8
_U+30EC_U+30A4_U+30E4_U+30FC 1
 62
   179
420
  2234388
370
    25
100
AcDbVertex
100
AcDb2dVertex
 10
93.47231511532257
 20
-126.5283713572567
 30
0.0
  0
SEQEND
  5
4A
330
47
100
AcDbEntity
  8
_U+30EC_U+30A4_U+30E4_U+30FC 1
 62
   179
420
  2234388
370
    25
  0
POLYLINE
  5
4B
330
1F
100
AcDbEntity
  8
_U+30EC_U+30A4_U+30E4_U+30FC 1
 62
   179
420
  2234388
370
    25
100
AcDb2dPolyline
 66
     1
 10
0.0
 20
0.0
 30
0.0
  0
VERTEX
  5
4C
330
4B
100
AcDbEntity
  8
_U+30EC_U+30A4_U+30E4_U+30FC 1
 62
   179
420
  2234388
370
    25
100
AcDbVertex
100
AcDb2dVertex
 10
93.47231511532257
 20
-126.5283713572567
 30
0.0
  0
VERTEX
  5
4D
330
4B
100
AcDbEntity
  8
_U+30EC_U+30A4_U+30E4_U+30FC 1
 62
   179
420
  2234388
370
    25
100
AcDbVertex
100
AcDb2dVertex
 10
93.47231511532257
 20
-129.5283583009511
 30
0.0
  0
SEQEND
  5
4E
330
4B
100
AcDbEntity
  8
_U+30EC_U+30A4_U+30E4_U+30FC 1
 62
   179
420
  2234388
370
    25
  0
POLYLINE
  5
4F
330
1F
100
AcDbEntity
  8
_U+30EC_U+30A4_U+30E4_U+30FC 1
 62
   179
420
  2234388
370
    25
100
AcDb2dPolyline
 66
     1
 10
0.0
 20
0.0
 30
0.0
  0
VERTEX
  5
50
330
4F
100
AcDbEntity
  8
_U+30EC_U+30A4_U+30E4_U+30FC 1
 62
   179
420
  2234388
370
    25
100
AcDbVertex
100
AcDb2dVertex
 10
90.47250463629855
 20
-126.5283713572567
 30
0.0
  0
VERTEX
  5
51
330
4F
100
AcDbEntity
  8
_U+30EC_U+30A4_U+30E4_U+30FC 1
 62
   179
420
  2234388
370
    25
100
AcDbVertex
100
AcDb2dVertex
 10
90.47250463629855
 20
-129.5283583009511
 30
0.0
  0
SEQEND
  5
52
330
4F
100
AcDbEntity
  8
_U+30EC_U+30A4_U+30E4_U+30FC 1
 62
   179
420
  2234388
370
    25
  0
POLYLINE
  5
53
330
1F
100
AcDbEntity
  8
_U+30EC_U+30A4_U+30E4_U+30FC 1
 62
   179
420
  2234388
370
    25
100
AcDb2dPolyline
 66
     1
 10
0.0
 20
0.0
 30
0.0
  0
VERTEX
  5
54
330
53
100
AcDbEntity
  8
_U+30EC_U+30A4_U+30E4_U+30FC 1
 62
   179
420
  2234388
370
    25
100
AcDbVertex
100
AcDb2dVertex
 10
90.47250463629855
 20
-129.5283583009511
 30
0.0
  0
VERTEX
  5
55
330
53
100
AcDbEntity
  8
_U+30EC_U+30A4_U+30E4_U+30FC 1
 62
   179
420
  2234388
370
    25
100
AcDbVertex
100
AcDb2dVertex
 10
91.47245553268725
 20
-129.5283583009511
 30
0.0
  0
SEQEND
  5
56
330
53
100
AcDbEntity
  8
_U+30EC_U+30A4_U+30E4_U+30FC 1
 62
   179
420
  2234388
370
    25
  0
POLYLINE
  5
57
330
1F
100
AcDbEntity
  8
_U+30EC_U+30A4_U+30E4_U+30FC 1
 62
   179
420
  2234388
370
    25
100
AcDb2dPolyline
 66
     1
 10
0.0
 20
0.0
 30
0.0
  0
VERTEX
  5
58
330
57
100
AcDbEntity
  8
_U+30EC_U+30A4_U+30E4_U+30FC 1
 62
   179
420
  2234388
370
    25
100
AcDbVertex
100
AcDb2dVertex
 10
90.97239073465651
 20
-137.028343299076
 30
0.0
  0
VERTEX
  5
59
330
57
100
AcDbEntity
  8
_U+30EC_U+30A4_U+30E4_U+30FC 1
 62
   179
420
  2234388
370
    25
100
AcDbVertex
100
AcDb2dVertex
 10
91.47245553268725
 20
-137.028343299076
 30
0.0
  0
SEQEND
  5
5A
330
57
100
AcDbEntity
  8
_U+30EC_U+30A4_U+30E4_U+30FC 1
 62
   179
420
  2234388
370
    25
  0
POLYLINE
  5
5B
330
1F
100
AcDbEntity
  8
_U+30EC_U+30A4_U+30E4_U+30FC 1
 62
   179
420
  2234388
370
    25
100
AcDb2dPolyline
 66
     1
 10
0.0
 20
0.0
 30
0.0
  0
VERTEX
  5
5C
330
5B
100
AcDbEntity
  8
_U+30EC_U+30A4_U+30E4_U+30FC 1
 62
   179
420
  2234388
370
    25
100
AcDbVertex
100
AcDb2dVertex
 10
90.97239073465651
 20
-137.028343299076
 30
0.0
  0
VERTEX
  5
5D
330
5B
100
AcDbEntity
  8
_U+30EC_U+30A4_U+30E4_U+30FC 1
 62
   179
420
  2234388
370
    25
100
AcDbVertex
100
AcDb2dVertex
 10
90.97239073465651
 20
-138.5283191320347
 30
0.0
  0
SEQEND
  5
5E
330
5B
100
AcDbEntity
  8
_U+30EC_U+30A4_U+30E4_U+30FC 1
 62
   179
420
  2234388
370
    25
  0
POLYLINE
  5
5F
330
1F
100
AcDbEntity
  8
_U+30EC_U+30A4_U+30E4_U+30FC 1
 62
   179
420
  2234388
370
    25
100
AcDb2dPolyline
 66
     1
 10
0.0
 20
0.0
 30
0.0
  0
VERTEX
  5
60
330
5F
100
AcDbEntity
  8
_U+30EC_U+30A4_U+30E4_U+30FC 1
 62
   179
420
  2234388
370
    25
100
AcDbVertex
100
AcDb2dVertex
 10
92.97211386564575
 20
-137.028343299076
 30
0.0
  0
VERTEX
  5
61
330
5F
100
AcDbEntity
  8
_U+30EC_U+30A4_U+30E4_U+30FC 1
 62
   179
420
  2234388
370
    25
100
AcDbVertex
100
AcDb2dVertex
 10
92.97211386564575
 20
-138.5283191320347
 30
0.0
  0
SEQEND
  5
62
330
5F
100
AcDbEntity
  8
_U+30EC_U+30A4_U+30E4_U+30FC 1
 62
   179
420
  2234388
370
    25
  0
POLYLINE
  5
63
330
1F
100
AcDbEntity
  8
_U+30EC_U+30A4_U+30E4_U+30FC 1
 62
   179
420
  2234388
370
    25
100
AcDb2dPolyline
 66
     1
 10
0.0
 20
0.0
 30
0.0
  0
VERTEX
  5
64
330
63
100
AcDbEntity
  8
_U+30EC_U+30A4_U+30E4_U+30FC 1
 62
   179
420
  2234388
370
    25
100
AcDbVertex
100
AcDb2dVertex
 10
92.47258053243756
 20
-129.5283583009511
 30
0.0
  0
VERTEX
  5
65
330
63
100
AcDbEntity
  8
_U+30EC_U+30A4_U+30E4_U+30FC 1
 62
   179
420
  2234388
370
    25
100
AcDbVertex
100
AcDb2dVertex
 10
92.47258053243756
 20
-137.028343299076
 30
0.0
  0
SEQEND
  5
66
330
63
100
AcDbEntity
  8
_U+30EC_U+30A4_U+30E4_U+30FC 1
 62
   179
420
  2234388
370
    25
  0
POLYLINE
  5
67
330
1F
100
AcDbEntity
  8
_U+30EC_U+30A4_U+30E4_U+30FC 1
 62
   179
420
  2234388
370
    25
100
AcDb2dPolyline
 66
     1
 10
0.0
 20
0.0
 30
0.0
  0
VERTEX
  5
68
330
67
100
AcDbEntity
  8
_U+30EC_U+30A4_U+30E4_U+30FC 1
 62
   179
420
  2234388
370
    25
100
AcDbVertex
100
AcDb2dVertex
 10
91.47245553268725
 20
-129.5283583009511
 30
0.0
  0
VERTEX
  5
69
330
67
100
AcDbEntity
  8
_U+30EC_U+30A4_U+30E4_U+30FC 1
 62
   179
420
  2234388
370
    25
100
AcDbVertex
100
AcDb2dVertex
 10
91.47245553268725
 20
-137.028343299076
 30
0.0
  0
SEQEND
  5
6A
330
67
100
AcDbEntity
  8
_U+30EC_U+30A4_U+30E4_U+30FC 1
 62
   179
420
  2234388
370
    25
  0
POLYLINE
  5
6B
330
1F
100
AcDbEntity
  8
_U+30EC_U+30A4_U+30E4_U+30FC 1
 62
   179
420
  2234388
370
    25
100
AcDb2dPolyline
 66
     1
 10
0.0
 20
0.0
 30
0.0
  0
VERTEX
  5
6C
330
6B
100
AcDbEntity
  8
_U+30EC_U+30A4_U+30E4_U+30FC 1
 62
   179
420
  2234388
370
    25
100
AcDbVertex
100
AcDb2dVertex
 10
92.47258053243756
 20
-129.5283583009511
 30
0.0
  0
VERTEX
  5
6D
330
6B
100
AcDbEntity
  8
_U+30EC_U+30A4_U+30E4_U+30FC 1
 62
   179
420
  2234388
370
    25
100
AcDbVertex
100
AcDb2dVertex
 10
93.47231511532257
 20
-129.5283583009511
 30
0.0
  0
SEQEND
  5
6E
330
6B
100
AcDbEntity
  8
_U+30EC_U+30A4_U+30E4_U+30FC 1
 62
   179
420
  2234388
370
    25
  0
POLYLINE
  5
6F
330
1F
100
AcDbEntity
  8
_U+30EC_U+30A4_U+30E4_U+30FC 1
 62
   179
420
  2234388
370
    25
100
AcDb2dPolyline
 66
     1
 10
0.0
 20
0.0
 30
0.0
  0
VERTEX
  5
70
330
6F
100
AcDbEntity
  8
_U+30EC_U+30A4_U+30E4_U+30FC 1
 62
   179
420
  2234388
370
    25
100
AcDbVertex
100
AcDb2dVertex
 10
92.47258053243756
 20
-137.028343299076
 30
0.0
  0
VERTEX
  5
71
330
6F
100
AcDbEntity
  8
_U+30EC_U+30A4_U+30E4_U+30FC 1
 62
   179
420
  2234388
370
    25
100
AcDbVertex
100
AcDb2dVertex
 10
92.97211386564575
 20
-137.028343299076
 30
0.0
  0
SEQEND
  5
72
330
6F
100
AcDbEntity
  8
_U+30EC_U+30A4_U+30E4_U+30FC 1
 62
   179
420
  2234388
370
    25
  0
SPLINE
  5
73
330
1F
100
AcDbEntity
  8
_U+30EC_U+30A4_U+30E4_U+30FC 1
 62
   179
420
  2234388
370
     9
100
AcDbSpline
210
0.0
220
0.0
230
1.0
 70
    11
 71
     3
 72
    17
 73
    13
 74
     0
 42
0.0000000001
 43
0.0000000001
 12
1.0
 22
0.0
 32
0.0
 13
1.0
 23
0.0
 33
0.0
 40
0.0
 40
0.0
 40
0.0
 40
0.0
 40
1.0
 40
1.0
 40
1.0
 40
2.0
 40
2.0
 40
2.0
 40
3.0
 40
3.0
 40
3.0
 40
4.0
 40
4.0
 40
4.0
 40
4.0
 10
90.57241130041639
 20
-122.5282594138124
 30
0.0
 10
90.57241130041639
 20
-122.4728027471597
 30
0.0
 10
90.52764380155851
 20
-122.4283527471707
 30
0.0
 10
90.47250463629855
 20
-122.4283527471707
 30
0.0
 10
90.4172243599311
 20
-122.4283527471707
 30
0.0
 10
90.37242158329633
 20
-122.4728027471597
 30
0.0
 10
90.37242158329633
 20
-122.5282594138124
 30
0.0
 10
90.37242158329633
 20
-122.5833985804651
 30
0.0
 10
90.4172243599311
 20
-122.628166080454
 30
0.0
 10
90.47250463629855
 20
-122.628166080454
 30
0.0
 10
90.52764380155851
 20
-122.628166080454
 30
0.0
 10
90.57241130041639
 20
-122.5833985804651
 30
0.0
 10
90.57241130041639
 20
-122.5282594138124
 30
0.0
  0
SPLINE
  5
74
330
1F
100
AcDbEntity
  8
_U+30EC_U+30A4_U+30E4_U+30FC 1
 62
   179
420
  2234388
370
     9
100
AcDbSpline
210
0.0
220
0.0
230
1.0
 70
    11
 71
     3
 72
    17
 73
    13
 74
     0
 42
0.0000000001
 43
0.0000000001
 12
1.0
 22
0.0
 32
0.0
 13
1.0
 23
0.0
 33
0.0
 40
0.0
 40
0.0
 40
0.0
 40
0.0
 40
1.0
 40
1.0
 40
1.0
 40
2.0
 40
2.0
 40
2.0
 40
3.0
 40
3.0
 40
3.0
 40
4.0
 40
4.0
 40
4.0
 40
4.0
 10
93.57222177944041
 20
-122.5282594138124
 30
0.0
 10
93.57222177944041
 20
-122.4728027471597
 30
0.0
 10
93.52745428058252
 20
-122.4283527471707
 30
0.0
 10
93.47231511532257
 20
-122.4283527471707
 30
0.0
 10
93.4172112278395
 20
-122.4283527471707
 30
0.0
 10
93.37240845120473
 20
-122.4728027471597
 30
0.0
 10
93.37240845120473
 20
-122.5282594138124
 30
0.0
 10
93.37240845120473
 20
-122.5833985804651
 30
0.0
 10
93.4172112278395
 20
-122.628166080454
 30
0.0
 10
93.47231511532257
 20
-122.628166080454
 30
0.0
 10
93.52745428058252
 20
-122.628166080454
 30
0.0
 10
93.57222177944041
 20
-122.5833985804651
 30
0.0
 10
93.57222177944041
 20
-122.5282594138124
 30
0.0
  0
SPLINE
  5
75
330
1F
100
AcDbEntity
  8
_U+30EC_U+30A4_U+30E4_U+30FC 1
 62
   179
420
  2234388
370
     9
100
AcDbSpline
210
0.0
220
0.0
230
1.0
 70
    11
 71
     3
 72
    17
 73
    13
 74
     0
 42
0.0000000001
 43
0.0000000001
 12
1.0
 22
0.0
 32
0.0
 13
1.0
 23
0.0
 33
0.0
 40
0.0
 40
0.0
 40
0.0
 40
0.0
 40
1.0
 40
1.0
 40
1.0
 40
2.0
 40
2.0
 40
2.0
 40
3.0
 40
3.0
 40
3.0
 40
4.0
 40
4.0
 40
4.0
 40
4.0
 10
97.57268886449599
 20
-126.5283713572567
 30
0.0
 10
97.57268886449599
 20
-126.472914690604
 30
0.0
 10
97.52788608672927
 20
-126.4281119128373
 30
0.0
 10
97.47207417994689
 20
-126.4281119128373
 30
0.0
 10
97.41697029246382
 20
-126.4281119128373
 30
0.0
 10
97.37216751582905
 20
-126.472914690604
 30
0.0
 10
97.37216751582905
 20
-126.5283713572567
 30
0.0
 10
97.37216751582905
 20
-126.583475246132
 30
0.0
 10
97.41697029246382
 20
-126.6282780238984
 30
0.0
 10
97.47207417994689
 20
-126.6282780238984
 30
0.0
 10
97.52788608672927
 20
-126.6282780238984
 30
0.0
 10
97.57268886449599
 20
-126.583475246132
 30
0.0
 10
97.57268886449599
 20
-126.5283713572567
 30
0.0
  0
SPLINE
  5
76
330
1F
100
AcDbEntity
  8
_U+30EC_U+30A4_U+30E4_U+30FC 1
 62
   179
420
  2234388
370
     9
100
AcDbSpline
210
0.0
220
0.0
230
1.0
 70
    11
 71
     3
 72
    17
 73
    13
 74
     0
 42
0.0000000001
 43
0.0000000001
 12
1.0
 22
0.0
 32
0.0
 13
1.0
 23
0.0
 33
0.0
 40
0.0
 40
0.0
 40
0.0
 40
0.0
 40
1.0
 40
1.0
 40
1.0
 40
2.0
 40
2.0
 40
2.0
 40
3.0
 40
3.0
 40
3.0
 40
4.0
 40
4.0
 40
4.0
 40
4.0
 10
86.5724758469077
 20
-126.5283713572567
 30
0.0
 10
86.5724758469077
 20
-126.472914690604
 30
0.0
 10
86.52770834804981
 20
-126.4281119128373
 30
0.0
 10
86.47242807168234
 20
-126.4281119128373
 30
0.0
 10
86.4172889064224
 20
-126.4281119128373
 30
0.0
 10
86.37248612978763
 20
-126.472914690604
 30
0.0
 10
86.37248612978763
 20
-126.5283713572567
 30
0.0
 10
86.37248612978763
 20
-126.583475246132
 30
0.0
 10
86.4172889064224
 20
-126.6282780238984
 30
0.0
 10
86.47242807168234
 20
-126.6282780238984
 30
0.0
 10
86.52770834804981
 20
-126.6282780238984
 30
0.0
 10
86.5724758469077
 20
-126.583475246132
 30
0.0
 10
86.5724758469077
 20
-126.5283713572567
 30
0.0
  0
SPLINE
  5
77
330
1F
100
AcDbEntity
  8
_U+30EC_U+30A4_U+30E4_U+30FC 1
 62
   179
420
  2234388
370
     9
100
AcDbSpline
210
0.0
220
0.0
230
1.0
 70
    11
 71
     3
 72
    17
 73
    13
 74
     0
 42
0.0000000001
 43
0.0000000001
 12
1.0
 22
0.0
 32
0.0
 13
1.0
 23
0.0
 33
0.0
 40
0.0
 40
0.0
 40
0.0
 40
0.0
 40
1.0
 40
1.0
 40
1.0
 40
2.0
 40
2.0
 40
2.0
 40
3.0
 40
3.0
 40
3.0
 40
4.0
 40
4.0
 40
4.0
 40
4.0
 10
86.5724758469077
 20
-129.5283583009511
 30
0.0
 10
86.5724758469077
 20
-129.4729016342984
 30
0.0
 10
86.52770834804981
 20
-129.4280988565316
 30
0.0
 10
86.47242807168234
 20
-129.4280988565316
 30
0.0
 10
86.4172889064224
 20
-129.4280988565316
 30
0.0
 10
86.37248612978763
 20
-129.4729016342984
 30
0.0
 10
86.37248612978763
 20
-129.5283583009511
 30
0.0
 10
86.37248612978763
 20
-129.5834621898266
 30
0.0
 10
86.4172889064224
 20
-129.6282649675927
 30
0.0
 10
86.47242807168234
 20
-129.6282649675927
 30
0.0
 10
86.52770834804981
 20
-129.6282649675927
 30
0.0
 10
86.5724758469077
 20
-129.5834621898266
 30
0.0
 10
86.5724758469077
 20
-129.5283583009511
 30
0.0
  0
SPLINE
  5
78
330
1F
100
AcDbEntity
  8
_U+30EC_U+30A4_U+30E4_U+30FC 1
 62
   179
420
  2234388
370
     9
100
AcDbSpline
210
0.0
220
0.0
230
1.0
 70
    11
 71
     3
 72
    17
 73
    13
 74
     0
 42
0.0000000001
 43
0.0000000001
 12
1.0
 22
0.0
 32
0.0
 13
1.0
 23
0.0
 33
0.0
 40
0.0
 40
0.0
 40
0.0
 40
0.0
 40
1.0
 40
1.0
 40
1.0
 40
2.0
 40
2.0
 40
2.0
 40
3.0
 40
3.0
 40
3.0
 40
4.0
 40
4.0
 40
4.0
 40
4.0
 10
97.57268886449599
 20
-138.5283191320347
 30
0.0
 10
97.57268886449599
 20
-138.4728624653821
 30
0.0
 10
97.52788608672927
 20
-138.4280596876153
 30
0.0
 10
97.47207417994689
 20
-138.4280596876153
 30
0.0
 10
97.41697029246382
 20
-138.4280596876153
 30
0.0
 10
97.37216751582905
 20
-138.4728624653821
 30
0.0
 10
97.37216751582905
 20
-138.5283191320347
 30
0.0
 10
97.37216751582905
 20
-138.5834582986872
 30
0.0
 10
97.41697029246382
 20
-138.6282257986764
 30
0.0
 10
97.47207417994689
 20
-138.6282257986764
 30
0.0
 10
97.52788608672927
 20
-138.6282257986764
 30
0.0
 10
97.57268886449599
 20
-138.5834582986872
 30
0.0
 10
97.57268886449599
 20
-138.5283191320347
 30
0.0
  0
POLYLINE
  5
79
330
1F
100
AcDbEntity
  8
_U+30EC_U+30A4_U+30E4_U+30FC 1
 62
   179
420
  2234388
370
     9
100
AcDb2dPolyline
 66
     1
 10
0.0
 20
0.0
 30
0.0
  0
VERTEX
  5
7A
330
79
100
AcDbEntity
  8
_U+30EC_U+30A4_U+30E4_U+30FC 1
 62
   179
420
  2234388
370
     9
100
AcDbVertex
100
AcDb2dVertex
 10
90.47250463629855
 20
-122.5282594138124
 30
0.0
  0
VERTEX
  5
7B
330
79
100
AcDbEntity
  8
_U+30EC_U+30A4_U+30E4_U+30FC 1
 62
   179
420
  2234388
370
     9
100
AcDbVertex
100
AcDb2dVertex
 10
93.47231511532257
 20
-122.5282594138124
 30
0.0
  0
SEQEND
  5
7C
330
79
100
AcDbEntity
  8
_U+30EC_U+30A4_U+30E4_U+30FC 1
 62
   179
420
  2234388
370
     9
  0
POLYLINE
  5
7D
330
1F
100
AcDbEntity
  8
_U+30EC_U+30A4_U+30E4_U+30FC 1
 62
   179
420
  2234388
370
     9
100
AcDb2dPolyline
 66
     1
 10
0.0
 20
0.0
 30
0.0
  0
VERTEX
  5
7E
330
7D
100
AcDbEntity
  8
_U+30EC_U+30A4_U+30E4_U+30FC 1
 62
   179
420
  2234388
370
     9
100
AcDbVertex
100
AcDb2dVertex
 10
90.47250463629855
 20
-123.9883008023364
 30
0.0
  0
VERTEX
  5
7F
330
7D
100
AcDbEntity
  8
_U+30EC_U+30A4_U+30E4_U+30FC 1
 62
   179
420
  2234388
370
     9
100
AcDbVertex
100
AcDb2dVertex
 10
90.47250463629855
 20
-121.5281696918402
 30
0.0
  0
SEQEND
  5
80
330
7D
100
AcDbEntity
  8
_U+30EC_U+30A4_U+30E4_U+30FC 1
 62
   179
420
  2234388
370
     9
  0
POLYLINE
  5
81
330
1F
100
AcDbEntity
  8
_U+30EC_U+30A4_U+30E4_U+30FC 1
 62
   179
420
  2234388
370
     9
100
AcDb2dPolyline
 66
     1
 10
0.0
 20
0.0
 30
0.0
  0
VERTEX
  5
82
330
81
100
AcDbEntity
  8
_U+30EC_U+30A4_U+30E4_U+30FC 1
 62
   179
420
  2234388
370
     9
100
AcDbVertex
100
AcDb2dVertex
 10
93.47231511532257
 20
-123.9883008023364
 30
0.0
  0
VERTEX
  5
83
330
81
100
AcDbEntity
  8
_U+30EC_U+30A4_U+30E4_U+30FC 1
 62
   179
420
  2234388
370
     9
100
AcDbVertex
100
AcDb2dVertex
 10
93.47231511532257
 20
-121.5281696918402
 30
0.0
  0
SEQEND
  5
84
330
81
100
AcDbEntity
  8
_U+30EC_U+30A4_U+30E4_U+30FC 1
 62
   179
420
  2234388
370
     9
  0
INSERT
  5
86
330
1F
100
AcDbEntity
  8
_U+30EC_U+30A4_U+30E4_U+30FC 1
100
AcDbBlockReference
  2
block 2
 10
0.0
 20
0.0
 30
0.0
  0
SPLINE
  5
8B
330
1F
100
AcDbEntity
  8
_U+30EC_U+30A4_U+30E4_U+30FC 1
 62
   179
420
  2234388
370
    25
100
AcDbSpline
210
0.0
220
0.0
230
1.0
 70
    11
 71
     3
 72
    17
 73
    13
 74
     0
 42
0.0000000001
 43
0.0000000001
 12
1.0
 22
0.0
 32
0.0
 13
1.0
 23
0.0
 33
0.0
 40
0.0
 40
0.0
 40
0.0
 40
0.0
 40
1.0
 40
1.0
 40
1.0
 40
2.0
 40
2.0
 40
2.0
 40
3.0
 40
3.0
 40
3.0
 40
4.0
 40
4.0
 40
4.0
 40
4.0
 10
90.5078176909532
 20
-126.5283713572567
 30
0.0
 10
90.5078176909532
 20
-126.5476683016965
 30
0.0
 10
90.49197796913508
 20
-126.5635080239148
 30
0.0
 10
90.47250463629855
 20
-126.5635080239148
 30
0.0
 10
90.45303130346203
 20
-126.5635080239148
 30
0.0
 10
90.43719158164392
 20
-126.5476683016965
 30
0.0
 10
90.43719158164392
 20
-126.5283713572567
 30
0.0
 10
90.43719158164392
 20
-126.5087216350394
 30
0.0
 10
90.45303130346203
 20
-126.4928819128212
 30
0.0
 10
90.47250463629855
 20
-126.4928819128212
 30
0.0
 10
90.49197796913508
 20
-126.4928819128212
 30
0.0
 10
90.5078176909532
 20
-126.5087216350394
 30
0.0
 10
90.5078176909532
 20
-126.5283713572567
 30
0.0
  0
SPLINE
  5
8C
330
1F
100
AcDbEntity
  8
_U+30EC_U+30A4_U+30E4_U+30FC 1
 62
   179
420
  2234388
370
    25
100
AcDbSpline
210
0.0
220
0.0
230
1.0
 70
    11
 71
     3
 72
    17
 73
    13
 74
     0
 42
0.0000000001
 43
0.0000000001
 12
1.0
 22
0.0
 32
0.0
 13
1.0
 23
0.0
 33
0.0
 40
0.0
 40
0.0
 40
0.0
 40
0.0
 40
1.0
 40
1.0
 40
1.0
 40
2.0
 40
2.0
 40
2.0
 40
3.0
 40
3.0
 40
3.0
 40
4.0
 40
4.0
 40
4.0
 40
4.0
 10
93.50745178109283
 20
-126.5283713572567
 30
0.0
 10
93.50745178109283
 20
-126.5476683016965
 30
0.0
 10
93.49161205927471
 20
-126.5635080239148
 30
0.0
 10
93.47231511532257
 20
-126.5635080239148
 30
0.0
 10
93.4530534491473
 20
-126.5635080239148
 30
0.0
 10
93.43717844955232
 20
-126.5476683016965
 30
0.0
 10
93.43717844955232
 20
-126.5283713572567
 30
0.0
 10
93.43717844955232
 20
-126.5087216350394
 30
0.0
 10
93.4530534491473
 20
-126.4928819128212
 30
0.0
 10
93.47231511532257
 20
-126.4928819128212
 30
0.0
 10
93.49161205927471
 20
-126.4928819128212
 30
0.0
 10
93.50745178109283
 20
-126.5087216350394
 30
0.0
 10
93.50745178109283
 20
-126.5283713572567
 30
0.0
  0
SPLINE
  5
8D
330
1F
100
AcDbEntity
  8
_U+30EC_U+30A4_U+30E4_U+30FC 1
 62
   179
420
  2234388
370
     9
100
AcDbSpline
210
0.0
220
0.0
230
1.0
 70
    11
 71
     3
 72
    17
 73
    13
 74
     0
 42
0.0000000001
 43
0.0000000001
 12
1.0
 22
0.0
 32
0.0
 13
1.0
 23
0.0
 33
0.0
 40
0.0
 40
0.0
 40
0.0
 40
0.0
 40
1.0
 40
1.0
 40
1.0
 40
2.0
 40
2.0
 40
2.0
 40
3.0
 40
3.0
 40
3.0
 40
4.0
 40
4.0
 40
4.0
 40
4.0
 10
93.50745178109283
 20
-122.5282594138124
 30
0.0
 10
93.50745178109283
 20
-122.5475563582519
 30
0.0
 10
93.49161205927471
 20
-122.5633960804704
 30
0.0
 10
93.47231511532257
 20
-122.5633960804704
 30
0.0
 10
93.4530534491473
 20
-122.5633960804704
 30
0.0
 10
93.43717844955232
 20
-122.5475563582519
 30
0.0
 10
93.43717844955232
 20
-122.5282594138124
 30
0.0
 10
93.43717844955232
 20
-122.508644969373
 30
0.0
 10
93.4530534491473
 20
-122.4927699693769
 30
0.0
 10
93.47231511532257
 20
-122.4927699693769
 30
0.0
 10
93.49161205927471
 20
-122.4927699693769
 30
0.0
 10
93.50745178109283
 20
-122.508644969373
 30
0.0
 10
93.50745178109283
 20
-122.5282594138124
 30
0.0
  0
POLYLINE
  5
8E
330
1F
100
AcDbEntity
  8
_U+30EC_U+30A4_U+30E4_U+30FC 1
 62
   179
420
  2234388
370
     9
100
AcDb2dPolyline
 66
     1
 10
0.0
 20
0.0
 30
0.0
  0
VERTEX
  5
8F
330
8E
100
AcDbEntity
  8
_U+30EC_U+30A4_U+30E4_U+30FC 1
 62
   179
420
  2234388
370
     9
100
AcDbVertex
100
AcDb2dVertex
 10
86.47242807168234
 20
-126.5283713572567
 30
0.0
  0
VERTEX
  5
90
330
8E
100
AcDbEntity
  8
_U+30EC_U+30A4_U+30E4_U+30FC 1
 62
   179
420
  2234388
370
     9
100
AcDbVertex
100
AcDb2dVertex
 10
86.47242807168234
 20
-129.5283583009511
 30
0.0
  0
SEQEND
  5
91
330
8E
100
AcDbEntity
  8
_U+30EC_U+30A4_U+30E4_U+30FC 1
 62
   179
420
  2234388
370
     9
  0
POLYLINE
  5
92
330
1F
100
AcDbEntity
  8
_U+30EC_U+30A4_U+30E4_U+30FC 1
 62
   179
420
  2234388
370
     9
100
AcDb2dPolyline
 66
     1
 10
0.0
 20
0.0
 30
0.0
  0
VERTEX
  5
93
330
92
100
AcDbEntity
  8
_U+30EC_U+30A4_U+30E4_U+30FC 1
 62
   179
420
  2234388
370
     9
100
AcDbVertex
100
AcDb2dVertex
 10
87.9324341455456
 20
-126.5283713572567
 30
0.0
  0
VERTEX
  5
94
330
92
100
AcDbEntity
  8
_U+30EC_U+30A4_U+30E4_U+30FC 1
 62
   179
420
  2234388
370
     9
100
AcDbVertex
100
AcDb2dVertex
 10
85.47247948608205
 20
-126.5283713572567
 30
0.0
  0
SEQEND
  5
95
330
92
100
AcDbEntity
  8
_U+30EC_U+30A4_U+30E4_U+30FC 1
 62
   179
420
  2234388
370
     9
  0
POLYLINE
  5
96
330
1F
100
AcDbEntity
  8
_U+30EC_U+30A4_U+30E4_U+30FC 1
 62
   179
420
  2234388
370
     9
100
AcDb2dPolyline
 66
     1
 10
0.0
 20
0.0
 30
0.0
  0
VERTEX
  5
97
330
96
100
AcDbEntity
  8
_U+30EC_U+30A4_U+30E4_U+30FC 1
 62
   179
420
  2234388
370
     9
100
AcDbVertex
100
AcDb2dVertex
 10
87.9324341455456
 20
-129.5283583009511
 30
0.0
  0
VERTEX
  5
98
330
96
100
AcDbEntity
  8
_U+30EC_U+30A4_U+30E4_U+30FC 1
 62
   179
420
  2234388
370
     9
100
AcDbVertex
100
AcDb2dVertex
 10
85.47247948608205
 20
-129.5283583009511
 30
0.0
  0
SEQEND
  5
99
330
96
100
AcDbEntity
  8
_U+30EC_U+30A4_U+30E4_U+30FC 1
 62
   179
420
  2234388
370
     9
  0
INSERT
  5
9B
330
1F
100
AcDbEntity
  8
_U+30EC_U+30A4_U+30E4_U+30FC 1
100
AcDbBlockReference
  2
block 3
 10
0.0
 20
0.0
 30
0.0
  0
SPLINE
  5
A0
330
1F
100
AcDbEntity
  8
_U+30EC_U+30A4_U+30E4_U+30FC 1
 62
   179
420
  2234388
370
    25
100
AcDbSpline
210
0.0
220
0.0
230
1.0
 70
    11
 71
     3
 72
    17
 73
    13
 74
     0
 42
0.0000000001
 43
0.0000000001
 12
1.0
 22
0.0
 32
0.0
 13
1.0
 23
0.0
 33
0.0
 40
0.0
 40
0.0
 40
0.0
 40
0.0
 40
1.0
 40
1.0
 40
1.0
 40
2.0
 40
2.0
 40
2.0
 40
3.0
 40
3.0
 40
3.0
 40
4.0
 40
4.0
 40
4.0
 40
4.0
 10
90.5078176909532
 20
-126.5283713572567
 30
0.0
 10
90.5078176909532
 20
-126.5476683016965
 30
0.0
 10
90.49197796913508
 20
-126.5635080239148
 30
0.0
 10
90.47250463629855
 20
-126.5635080239148
 30
0.0
 10
90.45303130346203
 20
-126.5635080239148
 30
0.0
 10
90.43719158164392
 20
-126.5476683016965
 30
0.0
 10
90.43719158164392
 20
-126.5283713572567
 30
0.0
 10
90.43719158164392
 20
-126.5087216350394
 30
0.0
 10
90.45303130346203
 20
-126.4928819128212
 30
0.0
 10
90.47250463629855
 20
-126.4928819128212
 30
0.0
 10
90.49197796913508
 20
-126.4928819128212
 30
0.0
 10
90.5078176909532
 20
-126.5087216350394
 30
0.0
 10
90.5078176909532
 20
-126.5283713572567
 30
0.0
  0
SPLINE
  5
A1
330
1F
100
AcDbEntity
  8
_U+30EC_U+30A4_U+30E4_U+30FC 1
 62
   179
420
  2234388
370
    25
100
AcDbSpline
210
0.0
220
0.0
230
1.0
 70
    11
 71
     3
 72
    17
 73
    13
 74
     0
 42
0.0000000001
 43
0.0000000001
 12
1.0
 22
0.0
 32
0.0
 13
1.0
 23
0.0
 33
0.0
 40
0.0
 40
0.0
 40
0.0
 40
0.0
 40
1.0
 40
1.0
 40
1.0
 40
2.0
 40
2.0
 40
2.0
 40
3.0
 40
3.0
 40
3.0
 40
4.0
 40
4.0
 40
4.0
 40
4.0
 10
90.5078176909532
 20
-129.5283583009511
 30
0.0
 10
90.5078176909532
 20
-129.5476552453909
 30
0.0
 10
90.49197796913508
 20
-129.5634949676094
 30
0.0
 10
90.47250463629855
 20
-129.5634949676094
 30
0.0
 10
90.45303130346203
 20
-129.5634949676094
 30
0.0
 10
90.43719158164392
 20
-129.5476552453909
 30
0.0
 10
90.43719158164392
 20
-129.5283583009511
 30
0.0
 10
90.43719158164392
 20
-129.5087085787341
 30
0.0
 10
90.45303130346203
 20
-129.4928688565156
 30
0.0
 10
90.47250463629855
 20
-129.4928688565156
 30
0.0
 10
90.49197796913508
 20
-129.4928688565156
 30
0.0
 10
90.5078176909532
 20
-129.5087085787341
 30
0.0
 10
90.5078176909532
 20
-129.5283583009511
 30
0.0
  0
SPLINE
  5
A2
330
1F
100
AcDbEntity
  8
_U+30EC_U+30A4_U+30E4_U+30FC 1
 62
   179
420
  2234388
370
     9
100
AcDbSpline
210
0.0
220
0.0
230
1.0
 70
    11
 71
     3
 72
    17
 73
    13
 74
     0
 42
0.0000000001
 43
0.0000000001
 12
1.0
 22
0.0
 32
0.0
 13
1.0
 23
0.0
 33
0.0
 40
0.0
 40
0.0
 40
0.0
 40
0.0
 40
1.0
 40
1.0
 40
1.0
 40
2.0
 40
2.0
 40
2.0
 40
3.0
 40
3.0
 40
3.0
 40
4.0
 40
4.0
 40
4.0
 40
4.0
 10
86.507741126337
 20
-129.5283583009511
 30
0.0
 10
86.507741126337
 20
-129.5476552453909
 30
0.0
 10
86.491866126742
 20
-129.5634949676094
 30
0.0
 10
86.47242807168234
 20
-129.5634949676094
 30
0.0
 10
86.45295473884582
 20
-129.5634949676094
 30
0.0
 10
86.43725831172411
 20
-129.5476552453909
 30
0.0
 10
86.43725831172411
 20
-129.5283583009511
 30
0.0
 10
86.43725831172411
 20
-129.5087085787341
 30
0.0
 10
86.45295473884582
 20
-129.4928688565156
 30
0.0
 10
86.47242807168234
 20
-129.4928688565156
 30
0.0
 10
86.491866126742
 20
-129.4928688565156
 30
0.0
 10
86.507741126337
 20
-129.5087085787341
 30
0.0
 10
86.507741126337
 20
-129.5283583009511
 30
0.0
  0
POLYLINE
  5
A3
330
1F
100
AcDbEntity
  8
_U+30EC_U+30A4_U+30E4_U+30FC 1
 62
   179
420
  2234388
370
     9
100
AcDb2dPolyline
 66
     1
 10
0.0
 20
0.0
 30
0.0
  0
VERTEX
  5
A4
330
A3
100
AcDbEntity
  8
_U+30EC_U+30A4_U+30E4_U+30FC 1
 62
   179
420
  2234388
370
     9
100
AcDbVertex
100
AcDb2dVertex
 10
97.47207417994689
 20
-126.5283713572567
 30
0.0
  0
VERTEX
  5
A5
330
A3
100
AcDbEntity
  8
_U+30EC_U+30A4_U+30E4_U+30FC 1
 62
   179
420
  2234388
370
     9
100
AcDbVertex
100
AcDb2dVertex
 10
97.47207417994689
 20
-138.5283191320347
 30
0.0
  0
SEQEND
  5
A6
330
A3
100
AcDbEntity
  8
_U+30EC_U+30A4_U+30E4_U+30FC 1
 62
   179
420
  2234388
370
     9
  0
POLYLINE
  5
A7
330
1F
100
AcDbEntity
  8
_U+30EC_U+30A4_U+30E4_U+30FC 1
 62
   179
420
  2234388
370
     9
100
AcDb2dPolyline
 66
     1
 10
0.0
 20
0.0
 30
0.0
  0
VERTEX
  5
A8
330
A7
100
AcDbEntity
  8
_U+30EC_U+30A4_U+30E4_U+30FC 1
 62
   179
420
  2234388
370
     9
100
AcDbVertex
100
AcDb2dVertex
 10
96.01206810608363
 20
-126.5283713572567
 30
0.0
  0
VERTEX
  5
A9
330
A7
100
AcDbEntity
  8
_U+30EC_U+30A4_U+30E4_U+30FC 1
 62
   179
420
  2234388
370
     9
100
AcDbVertex
100
AcDb2dVertex
 10
98.47255193220035
 20
-126.5283713572567
 30
0.0
  0
SEQEND
  5
AA
330
A7
100
AcDbEntity
  8
_U+30EC_U+30A4_U+30E4_U+30FC 1
 62
   179
420
  2234388
370
     9
  0
POLYLINE
  5
AB
330
1F
100
AcDbEntity
  8
_U+30EC_U+30A4_U+30E4_U+30FC 1
 62
   179
420
  2234388
370
     9
100
AcDb2dPolyline
 66
     1
 10
0.0
 20
0.0
 30
0.0
  0
VERTEX
  5
AC
330
AB
100
AcDbEntity
  8
_U+30EC_U+30A4_U+30E4_U+30FC 1
 62
   179
420
  2234388
370
     9
100
AcDbVertex
100
AcDb2dVertex
 10
95.51249950771758
 20
-138.5283191320347
 30
0.0
  0
VERTEX
  5
AD
330
AB
100
AcDbEntity
  8
_U+30EC_U+30A4_U+30E4_U+30FC 1
 62
   179
420
  2234388
370
     9
100
AcDbVertex
100
AcDb2dVertex
 10
98.47255193220035
 20
-138.5283191320347
 30
0.0
  0
SEQEND
  5
AE
330
AB
100
AcDbEntity
  8
_U+30EC_U+30A4_U+30E4_U+30FC 1
 62
   179
420
  2234388
370
     9
  0
INSERT
  5
B0
330
1F
100
AcDbEntity
  8
_U+30EC_U+30A4_U+30E4_U+30FC 1
100
AcDbBlockReference
  2
block 4
 10
0.0
 20
0.0
 30
0.0
  0
SPLINE
  5
B7
330
1F
100
AcDbEntity
  8
_U+30EC_U+30A4_U+30E4_U+30FC 1
 62
   179
420
  2234388
370
    25
100
AcDbSpline
210
0.0
220
0.0
230
1.0
 70
    11
 71
     3
 72
    17
 73
    13
 74
     0
 42
0.0000000001
 43
0.0000000001
 12
1.0
 22
0.0
 32
0.0
 13
1.0
 23
0.0
 33
0.0
 40
0.0
 40
0.0
 40
0.0
 40
0.0
 40
1.0
 40
1.0
 40
1.0
 40
2.0
 40
2.0
 40
2.0
 40
3.0
 40
3.0
 40
3.0
 40
4.0
 40
4.0
 40
4.0
 40
4.0
 10
93.50745178109283
 20
-126.5283713572567
 30
0.0
 10
93.50745178109283
 20
-126.5476683016965
 30
0.0
 10
93.49161205927471
 20
-126.5635080239148
 30
0.0
 10
93.47231511532257
 20
-126.5635080239148
 30
0.0
 10
93.4530534491473
 20
-126.5635080239148
 30
0.0
 10
93.43717844955232
 20
-126.5476683016965
 30
0.0
 10
93.43717844955232
 20
-126.5283713572567
 30
0.0
 10
93.43717844955232
 20
-126.5087216350394
 30
0.0
 10
93.4530534491473
 20
-126.4928819128212
 30
0.0
 10
93.47231511532257
 20
-126.4928819128212
 30
0.0
 10
93.49161205927471
 20
-126.4928819128212
 30
0.0
 10
93.50745178109283
 20
-126.5087216350394
 30
0.0
 10
93.50745178109283
 20
-126.5283713572567
 30
0.0
  0
SPLINE
  5
B8
330
1F
100
AcDbEntity
  8
_U+30EC_U+30A4_U+30E4_U+30FC 1
 62
   179
420
  2234388
370
    25
100
AcDbSpline
210
0.0
220
0.0
230
1.0
 70
    11
 71
     3
 72
    17
 73
    13
 74
     0
 42
0.0000000001
 43
0.0000000001
 12
1.0
 22
0.0
 32
0.0
 13
1.0
 23
0.0
 33
0.0
 40
0.0
 40
0.0
 40
0.0
 40
0.0
 40
1.0
 40
1.0
 40
1.0
 40
2.0
 40
2.0
 40
2.0
 40
3.0
 40
3.0
 40
3.0
 40
4.0
 40
4.0
 40
4.0
 40
4.0
 10
93.00791846050365
 20
-138.5283191320347
 30
0.0
 10
93.00791846050365
 20
-138.5476160764739
 30
0.0
 10
92.99207873868554
 20
-138.5634557986924
 30
0.0
 10
92.97211386564575
 20
-138.5634557986924
 30
0.0
 10
92.95281457302058
 20
-138.5634557986924
 30
0.0
 10
92.93697485120246
 20
-138.5476160764739
 30
0.0
 10
92.93697485120246
 20
-138.5283191320347
 30
0.0
 10
92.93697485120246
 20
-138.5086694098171
 30
0.0
 10
92.95281457302058
 20
-138.4928296875993
 30
0.0
 10
92.97211386564575
 20
-138.4928296875993
 30
0.0
 10
92.99207873868554
 20
-138.4928296875993
 30
0.0
 10
93.00791846050365
 20
-138.5086694098171
 30
0.0
 10
93.00791846050365
 20
-138.5283191320347
 30
0.0
  0
SPLINE
  5
B9
330
1F
100
AcDbEntity
  8
_U+30EC_U+30A4_U+30E4_U+30FC 1
 62
   179
420
  2234388
370
     9
100
AcDbSpline
210
0.0
220
0.0
230
1.0
 70
    11
 71
     3
 72
    17
 73
    13
 74
     0
 42
0.0000000001
 43
0.0000000001
 12
1.0
 22
0.0
 32
0.0
 13
1.0
 23
0.0
 33
0.0
 40
0.0
 40
0.0
 40
0.0
 40
0.0
 40
1.0
 40
1.0
 40
1.0
 40
2.0
 40
2.0
 40
2.0
 40
3.0
 40
3.0
 40
3.0
 40
4.0
 40
4.0
 40
4.0
 40
4.0
 10
97.50791640125469
 20
-138.5283191320347
 30
0.0
 10
97.50791640125469
 20
-138.5476160764739
 30
0.0
 10
97.49207667943658
 20
-138.5634557986924
 30
0.0
 10
97.47207417994689
 20
-138.5634557986924
 30
0.0
 10
97.45277723599474
 20
-138.5634557986924
 30
0.0
 10
97.43693751417663
 20
-138.5476160764739
 30
0.0
 10
97.43693751417663
 20
-138.5283191320347
 30
0.0
 10
97.43693751417663
 20
-138.5086694098171
 30
0.0
 10
97.45277723599474
 20
-138.4928296875993
 30
0.0
 10
97.47207417994689
 20
-138.4928296875993
 30
0.0
 10
97.49207667943658
 20
-138.4928296875993
 30
0.0
 10
97.50791640125469
 20
-138.5086694098171
 30
0.0
 10
97.50791640125469
 20
-138.5283191320347
 30
0.0
  0
ENDSEC
  0
SECTION
  2
OBJECTS
  0
DICTIONARY
  5
C
330
0
100
AcDbDictionary
281
     1
  3
ACAD_GROUP
350
D
  3
ACAD_LAYOUT
350
1A
  3
ACAD_MATERIAL
350
3B
  3
ACAD_MLEADERSTYLE
350
BB
  3
ACAD_MLINESTYLE
350
17
  3
ACAD_PLOTSETTINGS
350
19
  3
ACAD_PLOTSTYLENAME
350
E
  3
ACAD_TABLESTYLE
350
BA
  3
ACAD_VISUALSTYLE
350
2A
  0
SUN
  5
3F
330
29
100
AcDbSun
 90
        1
290
     0
 63
     7
421
 16777215
 40
1.0
291
     1
 91
  2455826
 92
 54000000
292
     0
 70
     2
 71
   256
280
     1
  0
DICTIONARY
  5
D
102
{ACAD_REACTORS
330
C
102
}
330
C
100
AcDbDictionary
281
     1
  0
DICTIONARY
  5
1A
102
{ACAD_REACTORS
330
C
102
}
330
C
100
AcDbDictionary
281
     1
  3
Layout1
350
1E
  3
Layout2
350
26
  3
Model
350
22
  0
DICTIONARY
  5
3B
102
{ACAD_REACTORS
330
C
102
}
330
C
100
AcDbDictionary
281
     1
  3
ByBlock
350
3D
  3
ByLayer
350
3C
  3
Global
350
3E
  0
DICTIONARY
  5
BB
102
{ACAD_REACTORS
330
C
102
}
330
C
100
AcDbDictionary
281
     1
  0
DICTIONARY
  5
17
102
{ACAD_REACTORS
330
C
102
}
330
C
100
AcDbDictionary
281
     1
  3
Standard
350
18
  0
DICTIONARY
  5
19
102
{ACAD_REACTORS
330
C
102
}
330
C
100
AcDbDictionary
281
     1
  0
ACDBDICTIONARYWDFLT
  5
E
102
{ACAD_REACTORS
330
C
102
}
330
C
100
AcDbDictionary
281
     1
  3
Normal
350
F
100
AcDbDictionaryWithDefault
340
F
  0
DICTIONARY
  5
BA
102
{ACAD_REACTORS
330
C
102
}
330
C
100
AcDbDictionary
281
     1
  0
DICTIONARY
  5
2A
102
{ACAD_REACTORS
330
C
102
}
330
C
100
AcDbDictionary
281
     1
  3
2dWireframe
350
2F
  3
3D Hidden
350
31
  3
3dWireframe
350
30
  3
Basic
350
32
  3
Brighten
350
36
  3
ColorChange
350
3A
  3
Conceptual
350
34
  3
Dim
350
35
  3
Facepattern
350
39
  3
Flat
350
2B
  3
FlatWithEdges
350
2C
  3
Gouraud
350
2D
  3
GouraudWithEdges
350
2E
  3
Linepattern
350
38
  3
Realistic
350
33
  3
Thicken
350
37
  0
LAYOUT
  5
1E
102
{ACAD_REACTORS
330
1A
102
}
330
1A
100
AcDbPlotSettings
  1

  2
none_device
  4

  6

 40
0.0
 41
0.0
 42
0.0
 43
0.0
 44
0.0
 45
0.0
 46
0.0
 47
0.0
 48
0.0
 49
0.0
140
0.0
141
0.0
142
1.0
143
1.0
 70
   688
 72
     0
 73
     0
 74
     5
  7

 75
    16
 76
     0
 77
     2
 78
   300
147
1.0
148
0.0
149
0.0
100
AcDbLayout
  1
Layout1
 70
     1
 71
     1
 10
0.0
 20
0.0
 11
12.0
 21
9.0
 12
0.0
 22
0.0
 32
0.0
 14
1.000000000000000E+20
 24
1.000000000000000E+20
 34
1.000000000000000E+20
 15
-1.000000000000000E+20
 25
-1.000000000000000E+20
 35
-1.000000000000000E+20
146
0.0
 13
0.0
 23
0.0
 33
0.0
 16
1.0
 26
0.0
 36
0.0
 17
0.0
 27
1.0
 37
0.0
 76
     0
330
1B
  0
LAYOUT
  5
26
102
{ACAD_REACTORS
330
1A
102
}
330
1A
100
AcDbPlotSettings
  1

  2
none_device
  4

  6

 40
0.0
 41
0.0
 42
0.0
 43
0.0
 44
0.0
 45
0.0
 46
0.0
 47
0.0
 48
0.0
 49
0.0
140
0.0
141
0.0
142
1.0
143
1.0
 70
   688
 72
     0
 73
     0
 74
     5
  7

 75
    16
 76
     0
 77
     2
 78
   300
147
1.0
148
0.0
149
0.0
100
AcDbLayout
  1
Layout2
 70
     1
 71
     2
 10
0.0
 20
0.0
 11
0.0
 21
0.0
 12
0.0
 22
0.0
 32
0.0
 14
0.0
 24
0.0
 34
0.0
 15
0.0
 25
0.0
 35
0.0
146
0.0
 13
0.0
 23
0.0
 33
0.0
 16
1.0
 26
0.0
 36
0.0
 17
0.0
 27
1.0
 37
0.0
 76
     0
330
23
  0
LAYOUT
  5
22
102
{ACAD_REACTORS
330
1A
102
}
330
1A
100
AcDbPlotSettings
  1

  2
none_device
  4

  6

 40
0.0
 41
0.0
 42
0.0
 43
0.0
 44
0.0
 45
0.0
 46
0.0
 47
0.0
 48
0.0
 49
0.0
140
0.0
141
0.0
142
1.0
143
1.0
 70
  1712
 72
     0
 73
     0
 74
     0
  7

 75
     0
 76
     0
 77
     2
 78
   300
147
1.0
148
0.0
149
0.0
100
AcDbLayout
  1
Model
 70
     1
 71
     0
 10
0.0
 20
0.0
 11
12.0
 21
9.0
 12
0.0
 22
0.0
 32
0.0
 14
1.000000000000000E+20
 24
1.000000000000000E+20
 34
1.000000000000000E+20
 15
-1.000000000000000E+20
 25
-1.000000000000000E+20
 35
-1.000000000000000E+20
146
0.0
 13
0.0
 23
0.0
 33
0.0
 16
1.0
 26
0.0
 36
0.0
 17
0.0
 27
1.0
 37
0.0
 76
     0
330
1F
331
29
  0
MATERIAL
  5
3D
102
{ACAD_REACTORS
330
3B
102
}
330
3B
100
AcDbMaterial
  1
ByBlock
 72
     1
 94
      127
  0
MATERIAL
  5
3C
102
{ACAD_REACTORS
330
3B
102
}
330
3B
100
AcDbMaterial
  1
ByLayer
 72
     1
 94
      127
  0
MATERIAL
  5
3E
102
{ACAD_REACTORS
330
3B
102
}
330
3B
100
AcDbMaterial
  1
Global
 72
     1
 94
      127
  0
MLINESTYLE
  5
18
102
{ACAD_REACTORS
330
17
102
}
330
17
100
AcDbMlineStyle
  2
Standard
 70
     0
  3

 62
   256
 51
90.0
 52
90.0
 71
     2
 49
0.5
 62
   256
  6
BYLAYER
 49
-0.5
 62
   256
  6
BYLAYER
  0
ACDBPLACEHOLDER
  5
F
102
{ACAD_REACTORS
330
E
102
}
330
E
  0
VISUALSTYLE
  5
2F
102
{ACAD_REACTORS
330
2A
102
}
330
2A
100
AcDbVisualStyle
  2
2dWireframe
 70
     4
177
     2
291
     0
 71
     0
176
     1
 72
     2
176
     1
 73
     0
176
     1
 90
        0
176
     1
 40
-0.6
176
     1
 41
-30.0
176
     1
 62
     5
 63
     7
421
 16777215
176
     1
 74
     1
176
     1
 91
        4
176
     1
 64
     7
176
     1
 65
   257
176
     1
 75
     1
176
     1
175
     1
176
     1
 42
1.0
176
     1
 92
        0
176
     1
 66
   257
176
     1
 43
1.0
176
     1
 76
     1
176
     1
 77
     6
176
     1
 78
     2
176
     1
 67
     7
176
     1
 79
     5
176
     1
170
     0
176
     1
171
     0
176
     1
290
     0
176
     1
 93
        1
176
     1
 44
0.0
176
     1
173
     0
176
     1
  0
VISUALSTYLE
  5
31
102
{ACAD_REACTORS
330
2A
102
}
330
2A
100
AcDbVisualStyle
  2
3D Hidden
 70
     6
177
     2
291
     0
 71
     1
176
     1
 72
     2
176
     1
 73
     2
176
     1
 90
        0
176
     1
 40
-0.6
176
     1
 41
-30.0
176
     1
 62
     5
 63
     7
421
 16777215
176
     1
 74
     2
176
     1
 91
        2
176
     1
 64
     7
176
     1
 65
   257
176
     1
 75
     2
176
     1
175
     1
176
     1
 42
40.0
176
     1
 92
        0
176
     1
 66
   257
176
     1
 43
1.0
176
     1
 76
     1
176
     1
 77
     6
176
     1
 78
     2
176
     1
 67
     7
176
     1
 79
     3
176
     1
170
     0
176
     1
171
     0
176
     1
290
     0
176
     1
 93
        1
176
     1
 44
0.0
176
     1
173
     0
176
     1
  0
VISUALSTYLE
  5
30
102
{ACAD_REACTORS
330
2A
102
}
330
2A
100
AcDbVisualStyle
  2
3dWireframe
 70
     5
177
     2
291
     0
 71
     0
176
     1
 72
     2
176
     1
 73
     0
176
     1
 90
        0
176
     1
 40
-0.6
176
     1
 41
-30.0
176
     1
 62
     5
 63
     7
421
 16777215
176
     1
 74
     1
176
     1
 91
        4
176
     1
 64
     7
176
     1
 65
   257
176
     1
 75
     1
176
     1
175
     1
176
     1
 42
1.0
176
     1
 92
        0
176
     1
 66
   257
176
     1
 43
1.0
176
     1
 76
     1
176
     1
 77
     6
176
     1
 78
     2
176
     1
 67
     7
176
     1
 79
     5
176
     1
170
     0
176
     1
171
     0
176
     1
290
     0
176
     1
 93
        1
176
     1
 44
0.0
176
     1
173
     0
176
     1
  0
VISUALSTYLE
  5
32
102
{ACAD_REACTORS
330
2A
102
}
330
2A
100
AcDbVisualStyle
  2
Basic
 70
     7
177
     2
291
     1
 71
     1
176
     1
 72
     0
176
     1
 73
     1
176
     1
 90
        0
176
     1
 40
-0.6
176
     1
 41
-30.0
176
     1
 62
     5
 63
     7
421
 16777215
176
     1
 74
     0
176
     1
 91
        4
176
     1
 64
     7
176
     1
 65
   257
176
     1
 75
     1
176
     1
175
     1
176
     1
 42
1.0
176
     1
 92
        8
176
     1
 66
     7
176
     1
 43
1.0
176
     1
 76
     1
176
     1
 77
     6
176
     1
 78
     2
176
     1
 67
     7
176
     1
 79
     5
176
     1
170
     0
176
     1
171
     0
176
     1
290
     0
176
     1
 93
        1
176
     1
 44
0.0
176
     1
173
     0
176
     1
  0
VISUALSTYLE
  5
36
102
{ACAD_REACTORS
330
2A
102
}
330
2A
100
AcDbVisualStyle
  2
Brighten
 70
    12
177
     2
291
     1
 71
     2
176
     1
 72
     2
176
     1
 73
     0
176
     1
 90
        0
176
     1
 40
-0.6
176
     1
 41
-30.0
176
     1
 62
     5
 63
     7
421
 16777215
176
     1
 74
     1
176
     1
 91
        4
176
     1
 64
     7
176
     1
 65
   257
176
     1
 75
     1
176
     1
175
     1
176
     1
 42
1.0
176
     1
 92
        8
176
     1
 66
     7
176
     1
 43
1.0
176
     1
 76
     1
176
     1
 77
     6
176
     1
 78
     2
176
     1
 67
     7
176
     1
 79
     5
176
     1
170
     0
176
     1
171
     0
176
     1
290
     0
176
     1
 93
        1
176
     1
 44
50.0
176
     1
173
     0
176
     1
  0
VISUALSTYLE
  5
3A
102
{ACAD_REACTORS
330
2A
102
}
330
2A
100
AcDbVisualStyle
  2
ColorChange
 70
    16
177
     2
291
     1
 71
     2
176
     1
 72
     2
176
     1
 73
     3
176
     1
 90
        0
176
     1
 40
-0.6
176
     1
 41
-30.0
176
     1
 62
     5
 63
     8
421
  8421504
176
     1
 74
     1
176
     1
 91
        4
176
     1
 64
     7
176
     1
 65
   257
176
     1
 75
     1
176
     1
175
     1
176
     1
 42
1.0
176
     1
 92
        8
176
     1
 66
     8
424
  8421504
176
     1
 43
1.0
176
     1
 76
     1
176
     1
 77
     6
176
     1
 78
     2
176
     1
 67
     7
176
     1
 79
     5
176
     1
170
     0
176
     1
171
     0
176
     1
290
     0
176
     1
 93
        1
176
     1
 44
0.0
176
     1
173
     0
176
     1
  0
VISUALSTYLE
  5
34
102
{ACAD_REACTORS
330
2A
102
}
330
2A
100
AcDbVisualStyle
  2
Conceptual
 70
     9
177
     2
291
     0
 71
     3
176
     1
 72
     2
176
     1
 73
     0
176
     1
 90
        0
176
     1
 40
-0.6
176
     1
 41
-30.0
176
     1
 62
     5
 63
     7
421
 16777215
176
     1
 74
     2
176
     1
 91
        2
176
     1
 64
     7
176
     1
 65
   257
176
     1
 75
     1
176
     1
175
     1
176
     1
 42
40.0
176
     1
 92
        8
176
     1
 66
     7
176
     1
 43
1.0
176
     1
 76
     1
176
     1
 77
     6
176
     1
 78
     2
176
     1
 67
     7
176
     1
 79
     3
176
     1
170
     0
176
     1
171
     0
176
     1
290
     0
176
     1
 93
        1
176
     1
 44
0.0
176
     1
173
     0
176
     1
  0
VISUALSTYLE
  5
35
102
{ACAD_REACTORS
330
2A
102
}
330
2A
100
AcDbVisualStyle
  2
Dim
 70
    11
177
     2
291
     1
 71
     2
176
     1
 72
     2
176
     1
 73
     0
176
     1
 90
        0
176
     1
 40
-0.6
176
     1
 41
-30.0
176
     1
 62
     5
 63
     7
421
 16777215
176
     1
 74
     1
176
     1
 91
        4
176
     1
 64
     7
176
     1
 65
   257
176
     1
 75
     1
176
     1
175
     1
176
     1
 42
1.0
176
     1
 92
        8
176
     1
 66
     7
176
     1
 43
1.0
176
     1
 76
     1
176
     1
 77
     6
176
     1
 78
     2
176
     1
 67
     7
176
     1
 79
     5
176
     1
170
     0
176
     1
171
     0
176
     1
290
     0
176
     1
 93
        1
176
     1
 44
-50.0
176
     1
173
     0
176
     1
  0
VISUALSTYLE
  5
39
102
{ACAD_REACTORS
330
2A
102
}
330
2A
100
AcDbVisualStyle
  2
Facepattern
 70
    15
177
     2
291
     1
 71
     2
176
     1
 72
     2
176
     1
 73
     0
176
     1
 90
        0
176
     1
 40
-0.6
176
     1
 41
-30.0
176
     1
 62
     5
 63
     7
421
 16777215
176
     1
 74
     1
176
     1
 91
        4
176
     1
 64
     7
176
     1
 65
   257
176
     1
 75
     1
176
     1
175
     1
176
     1
 42
1.0
176
     1
 92
        8
176
     1
 66
     7
176
     1
 43
1.0
176
     1
 76
     1
176
     1
 77
     6
176
     1
 78
     2
176
     1
 67
     7
176
     1
 79
     5
176
     1
170
     0
176
     1
171
     0
176
     1
290
     0
176
     1
 93
        1
176
     1
 44
0.0
176
     1
173
     0
176
     1
  0
VISUALSTYLE
  5
2B
102
{ACAD_REACTORS
330
2A
102
}
330
2A
100
AcDbVisualStyle
  2
Flat
 70
     0
177
     2
291
     1
 71
     2
176
     1
 72
     1
176
     1
 73
     1
176
     1
 90
        2
176
     1
 40
-0.6
176
     1
 41
30.0
176
     1
 62
     5
 63
     7
421
 16777215
176
     1
 74
     0
176
     1
 91
        4
176
     1
 64
     7
176
     1
 65
   257
176
     1
 75
     1
176
     1
175
     1
176
     1
 42
1.0
176
     1
 92
        8
176
     1
 66
     7
176
     1
 43
1.0
176
     1
 76
     1
176
     1
 77
     6
176
     1
 78
     2
176
     1
 67
     7
176
     1
 79
     5
176
     1
170
     0
176
     1
171
     0
176
     1
290
     0
176
     1
 93
       13
176
     1
 44
0.0
176
     1
173
     0
176
     1
  0
VISUALSTYLE
  5
2C
102
{ACAD_REACTORS
330
2A
102
}
330
2A
100
AcDbVisualStyle
  2
FlatWithEdges
 70
     1
177
     2
291
     1
 71
     2
176
     1
 72
     1
176
     1
 73
     1
176
     1
 90
        2
176
     1
 40
-0.6
176
     1
 41
30.0
176
     1
 62
     5
 63
     7
421
 16777215
176
     1
 74
     1
176
     1
 91
        4
176
     1
 64
     7
176
     1
 65
   257
176
     1
 75
     1
176
     1
175
     1
176
     1
 42
1.0
176
     1
 92
        0
176
     1
 66
   257
176
     1
 43
1.0
176
     1
 76
     1
176
     1
 77
     6
176
     1
 78
     2
176
     1
 67
     7
176
     1
 79
     5
176
     1
170
     0
176
     1
171
     0
176
     1
290
     0
176
     1
 93
       13
176
     1
 44
0.0
176
     1
173
     0
176
     1
  0
VISUALSTYLE
  5
2D
102
{ACAD_REACTORS
330
2A
102
}
330
2A
100
AcDbVisualStyle
  2
Gouraud
 70
     2
177
     2
291
     1
 71
     2
176
     1
 72
     2
176
     1
 73
     1
176
     1
 90
        2
176
     1
 40
-0.6
176
     1
 41
30.0
176
     1
 62
     5
 63
     7
421
 16777215
176
     1
 74
     0
176
     1
 91
        4
176
     1
 64
     7
176
     1
 65
   257
176
     1
 75
     1
176
     1
175
     1
176
     1
 42
1.0
176
     1
 92
        0
176
     1
 66
     7
176
     1
 43
1.0
176
     1
 76
     1
176
     1
 77
     6
176
     1
 78
     2
176
     1
 67
     7
176
     1
 79
     5
176
     1
170
     0
176
     1
171
     0
176
     1
290
     0
176
     1
 93
       13
176
     1
 44
0.0
176
     1
173
     0
176
     1
  0
VISUALSTYLE
  5
2E
102
{ACAD_REACTORS
330
2A
102
}
330
2A
100
AcDbVisualStyle
  2
GouraudWithEdges
 70
     3
177
     2
291
     1
 71
     2
176
     1
 72
     2
176
     1
 73
     1
176
     1
 90
        2
176
     1
 40
-0.6
176
     1
 41
30.0
176
     1
 62
     5
 63
     7
421
 16777215
176
     1
 74
     1
176
     1
 91
        4
176
     1
 64
     7
176
     1
 65
   257
176
     1
 75
     1
176
     1
175
     1
176
     1
 42
1.0
176
     1
 92
        0
176
     1
 66
   257
176
     1
 43
1.0
176
     1
 76
     1
176
     1
 77
     6
176
     1
 78
     2
176
     1
 67
     7
176
     1
 79
     5
176
     1
170
     0
176
     1
171
     0
176
     1
290
     0
176
     1
 93
       13
176
     1
 44
0.0
176
     1
173
     0
176
     1
  0
VISUALSTYLE
  5
38
102
{ACAD_REACTORS
330
2A
102
}
330
2A
100
AcDbVisualStyle
  2
Linepattern
 70
    14
177
     2
291
     1
 71
     2
176
     1
 72
     2
176
     1
 73
     0
176
     1
 90
        0
176
     1
 40
-0.6
176
     1
 41
-30.0
176
     1
 62
     5
 63
     7
421
 16777215
176
     1
 74
     1
176
     1
 91
        4
176
     1
 64
     7
176
     1
 65
   257
176
     1
 75
     7
176
     1
175
     7
176
     1
 42
1.0
176
     1
 92
        8
176
     1
 66
     7
176
     1
 43
1.0
176
     1
 76
     1
176
     1
 77
     6
176
     1
 78
     2
176
     1
 67
     7
176
     1
 79
     5
176
     1
170
     0
176
     1
171
     0
176
     1
290
     0
176
     1
 93
        1
176
     1
 44
0.0
176
     1
173
     0
176
     1
  0
VISUALSTYLE
  5
33
102
{ACAD_REACTORS
330
2A
102
}
330
2A
100
AcDbVisualStyle
  2
Realistic
 70
     8
177
     2
291
     0
 71
     2
176
     1
 72
     2
176
     1
 73
     0
176
     1
 90
        0
176
     1
 40
-0.6
176
     1
 41
-30.0
176
     1
 62
     5
 63
     7
421
 16777215
176
     1
 74
     1
176
     1
 91
        0
176
     1
 64
     7
176
     1
 65
   257
176
     1
 75
     1
176
     1
175
     1
176
     1
 42
1.0
176
     1
 92
        8
176
     1
 66
     8
424
  7895160
176
     1
 43
1.0
176
     1
 76
     1
176
     1
 77
     6
176
     1
 78
     2
176
     1
 67
     7
176
     1
 79
     5
176
     1
170
     0
176
     1
171
     0
176
     1
290
     0
176
     1
 93
       13
176
     1
 44
0.0
176
     1
173
     0
176
     1
  0
VISUALSTYLE
  5
37
102
{ACAD_REACTORS
330
2A
102
}
330
2A
100
AcDbVisualStyle
  2
Thicken
 70
    13
177
     2
291
     1
 71
     2
176
     1
 72
     2
176
     1
 73
     0
176
     1
 90
        0
176
     1
 40
-0.6
176
     1
 41
-30.0
176
     1
 62
     5
 63
     7
421
 16777215
176
     1
 74
     1
176
     1
 91
        4
176
     1
 64
     7
176
     1
 65
   257
176
     1
 75
     1
176
     1
175
     1
176
     1
 42
1.0
176
     1
 92
       12
176
     1
 66
     7
176
     1
 43
1.0
176
     1
 76
     1
176
     1
 77
     6
176
     1
 78
     2
176
     1
 67
     7
176
     1
 79
     5
176
     1
170
     0
176
     1
171
     0
176
     1
290
     0
176
     1
 93
        1
176
     1
 44
0.0
176
     1
173
     0
176
     1
  0
ENDSEC
  0
EOF
